0
SECTION
2
HEADER
9
$INSUNITS
70
1
9
$ACADVER
1
AC1014
9
$HANDSEED
5
FFFF
0
ENDSEC
0
SECTION
2
TABLES
0
TABLE
2
VPORT
5
8
100
AcDbSymbolTable
0
ENDTAB
0
TABLE
2
LTYPE
5
5
100
AcDbSymbolTable
0
LTYPE
5
14
100
AcDbSymbolTableRecord
100
AcDbLinetypeTableRecord
2
BYBLOCK
70
0
0
LTYPE
5
15
100
AcDbSymbolTableRecord
100
AcDbLinetypeTableRecord
2
BYLAYER
70
0
0
ENDTAB
0
TABLE
2
LAYER
5
2
100
AcDbSymbolTable
70
2
0
LAYER
5
50
100
AcDbSymbolTableRecord
100
AcDbLayerTableRecord
2
0
70
0
6
CONTINUOUS
0
ENDTAB
0
TABLE
2
STYLE
5
3
100
AcDbSymbolTable
70
1
0
STYLE
5
11
100
AcDbSymbolTableRecord
100
AcDbTextStyleTableRecord
2
STANDARD
70
0
0
ENDTAB
0
TABLE
2
VIEW
5
6
100
AcDbSymbolTable
70
0
0
ENDTAB
0
TABLE
2
UCS
5
7
100
AcDbSymbolTable
70
0
0
ENDTAB
0
TABLE
2
APPID
5
9
100
AcDbSymbolTable
70
2
0
APPID
5
12
100
AcDbSymbolTableRecord
100
AcDbRegAppTableRecord
2
ACAD
70
0
0
ENDTAB
0
TABLE
2
DIMSTYLE
5
A
100
AcDbSymbolTable
70
1
0
ENDTAB
0
TABLE
2
BLOCK_RECORD
5
1
100
AcDbSymbolTable
70
1
0
BLOCK_RECORD
5
1F
100
AcDbSymbolTableRecord
100
AcDbBlockTableRecord
2
*MODEL_SPACE
0
BLOCK_RECORD
5
1B
100
AcDbSymbolTableRecord
100
AcDbBlockTableRecord
2
*PAPER_SPACE
0
ENDTAB
0
ENDSEC
0
SECTION
2
BLOCKS
0
BLOCK
5
20
100
AcDbEntity
100
AcDbBlockBegin
2
*MODEL_SPACE
0
ENDBLK
5
21
100
AcDbEntity
100
AcDbBlockEnd
0
BLOCK
5
1C
100
AcDbEntity
100
AcDbBlockBegin
2
*PAPER_SPACE
0
ENDBLK
5
1D
100
AcDbEntity
100
AcDbBlockEnd
0
ENDSEC
0
SECTION
2
ENTITIES
0
CIRCLE
5
100
100
AcDbEntity
8
0
100
AcDbCircle
10
2.358599426877106e-16
20
-1.06221875
30
0
40
0.084749999999999992
210
0
220
-0
230
1
0
CIRCLE
5
101
100
AcDbEntity
8
0
100
AcDbCircle
10
-0.44180974497577064
20
-0.44180974497577064
30
0
40
0.053503937007873974
210
0
220
-0
230
1
0
CIRCLE
5
102
100
AcDbEntity
8
0
100
AcDbCircle
10
0
20
0
30
0
40
0.10049999999999999
210
0
220
-0
230
1
0
CIRCLE
5
103
100
AcDbEntity
8
0
100
AcDbCircle
10
-1.06221875
20
0
30
0
40
0.084750000000000006
210
0
220
-0
230
1
0
CIRCLE
5
104
100
AcDbEntity
8
0
100
AcDbCircle
10
1.06221875
20
1.3008427921818025e-16
30
0
40
0.084750000000000006
210
0
220
-0
230
1
0
CIRCLE
5
105
100
AcDbEntity
8
0
100
AcDbCircle
10
0.44180974497577069
20
-0.44180974497577052
30
0
40
0.053503937007873974
210
0
220
-0
230
1
0
CIRCLE
5
106
100
AcDbEntity
8
0
100
AcDbCircle
10
-0.44180974497577064
20
0.4418097449757708
30
0
40
0.053503937007873974
210
0
220
-0
230
1
0
CIRCLE
5
107
100
AcDbEntity
8
0
100
AcDbCircle
10
0.44180974497577052
20
0.44180974497577069
30
0
40
0.053503937007873974
210
0
220
-0
230
1
0
CIRCLE
5
108
100
AcDbEntity
8
0
100
AcDbCircle
10
2.358599426877106e-16
20
1.0622187500000002
30
0
40
0.084749999999999992
210
0
220
-0
230
1
0
LWPOLYLINE
5
109
100
AcDbEntity
8
0
100
AcDbPolyline
90
40
70
1
43
0.0
10
-0.10999999999999871
20
-1.7939214223301831
10
-0.96544868643597337
20
-1.5159692949905681
10
-0.95385613745081355
20
-1.5000135201552178
10
-1.1318398762133017
20
-1.3707007646508729
10
-1.1434324251984622
20
-1.3866565394862238
10
-1.672128789047346
20
-0.65896842286577206
10
-1.6533716507731091
20
-0.65287385919550844
10
-1.7213553895355971
20
-0.44364142561057451
10
-1.7401125278098346
20
-0.4497359892808383
10
-1.7401125278098353
20
0.44973598928083552
10
-1.7213553895355984
20
0.44364142561057163
10
-1.6533716507731093
20
0.65287385919550522
10
-1.6721287890473471
20
0.6589684228657694
10
-1.1434324251984644
20
1.386656539486222
10
-1.1318398762133046
20
1.3707007646508715
10
-0.95385613745081566
20
1.5000135201552152
10
-0.96544868643597581
20
1.5159692949905668
10
-0.11000000000000117
20
1.7939214223301829
10
-0.11000000000000128
20
1.774199000000009
10
0.1099999999999987
20
1.7741990000000083
10
0.10999999999999889
20
1.7939214223301831
10
0.96544868643597359
20
1.5159692949905681
10
0.95385613745081355
20
1.5000135201552176
10
1.1318398762133017
20
1.3707007646508729
10
1.1434324251984624
20
1.3866565394862236
10
1.672128789047346
20
0.65896842286577195
10
1.6533716507731091
20
0.65287385919550844
10
1.7213553895355973
20
0.44364142561057446
10
1.7401125278098346
20
0.44973598928083841
10
1.7401125278098353
20
-0.44973598928083564
10
1.7213553895355984
20
-0.4436414256105719
10
1.6533716507731093
20
-0.65287385919550545
10
1.6721287890473469
20
-0.65896842286576962
10
1.1434324251984644
20
-1.386656539486222
10
1.1318398762133042
20
-1.3707007646508715
10
0.95385613745081543
20
-1.5000135201552152
10
0.96544868643597548
20
-1.5159692949905668
10
0.11000000000000133
20
-1.7939214223301829
10
0.11000000000000149
20
-1.774199000000009
10
-0.10999999999999847
20
-1.7741990000000083
0
ENDSEC
0
SECTION
2
OBJECTS
0
DICTIONARY
5
C
100
AcDbDictionary
3
ACAD_GROUP
350
D
3
ACAD_MLINESTYLE
350
17
0
DICTIONARY
5
D
100
AcDbDictionary
0
DICTIONARY
5
1A
330
C
100
AcDbDictionary
0
DICTIONARY
5
17
100
AcDbDictionary
0
ENDSEC
0
EOF
