0
SECTION
2
HEADER
9
$INSUNITS
70
1
9
$ACADVER
1
AC1014
9
$HANDSEED
5
FFFF
0
ENDSEC
0
SECTION
2
TABLES
0
TABLE
2
VPORT
5
8
100
AcDbSymbolTable
0
ENDTAB
0
TABLE
2
LTYPE
5
5
100
AcDbSymbolTable
0
LTYPE
5
14
100
AcDbSymbolTableRecord
100
AcDbLinetypeTableRecord
2
BYBLOCK
70
0
0
LTYPE
5
15
100
AcDbSymbolTableRecord
100
AcDbLinetypeTableRecord
2
BYLAYER
70
0
0
ENDTAB
0
TABLE
2
LAYER
5
2
100
AcDbSymbolTable
70
2
0
LAYER
5
50
100
AcDbSymbolTableRecord
100
AcDbLayerTableRecord
2
0
70
0
6
CONTINUOUS
0
ENDTAB
0
TABLE
2
STYLE
5
3
100
AcDbSymbolTable
70
1
0
STYLE
5
11
100
AcDbSymbolTableRecord
100
AcDbTextStyleTableRecord
2
STANDARD
70
0
0
ENDTAB
0
TABLE
2
VIEW
5
6
100
AcDbSymbolTable
70
0
0
ENDTAB
0
TABLE
2
UCS
5
7
100
AcDbSymbolTable
70
0
0
ENDTAB
0
TABLE
2
APPID
5
9
100
AcDbSymbolTable
70
2
0
APPID
5
12
100
AcDbSymbolTableRecord
100
AcDbRegAppTableRecord
2
ACAD
70
0
0
ENDTAB
0
TABLE
2
DIMSTYLE
5
A
100
AcDbSymbolTable
70
1
0
ENDTAB
0
TABLE
2
BLOCK_RECORD
5
1
100
AcDbSymbolTable
70
1
0
BLOCK_RECORD
5
1F
100
AcDbSymbolTableRecord
100
AcDbBlockTableRecord
2
*MODEL_SPACE
0
BLOCK_RECORD
5
1B
100
AcDbSymbolTableRecord
100
AcDbBlockTableRecord
2
*PAPER_SPACE
0
ENDTAB
0
ENDSEC
0
SECTION
2
BLOCKS
0
BLOCK
5
20
100
AcDbEntity
100
AcDbBlockBegin
2
*MODEL_SPACE
0
ENDBLK
5
21
100
AcDbEntity
100
AcDbBlockEnd
0
BLOCK
5
1C
100
AcDbEntity
100
AcDbBlockBegin
2
*PAPER_SPACE
0
ENDBLK
5
1D
100
AcDbEntity
100
AcDbBlockEnd
0
ENDSEC
0
SECTION
2
ENTITIES
0
CIRCLE
5
100
100
AcDbEntity
8
0
100
AcDbCircle
10
0.5127353787728679
20
0.8881229652536039
30
0
40
0.12795278562669807
210
4.3870045992494062e-38
220
-2.8965375921031587e-38
230
1
0
ARC
5
101
100
AcDbEntity
8
0
100
AcDbCircle
10
0.51273533639641911
20
0.88812284499799143
30
0
40
0.34707194881887377
210
6.6479517332547608e-39
220
9.6945053836606845e-39
230
1
100
AcDbArc
50
235.55984131265242
51
244.44015791517629
0
SPLINE
5
102
100
AcDbEntity
8
0
100
AcDbSpline
70
0
71
3
72
12
73
8
74
0
42
0.000000001
43
0.0000000001
44
0.0000000001
40
-0.8221503557267269
40
-0.8221503557267269
40
-0.8221503557267269
40
-0.8221503557267269
40
-0.36175529780877019
40
-0.36175529780877019
40
-0.16544729999816965
40
-0.16544729999816965
40
0
40
0
40
0
40
0
10
0.36298990875503245
20
0.57501704090386585
30
0
10
0.34889366000160066
20
0.54677237040707316
30
0
10
0.34736324296953075
20
0.54259729318267325
30
0
10
0.34533652198121029
20
0.53358745269575059
30
0
10
0.34361059255966608
20
0.52549881191720216
30
0
10
0.34276844812313173
20
0.50425829245755383
30
0
10
0.34305860670135824
20
0.48829569172082382
30
0
10
0.34732432186111972
20
0.46700660489719537
30
0
0
ARC
5
103
100
AcDbEntity
8
0
100
AcDbCircle
10
0.5127353787728679
20
0.8881229652536039
30
0
40
0.45243762742337224
210
-3.2797288347840416e-53
220
1.2882506214824354e-53
230
1
100
AcDbArc
50
248.55550661510452
51
252.62096320095944
0
SPLINE
5
104
100
AcDbEntity
8
0
100
AcDbSpline
70
0
71
3
72
10
73
6
74
0
42
0.000000001
43
0.0000000001
44
0.0000000001
40
-0.50142905937167392
40
-0.50142905937167392
40
-0.50142905937167392
40
-0.50142905937167392
40
-0.26562094377973056
40
-0.26562094377973056
40
0
40
0
40
0
40
0
10
0.37759604284653758
20
0.45633926177015749
30
0
10
0.38756507319007505
20
0.4646587430985531
30
0
10
0.40088261058411195
20
0.47685358199981093
30
0
10
0.42543534664540728
20
0.51178240654215001
30
0
10
0.42567921395395819
20
0.51625109313402029
30
0
10
0.43310560329295672
20
0.55030922291800077
30
0
0
ARC
5
105
100
AcDbEntity
8
0
100
AcDbCircle
10
0.51273533639641911
20
0.88812284499799143
30
0
40
0.34707194881887443
210
0
220
0
230
1
100
AcDbArc
50
256.73631190088918
51
265.61662850341304
0
SPLINE
5
106
100
AcDbEntity
8
0
100
AcDbSpline
70
0
71
3
72
12
73
8
74
0
42
0.000000001
43
0.0000000001
44
0.0000000001
40
-0.82215035587402951
40
-0.82215035587402951
40
-0.82215035587402951
40
-0.82215035587402951
40
-0.36175529786614413
40
-0.36175529786614413
40
-0.16544729998208829
40
-0.16544729998208829
40
0
40
0
40
0
40
0
10
0.48620874600438546
20
0.54206609002981343
30
0
10
0.48326753732991629
20
0.51063656677830216
30
0
10
0.48334867780868007
20
0.50619057278869983
30
0
10
0.48471354655518412
20
0.49705701070659719
30
0
10
0.48602611937101864
20
0.48889110018457743
30
0
10
0.49291380371352073
20
0.46878068798403522
30
0
10
0.49895072501749771
20
0.45400082345523241
30
0
10
0.51061889113714154
20
0.43569029525638026
30
0
0
ARC
5
107
100
AcDbEntity
8
0
100
AcDbCircle
10
0.51273534635922691
20
0.88812252163203842
30
0
40
0.45243717668416894
210
2.3509629784724344e-38
220
-1.0997686686859373e-40
230
1
100
AcDbArc
50
269.73197517739038
51
273.79743581514464
0
SPLINE
5
108
100
AcDbEntity
8
0
100
AcDbSpline
70
0
71
3
72
10
73
6
74
0
42
0.000000001
43
0.0000000001
44
0.0000000001
40
-0.50142905975358454
40
-0.50142905975358454
40
-0.50142905975358454
40
-0.50142905975358454
40
-0.26562094378822021
40
-0.26562094378822021
40
0
40
0
40
0
40
0
10
0.54269991909732185
20
0.43667870095601519
30
0
10
0.54899041974146889
20
0.44803761537382419
30
0
10
0.55700336961042751
20
0.46421981339978474
30
0
10
0.56728036736427967
20
0.50565944357239068
30
0
10
0.56589349107320774
20
0.50991446476127811
30
0
10
0.56051517734346124
20
0.54435544622956611
30
0
0
ARC
5
109
100
AcDbEntity
8
0
100
AcDbCircle
10
0.51273533639641911
20
0.88812284499799143
30
0
40
0.34707194881887854
210
2.3286044096870341e-38
220
3.236500864306116e-39
230
1
100
AcDbArc
50
277.91278248912585
51
286.79309909164954
0
SPLINE
5
110
100
AcDbEntity
8
0
100
AcDbSpline
70
0
71
3
72
12
73
8
74
0
42
0.000000001
43
0.0000000001
44
0.0000000001
40
-0.82215035451899587
40
-0.82215035451899587
40
-0.82215035451899587
40
-0.82215035451899587
40
-0.36175529751183322
40
-0.36175529751183322
40
-0.16544730020589474
40
-0.16544730020589474
40
0
40
0
40
0
40
0
10
0.61301014627509587
20
0.55585202148089252
30
0
10
0.62162120421901601
20
0.52548237674163556
30
0
10
0.62330294371712214
20
0.52136592216336586
30
0
10
0.627875069124881
20
0.51334217659166836
30
0
10
0.63204887394753972
20
0.50620184779587085
30
0
10
0.64573616715012039
20
0.48993756544439288
30
0
10
0.65670453146027064
20
0.47833653977276375
30
0
10
0.67419929807305856
20
0.46547750847347585
30
0
0
ARC
5
111
100
AcDbEntity
8
0
100
AcDbCircle
10
0.51273527479287717
20
0.88812299054216592
30
0
40
0.45243765794515645
210
2.1961804807703724e-38
220
8.3901082897877867e-39
230
1
100
AcDbArc
50
290.90844792876203
51
294.97390424024297
0
SPLINE
5
112
100
AcDbEntity
8
0
100
AcDbSpline
70
0
71
3
72
10
73
6
74
0
42
0.000000001
43
0.0000000001
44
0.0000000001
40
-0.50142905985879249
40
-0.50142905985879249
40
-0.50142905985879249
40
-0.50142905985879249
40
-0.26562094375832396
40
-0.26562094375832396
40
0
40
0
40
0
40
0
10
0.70375691241486626
20
0.47798817333310273
30
0
10
0.70551931639555165
20
0.49085243644674148
30
0
10
0.70714548545761891
20
0.50883649812740617
30
0
10
0.70175877941246012
20
0.55119028227785383
30
0
10
0.69892846483898319
20
0.55465697386916446
30
0
10
0.68147181911683108
20
0.58482936162572552
30
0
0
ARC
5
113
100
AcDbEntity
8
0
100
AcDbCircle
10
0.51273533639641911
20
0.88812284499799143
30
0
40
0.34707194881888515
210
2.0544430488177044e-38
220
1.1429836544869155e-38
230
1
100
AcDbArc
50
299.08925307736212
51
307.96956967988564
0
SPLINE
5
114
100
AcDbEntity
8
0
100
AcDbSpline
70
0
71
3
72
12
73
8
74
0
42
0.000000001
43
0.0000000001
44
0.0000000001
40
-0.82215035641989642
40
-0.82215035641989642
40
-0.82215035641989642
40
-0.82215035641989642
40
-0.36175529786625849
40
-0.36175529786625849
40
-0.16544730005084804
40
-0.16544730005084804
40
0
40
0
40
0
40
0
10
0.72626887782978955
20
0.61451296882415107
30
0
10
0.74526923129783984
20
0.58930479140595671
30
0
10
0.74832444158149081
20
0.58607382621073278
30
0
10
0.7554863327765946
20
0.58024354848663817
30
0
10
0.76195767413693849
20
0.57509314238371279
30
0
10
0.78059603136818378
20
0.56487157137936284
30
0
10
0.79501450038270727
20
0.55801616728316417
30
0
10
0.81597310228184894
20
0.55234531634686701
30
0
0
ARC
5
115
100
AcDbEntity
8
0
100
AcDbCircle
10
0.51273534167336365
20
0.88812283955599514
30
0
40
0.45243749242442938
210
1.744791659729027e-38
220
1.5757061716577968e-38
230
1
100
AcDbArc
50
312.08491777302754
51
316.15037557244835
0
SPLINE
5
116
100
AcDbEntity
8
0
100
AcDbSpline
70
0
71
3
72
10
73
6
74
0
42
0.000000001
43
0.0000000001
44
0.0000000001
40
-0.50142905963251327
40
-0.50142905963251327
40
-0.50142905963251327
40
-0.50142905963251327
40
-0.26562094377632472
40
-0.26562094377632472
40
0
40
0
40
0
40
0
10
0.83901538340402793
20
0.57468860575320613
30
0
10
0.83601166832198692
20
0.58732082764655968
30
0
10
0.83103143341000496
20
0.60467790572939062
30
0
10
0.81070852806415927
20
0.64222573058569354
30
0
10
0.80681702487937501
20
0.64443589666515033
30
0
10
0.77963966389768269
20
0.6662647425585202
30
0
0
ARC
5
117
100
AcDbEntity
8
0
100
AcDbCircle
10
0.51273533639641911
20
0.88812284499799143
30
0
40
0.34707194881889364
210
-3.7570444253615244e-39
220
-4.5198773662867296e-39
230
1
100
AcDbArc
50
320.26572366559799
51
329.14604026812117
0
SPLINE
5
118
100
AcDbEntity
8
0
100
AcDbSpline
70
0
71
3
72
12
73
8
74
0
42
0.000000001
43
0.0000000001
44
0.0000000001
40
-0.82215035555223115
40
-0.82215035555223115
40
-0.82215035555223115
40
-0.82215035555223115
40
-0.36175529791464844
40
-0.36175529791464844
40
-0.16544730013721137
40
-0.16544730013721137
40
0
40
0
40
0
40
0
10
0.81068872138370873
20
0.71012644606935216
30
0
10
0.83751226734842521
20
0.69348424001788334
30
0
10
0.84152832535950528
20
0.69157512394911247
30
0
10
0.85031272923741519
20
0.6887257253935678
30
0
10
0.85820761662705558
20
0.68626083286767536
30
0
10
0.87927982449096764
20
0.68346245298595498
30
0
10
0.8952011040190313
20
0.68227853081536538
30
0
10
0.916792965909347
20
0.68456174007211212
30
0
0
ARC
5
119
100
AcDbEntity
8
0
100
AcDbCircle
10
0.5127353652120259
20
0.88812283174073514
30
0
40
0.45243746830097697
210
8.5942922804045551e-39
220
1.7059198740026413e-38
230
1
100
AcDbArc
50
333.26138825283459
51
337.32684626911185
0
SPLINE
5
120
100
AcDbEntity
8
0
100
AcDbSpline
70
0
71
3
72
10
73
6
74
0
42
0.000000001
43
0.0000000001
44
0.0000000001
40
-0.5014290594895997
40
-0.5014290594895997
40
-0.5014290594895997
40
-0.5014290594895997
40
-0.26562094378345313
40
-0.26562094378345313
40
0
40
0
40
0
40
0
10
0.93020792606465996
20
0.7137200689823967
30
0
10
0.92284376025253967
20
0.72441419809313501
30
0
10
0.91192972971087161
20
0.73880012300139497
30
0
10
0.87941534605537075
20
0.76647094675413074
30
0
10
0.87498822332790294
20
0.76712609215196093
30
0
10
0.84176060028155586
20
0.7776632895839527
30
0
0
ARC
5
121
100
AcDbEntity
8
0
100
AcDbCircle
10
0.51273533639641911
20
0.88812284499799143
30
0
40
0.34707194881890269
210
1.870571560527566e-39
220
5.5718611125280016e-39
230
1
100
AcDbArc
50
341.44219425383324
51
350.32251085635625
0
SPLINE
5
122
100
AcDbEntity
8
0
100
AcDbSpline
70
0
71
3
72
12
73
8
74
0
42
0.000000001
43
0.0000000001
44
0.0000000001
40
-0.8221503556942702
40
-0.8221503556942702
40
-0.8221503556942702
40
-0.8221503556942702
40
-0.36175529772855364
40
-0.36175529772855364
40
-0.16544730008610722
40
-0.16544730008610722
40
0
40
0
40
0
40
0
10
0.85486830927839486
20
0.82977932330196369
30
0
10
0.88589237922991682
20
0.82395071076066095
30
0
10
0.89032689406198295
20
0.82362128053073058
30
0
10
0.89954742821138411
20
0.82413758820049365
30
0
10
0.90779961333782011
20
0.82469110664567002
30
0
10
0.92845975340615627
20
0.82969385460054257
30
0
10
0.94373358643865346
20
0.83434130960076014
30
0
10
0.96304260771050942
20
0.84427021898862131
30
0
0
ARC
5
123
100
AcDbEntity
8
0
100
AcDbCircle
10
0.51273540717987676
20
0.88812284063223801
30
0
40
0.4524374291266734
210
-1.1393511166907914e-39
220
-1.1699597254367613e-38
230
1
100
AcDbArc
50
354.43785866499223
51
358.50331703342511
0
SPLINE
5
124
100
AcDbEntity
8
0
100
AcDbSpline
70
0
71
3
72
10
73
6
74
0
42
0.000000001
43
0.0000000001
44
0.0000000001
40
-0.50142905941505655
40
-0.50142905941505655
40
-0.50142905941505655
40
-0.50142905941505655
40
-0.26562094379470458
40
-0.26562094379470458
40
0
40
0
40
0
40
0
10
0.96501848219512032
20
0.87630559351163884
30
0
10
0.95428843705044675
20
0.88361732840609386
30
0
10
0.93891461118651132
20
0.89308920129141534
30
0
10
0.89859999689662806
20
0.9071459258786283
30
0
10
0.89423516208443543
20
0.90615756957674587
30
0
10
0.85944485158581707
20
0.90398001164557995
30
0
0
ARC
5
125
100
AcDbEntity
8
0
100
AcDbCircle
10
0.51273533639641911
20
0.88812284499799143
30
0
40
0.34707194881891096
210
5.3706471749511015e-40
220
-1.1742668281560747e-38
230
1
100
AcDbArc
50
2.6186648420679264
51
11.498981444590784
0
SPLINE
5
126
100
AcDbEntity
8
0
100
AcDbSpline
70
0
71
3
72
12
73
8
74
0
42
0.000000001
43
0.0000000001
44
0.0000000001
40
-0.82215035421806126
40
-0.82215035421806126
40
-0.82215035421806126
40
-0.82215035421806126
40
-0.36175529755372782
40
-0.36175529755372782
40
-0.16544730021913634
40
-0.16544730021913634
40
0
40
0
40
0
40
0
10
0.85284094336112282
20
0.95731181643224095
30
0
10
0.88387556473770579
20
0.96308398382006477
30
0
10
0.88812963060571859
20
0.96437873081246206
30
0
10
0.89654101078805937
20
0.96819101449127198
30
0
10
0.90403599032496984
20
0.97168818817453262
30
0
10
0.92149379620754657
20
0.98381641514901907
30
0
10
0.9340573669275779
20
0.99366758274175038
30
0
10
0.94847575728197642
20
1.009901238043488
30
0
0
ARC
5
127
100
AcDbEntity
8
0
100
AcDbCircle
10
0.51273532488878448
20
0.8881228413371669
30
0
40
0.45243751206831634
210
-6.3279376073865633e-39
220
2.264226122018441e-38
230
1
100
AcDbArc
50
15.614329626027226
51
19.679787248860254
0
SPLINE
5
128
100
AcDbEntity
8
0
100
AcDbSpline
70
0
71
3
72
10
73
6
74
0
42
0.000000001
43
0.0000000001
44
0.0000000001
40
-0.50142905950303074
40
-0.50142905950303074
40
-0.50142905950303074
40
-0.50142905950303074
40
-0.26562094376637491
40
-0.26562094376637491
40
0
40
0
40
0
40
0
10
0.93874569329804047
20
1.040487103335767
30
0
10
0.9260989209414916
20
1.0434289536748869
30
0
10
0.90834162008022956
20
1.046707545642964
30
0
10
0.86567148718551779
20
1.0452517325188067
30
0
10
0.86195843541381745
20
1.0427533575124119
30
0
10
0.83030406168000681
20
1.0281551354838601
30
0
0
ARC
5
129
100
AcDbEntity
8
0
100
AcDbCircle
10
0.51273533639641911
20
0.88812284499799143
30
0
40
0.34707194881891767
210
9.4854779799410094e-39
220
-2.1511403836527223e-38
230
1
100
AcDbArc
50
23.795135430302224
51
32.675452032824808
0
SPLINE
5
130
100
AcDbEntity
8
0
100
AcDbSpline
70
0
71
3
72
12
73
8
74
0
42
0.000000001
43
0.0000000001
44
0.0000000001
40
-0.82215035493480659
40
-0.82215035493480659
40
-0.82215035493480659
40
-0.82215035493480659
40
-0.36175529771501791
40
-0.36175529771501791
40
-0.1654473001640992
40
-0.1654473001640992
40
0
40
0
40
0
40
0
10
0.80488043063304282
20
1.0754999555809999
30
0
10
0.83173420585170421
20
1.0920933397106072
30
0
10
0.83523328757004389
20
1.094837401160571
30
0
10
0.84169951030003864
20
1.1014307908210705
30
0
10
0.84742504572976074
20
1.1073993070587049
30
0
10
0.85932274397034247
20
1.1250150287728402
30
0
10
0.86747927258609614
20
1.138739454220848
30
0
10
0.87505974849182655
20
1.1590854103201922
30
0
0
ARC
5
131
100
AcDbEntity
8
0
100
AcDbCircle
10
0.51273553839492492
20
0.88812300754559204
30
0
40
0.45243724088510712
210
4.6895666873727913e-54
220
-6.2707723591915504e-54
230
1
100
AcDbArc
50
36.790798995368057
51
40.856259055990371
0
SPLINE
5
132
100
AcDbEntity
8
0
100
AcDbSpline
70
0
71
3
72
10
73
6
74
0
42
0.000000001
43
0.0000000001
44
0.0000000001
40
-0.50142905979882235
40
-0.50142905979882235
40
-0.50142905979882235
40
-0.50142905979882235
40
-0.26562094378359635
40
-0.26562094378359635
40
0
40
0
40
0
40
0
10
0.85493784509651982
20
1.1840909757918807
30
0
10
0.8420823620991631
20
1.1822656284079964
30
0
10
0.82433980819454311
20
1.1789081474227532
30
0
10
0.78507699464065572
20
1.1621364122207516
30
0
10
0.78251719411102483
20
1.1584654379010009
30
0
10
0.75827385571559547
20
1.1334181225463182
30
0
0
ARC
5
133
100
AcDbEntity
8
0
100
AcDbCircle
10
0.51273533639641911
20
0.88812284499799143
30
0
40
0.34707194881892156
210
1.661576016285225e-38
220
-1.6632236823008202e-38
230
1
100
AcDbArc
50
44.971606018536193
51
53.851922621058719
0
SPLINE
5
134
100
AcDbEntity
8
0
100
AcDbSpline
70
0
71
3
72
12
73
8
74
0
42
0.000000001
43
0.0000000001
44
0.0000000001
40
-0.82215035510320211
40
-0.82215035510320211
40
-0.82215035510320211
40
-0.82215035510320211
40
-0.36175529767245274
40
-0.36175529767245274
40
-0.16544729998079827
40
-0.16544729998079827
40
0
40
0
40
0
40
0
10
0.71746410409645756
20
1.1683817776531138
30
0
10
0.7365102820120728
20
1.1935553500474869
30
0
10
0.73878180921470238
20
1.1973781252627098
30
0
10
0.74242957526970521
20
1.2058621470844086
30
0
10
0.74561240130571005
20
1.2134959246823123
30
0
10
0.75034314184374418
20
1.2342200403090557
30
0
10
0.75299104395343863
20
1.2499641639287964
30
0
10
0.75270982013931764
20
1.2716745866947305
30
0
0
ARC
5
135
100
AcDbEntity
8
0
100
AcDbCircle
10
0.51273539817754699
20
0.88812295200604074
30
0
40
0.45243737651552607
210
4.4254366689465719e-54
220
-2.7688360849272455e-54
230
1
100
AcDbArc
50
57.967270193225296
51
62.032729034603506
0
SPLINE
5
136
100
AcDbEntity
8
0
100
AcDbSpline
70
0
71
3
72
10
73
6
74
0
42
0.000000001
43
0.0000000001
44
0.0000000001
40
-0.50142905979084285
40
-0.50142905979084285
40
-0.50142905979084285
40
-0.50142905979084285
40
-0.26562094377257672
40
-0.26562094377257672
40
0
40
0
40
0
40
0
10
0.72491365188549228
20
1.2877227121682548
30
0
10
0.71358566259607104
20
1.2813766903672246
30
0
10
0.69825408577689907
20
1.2718365828306151
30
0
10
0.66770125203027075
20
1.2420140413043341
30
0
10
0.66664041801261886
20
1.2376662530907538
30
0
10
0.65308231214122681
20
1.2055526231478226
30
0
0
ARC
5
137
100
AcDbEntity
8
0
100
AcDbCircle
10
0.51273533639641911
20
0.88812284499799143
30
0
40
0.34707194881892239
210
4.6998012685550307e-53
220
-2.0779490143863202e-53
230
1
100
AcDbArc
50
66.148076606769962
51
75.028393209292503
0
SPLINE
5
138
100
AcDbEntity
8
0
100
AcDbSpline
70
0
71
3
72
12
73
8
74
0
42
0.000000001
43
0.0000000001
44
0.0000000001
40
-0.82215035519736035
40
-0.82215035519736035
40
-0.82215035519736035
40
-0.82215035519736035
40
-0.36175529763078063
40
-0.36175529763078063
40
-0.16544730005878272
40
-0.16544730005878272
40
0
40
0
40
0
40
0
10
0.60239802304071954
20
1.2234130779018
30
0
10
0.6110643117893918
20
1.2537670081203809
30
0
10
0.61180150213452322
20
1.2581522101258991
30
0
10
0.61213816050098357
20
1.2673810499424472
30
0
10
0.61234841885248281
20
1.2756491049403107
30
0
10
0.60927328896690669
20
1.2966827078526428
30
0
10
0.606054950706714
20
1.3123201984512132
30
0
10
0.59795000801281284
20
1.3324629750195567
30
0
0
ARC
5
139
100
AcDbEntity
8
0
100
AcDbCircle
10
0.51273533588823594
20
0.88812284172416567
30
0
40
0.4524375033109711
210
2.3089125579112372e-38
220
-4.4279868470923332e-39
230
1
100
AcDbArc
50
79.143741351371247
51
83.209199052927943
0
SPLINE
5
140
100
AcDbEntity
8
0
100
AcDbSpline
70
0
71
3
72
10
73
6
74
0
42
0.000000001
43
0.0000000001
44
0.0000000001
40
-0.50142905980425057
40
-0.50142905980425057
40
-0.50142905980425057
40
-0.50142905980425057
40
-0.26562094378407169
40
-0.26562094378407169
40
0
40
0
40
0
40
0
10
0.56623360144703361
20
1.3373862722239844
30
0
10
0.55796301347184463
20
1.3273766413558246
30
0
10
0.54711302822459906
20
1.3129423516847278
30
0
10
0.52939650383023573
20
1.2740967033556163
30
0
10
0.52997790782167908
20
1.269659294135115
30
0
10
0.52893613180308419
20
1.2348164732710738
30
0
0
ARC
5
141
100
AcDbEntity
8
0
100
AcDbCircle
10
0.51273533639641911
20
0.88812284499799143
30
0
40
0.34707194881891967
210
2.3484260418505458e-38
220
-1.0974060879404746e-39
230
1
100
AcDbArc
50
87.324547195003845
51
96.204863797526443
0
SPLINE
5
142
100
AcDbEntity
8
0
100
AcDbSpline
70
0
71
3
72
12
73
8
74
0
42
0.000000001
43
0.0000000001
44
0.0000000001
40
-0.82215035526344216
40
-0.82215035526344216
40
-0.82215035526344216
40
-0.82215035526344216
40
-0.36175529760814351
40
-0.36175529760814351
40
-0.16544729999271326
40
-0.16544729999271326
40
0
40
0
40
0
40
0
10
0.4752224993155722
20
1.2331615742895123
30
0
10
0.47233846857422834
20
1.2645963958598361
30
0
10
0.47144176043018993
20
1.2689517787996016
30
0
10
0.46842184352620719
20
1.2776790306934225
30
0
10
0.46563113763668501
20
1.2854647164440662
30
0
10
0.45516545066227898
20
1.3039671019870631
30
0
10
0.44651552644026149
20
1.3173860298479516
30
0
10
0.43168148229372028
20
1.333240766611316
30
0
0
ARC
5
143
100
AcDbEntity
8
0
100
AcDbCircle
10
0.5127353230288616
20
0.88812290603620481
30
0
40
0.45243743755449978
210
2.3129541771976727e-38
220
4.2117793086090999e-39
230
1
100
AcDbArc
50
100.32021164404931
51
104.38566993672059
0
SPLINE
5
144
100
AcDbEntity
8
0
100
AcDbSpline
70
0
71
3
72
10
73
6
74
0
42
0.000000001
43
0.0000000001
44
0.0000000001
40
-0.50142905994481923
40
-0.50142905994481923
40
-0.50142905994481923
40
-0.50142905994481923
40
-0.26562094378022139
40
-0.26562094378022139
40
0
40
0
40
0
40
0
10
0.4003283138693709
20
1.3263743169782576
30
0
10
0.396232116003012
20
1.314052933213675
30
0
10
0.39132907291335067
20
1.2966738921779892
30
0
10
0.38884157264031127
20
1.2540514570778796
30
0
10
0.39098669281649184
20
1.2501237235543492
30
0
10
0.40260194427356671
20
1.2172574278003359
30
0
0
ARC
5
145
100
AcDbEntity
8
0
100
AcDbCircle
10
0.51273533639641911
20
0.88812284499799143
30
0
40
0.34707194881891473
210
9.3316002158363205e-52
220
3.1224940781187172e-52
230
1
100
AcDbArc
50
108.50101778323794
51
117.38133438576079
0
SPLINE
5
146
100
AcDbEntity
8
0
100
AcDbSpline
70
0
71
3
72
12
73
8
74
0
42
0.000000001
43
0.0000000001
44
0.0000000001
40
-0.82215035464110497
40
-0.82215035464110497
40
-0.82215035464110497
40
-0.82215035464110497
40
-0.3617552974510847
40
-0.3617552974510847
40
-0.16544730014410497
40
-0.16544730014410497
40
0
40
0
40
0
40
0
10
0.35311329210400078
20
1.1963106783608066
30
0
10
0.33906844620577237
20
1.2245809444421942
30
0
10
0.33665894498284682
20
1.2283182897291471
30
0
10
0.33069030931109794
20
1.2353652899547511
30
0
10
0.32527553947538279
20
1.2416171064583805
30
0
10
0.30883274441338854
20
1.2550894249666236
30
0
10
0.29591945446540929
20
1.2644774894837107
30
0
10
0.27635972870610848
20
1.2739029164056492
30
0
0
ARC
5
147
100
AcDbEntity
8
0
100
AcDbCircle
10
0.51273535522296354
20
0.88812281658592473
30
0
40
0.45243753406205417
210
1.002309255658586e-38
220
6.141360800638877e-39
230
1
100
AcDbArc
50
121.49668266605956
51
125.56214009118113
0
SPLINE
5
148
100
AcDbEntity
8
0
100
AcDbSpline
70
0
71
3
72
10
73
6
74
0
42
0.000000001
43
0.0000000001
44
0.0000000001
40
-0.50142905955940076
40
-0.50142905955940076
40
-0.50142905955940076
40
-0.50142905955940076
40
-0.26562094377742668
40
-0.26562094377742668
40
0
40
0
40
0
40
0
10
0.24960421755280143
20
1.2561740720063601
30
0
10
0.25023562399607341
20
1.2432050064910698
30
0
10
0.2519417062164746
20
1.2252283498887904
30
0
10
0.26501918076599384
20
1.1845855240449228
30
0
10
0.26843830676276215
20
1.1816979284111759
30
0
10
0.29114188162043497
20
1.1552469331244606
30
0
0
ARC
5
149
100
AcDbEntity
8
0
100
AcDbCircle
10
0.51273533639641911
20
0.88812284499799143
30
0
40
0.34707194881890657
210
9.0471977821839718e-39
220
7.505125526705034e-39
230
1
100
AcDbArc
50
129.67748837147252
51
138.55780497399553
0
SPLINE
5
150
100
AcDbEntity
8
0
100
AcDbSpline
70
0
71
3
72
12
73
8
74
0
42
0.000000001
43
0.0000000001
44
0.0000000001
40
-0.82215035329098407
40
-0.82215035329098407
40
-0.82215035329098407
40
-0.82215035329098407
40
-0.36175529733398121
40
-0.36175529733398121
40
-0.16544730033864144
40
-0.16544730033864144
40
0
40
0
40
0
40
0
10
0.2525619264704036
20
1.117837307808718
30
0
10
0.22925309968576818
20
1.1391249623139694
30
0
10
0.22565622185311759
20
1.1417395207759475
30
0
10
0.21754496475386606
20
1.146154532883817
30
0
10
0.2102374256408365
20
1.1500281376805479
30
0
10
0.19003821305976865
20
1.1566508778789346
30
0
10
0.17460556877601691
20
1.1607401689405843
30
0
10
0.15296181073953324
20
1.1624633298752101
30
0
0
ARC
5
151
100
AcDbEntity
8
0
100
AcDbCircle
10
0.51273533459359655
20
0.88812284627421367
30
0
40
0.45243749779256676
210
3.5638700400411838e-39
220
4.6737035162785637e-39
230
1
100
AcDbArc
50
142.67315309127352
51
146.73861084243774
0
SPLINE
5
152
100
AcDbEntity
8
0
100
AcDbSpline
70
0
71
3
72
10
73
6
74
0
42
0.000000001
43
0.0000000001
44
0.0000000001
40
-0.50142905928816917
40
-0.50142905928816917
40
-0.50142905928816917
40
-0.50142905928816917
40
-0.26562094375069556
40
-0.26562094375069556
40
0
40
0
40
0
40
0
10
0.13441743689592783
20
1.1362664693847324
30
0
10
0.13969117273912163
20
1.1244012661926235
30
0
10
0.14777596439948765
20
1.1082548411662989
30
0
10
0.1746522283537898
20
1.0750806634653163
30
0
10
0.17888358825634204
20
1.0736231914936232
30
0
10
0.2096092429265228
20
1.0571598501614388
30
0
0
ARC
5
153
100
AcDbEntity
8
0
100
AcDbCircle
10
0.51273533639641911
20
0.88812284499799143
30
0
40
0.3470719488188978
210
1.0734556191764927e-39
220
1.9249773624399377e-39
230
1
100
AcDbArc
50
150.85395895970757
51
159.73427556223092
0
SPLINE
5
154
100
AcDbEntity
8
0
100
AcDbSpline
70
0
71
3
72
12
73
8
74
0
42
0.000000001
43
0.0000000001
44
0.0000000001
40
-0.82215035688475158
40
-0.82215035688475158
40
-0.82215035688475158
40
-0.82215035688475158
40
-0.36175529796285216
40
-0.36175529796285216
40
-0.16544729972944555
40
-0.16544729972944555
40
0
40
0
40
0
40
0
10
0.18714842151794886
20
1.0083397261622635
30
0
10
0.15772360005853633
20
1.0197697533931736
30
0
10
0.15342512391091659
20
1.0209084144097462
30
0
10
0.14426671559198659
20
1.0220951665632154
30
0
10
0.13605333085552504
20
1.0230674078592177
30
0
10
0.11482571645458561
20
1.0219461319730598
30
0
10
0.098957981745334364
20
1.0201843681668281
30
0
10
0.078153300986848237
20
1.0139725406890006
30
0
0
ARC
5
155
100
AcDbEntity
8
0
100
AcDbCircle
10
0.51273526144405757
20
0.88812286384929218
30
0
40
0.45243742276196652
210
1.6348734292887892e-39
220
5.6455170791153641e-39
230
1
100
AcDbArc
50
163.8496233422668
51
167.91508176791501
0
SPLINE
5
156
100
AcDbEntity
8
0
100
AcDbSpline
70
0
71
3
72
10
73
6
74
0
42
0.000000001
43
0.0000000001
44
0.0000000001
40
-0.5014290592651649
40
-0.5014290592651649
40
-0.5014290592651649
40
-0.5014290592651649
40
-0.26562094374283013
40
-0.26562094374283013
40
0
40
0
40
0
40
0
10
0.070324584898446091
20
0.98284569527838861
30
0
10
0.07952840282623129
20
0.97368681598852835
30
0
10
0.092900008045356433
20
0.96155128661426836
30
0
10
0.12994527307400772
20
0.94032611352318651
30
0
10
0.1344173982727426
20
0.94049560489544781
30
0
10
0.16901546283539032
20
0.93624338298471577
30
0
0
ARC
5
157
100
AcDbEntity
8
0
100
AcDbCircle
10
0.51273533639641911
20
0.88812284499799143
30
0
40
0.34707194881888881
210
-1.6297894645309131e-39
220
-1.1641412422159736e-38
230
1
100
AcDbArc
50
172.03042954794316
51
180.91074615046631
0
SPLINE
5
158
100
AcDbEntity
8
0
100
AcDbSpline
70
0
71
3
72
12
73
8
74
0
42
0.000000001
43
0.0000000001
44
0.0000000001
40
-0.82215035655262914
40
-0.82215035655262914
40
-0.82215035655262914
40
-0.82215035655262914
40
-0.36175529792040029
40
-0.36175529792040029
40
-0.16544729988728679
40
-0.16544729988728679
40
0
40
0
40
0
40
0
10
0.16570723355920955
20
0.88260618856984274
30
0
10
0.13414040261122642
20
0.88263490001323752
30
0
10
0.12972086116877002
20
0.88214388110286768
30
0
10
0.12075219542673378
20
0.8799420958499663
30
0
10
0.11274222818243898
20
0.87788166707093263
30
0
10
0.093353118808705282
20
0.86916780964225138
30
0
10
0.079193319375974888
20
0.86179292691322984
30
0
10
0.06203750321841596
20
0.84848505274248598
30
0
0
ARC
5
159
100
AcDbEntity
8
0
100
AcDbCircle
10
0.51273522576356501
20
0.88812283129869707
30
0
40
0.45243738859233928
210
-2.0596876362025683e-39
220
2.3419489199538884e-38
230
1
100
AcDbArc
50
185.026093776919
51
189.09155250973336
0
SPLINE
5
160
100
AcDbEntity
8
0
100
AcDbSpline
70
0
71
3
72
10
73
6
74
0
42
0.000000001
43
0.0000000001
44
0.0000000001
40
-0.50142905932506088
40
-0.50142905932506088
40
-0.50142905932506088
40
-0.50142905932506088
40
-0.26562094377945872
40
-0.26562094377945872
40
0
40
0
40
0
40
0
10
0.065981756373369435
20
0.8166320753642472
30
0
10
0.077872629856703388
20
0.81141647727813437
30
0
10
0.09472513920564897
20
0.80493081411299561
30
0
10
0.1369362369484915
20
0.79852122290895788
30
0
10
0.14104514215806735
20
0.80029478686089528
30
0
10
0.1748429562862453
20
0.80882797050778266
30
0
0
ARC
5
161
100
AcDbEntity
8
0
100
AcDbCircle
10
0.51273533639641911
20
0.88812284499799143
30
0
40
0.34707194881888126
210
-5.3712596094039831e-39
220
2.28880833128156e-38
230
1
100
AcDbArc
50
193.20690013617923
51
202.08721673870286
0
SPLINE
5
162
100
AcDbEntity
8
0
100
AcDbSpline
70
0
71
3
72
12
73
8
74
0
42
0.000000001
43
0.0000000001
44
0.0000000001
40
-0.82215035435394412
40
-0.82215035435394412
40
-0.82215035435394412
40
-0.82215035435394412
40
-0.36175529745890761
40
-0.36175529745890761
40
-0.16544730013853587
40
-0.16544730013853587
40
0
40
0
40
0
40
0
10
0.19113411383773735
20
0.75761770599689471
30
0
10
0.16168854883926492
20
0.74624122401350035
30
0
10
0.15774482566409515
20
0.7441868399985917
30
0
10
0.15017717050104287
20
0.7388938806410249
30
0
10
0.14345241121300972
20
0.73407905411119379
30
0
10
0.12852041350826443
20
0.71894946983411268
30
0
10
0.1179809087429244
20
0.70695748701820205
30
0
10
0.10679094522358161
20
0.68835086828066949
30
0
0
ARC
5
163
100
AcDbEntity
8
0
100
AcDbCircle
10
0.51273522337424982
20
0.88812278430638492
30
0
40
0.45243737179398935
210
1.038069679390232e-38
220
-2.1093978325557995e-38
230
1
100
AcDbArc
50
206.20256428965027
51
210.26802317347261
0
SPLINE
5
164
100
AcDbEntity
8
0
100
AcDbSpline
70
0
71
3
72
10
73
6
74
0
42
0.000000001
43
0.0000000001
44
0.0000000001
40
-0.50142906059448222
40
-0.50142906059448222
40
-0.50142906059448222
40
-0.50142906059448222
40
-0.26562094377291767
40
-0.26562094377291767
40
0
40
0
40
0
40
0
10
0.12197547437745293
20
0.66007368003317601
30
0
10
0.13494747494347253
20
0.65950575861030802
30
0
10
0.15300486373678643
20
0.65954588636448963
30
0
10
0.19468095155556431
20
0.6688175278528945
30
0
10
0.1978717063922219
20
0.67195563474421705
30
0
10
0.22630468799729389
20
0.69212177021882315
30
0
0
ARC
5
165
100
AcDbEntity
8
0
100
AcDbCircle
10
0.51273533639641911
20
0.88812284499799143
30
0
40
0.34707194881887593
210
1.3276679774443211e-38
220
-1.9402179302669319e-38
230
1
100
AcDbArc
50
214.38337072441564
51
223.26368732693956
0
SPLINE
5
166
100
AcDbEntity
8
0
100
AcDbSpline
70
0
71
3
72
12
73
8
74
0
42
0.000000001
43
0.0000000001
44
0.0000000001
40
-0.82215035455765073
40
-0.82215035455765073
40
-0.82215035455765073
40
-0.82215035455765073
40
-0.3617552974984064
40
-0.3617552974984064
40
-0.16544730016347231
40
-0.16544730016347231
40
0
40
0
40
0
40
0
10
0.25999502127670943
20
0.6502546655999869
30
0
10
0.23664750894312925
20
0.62900944711930118
30
0
10
0.23371222570785891
20
0.62566915394868161
30
0
10
0.22856763488284892
20
0.61799986397446804
30
0
10
0.22403629955510029
20
0.61108090869542508
30
0
10
0.21557806259917442
20
0.59157893178492238
30
0
10
0.21008227094776905
20
0.57658943257464446
30
0
10
0.20636942667216446
20
0.55519699624926677
30
0
0
ARC
5
167
100
AcDbEntity
8
0
100
AcDbCircle
10
0.51273531206617562
20
0.88812281659961767
30
0
40
0.45243746262794204
210
-1.7299735472459687e-38
220
1.5919608666954239e-38
230
1
100
AcDbArc
50
227.37903528615925
51
231.44449335343401
0
SPLINE
5
168
100
AcDbEntity
8
0
100
AcDbSpline
70
0
71
3
72
10
73
6
74
0
42
0.000000001
43
0.0000000001
44
0.0000000001
40
-0.50142905984604691
40
-0.50142905984604691
40
-0.50142905984604691
40
-0.50142905984604691
40
-0.26562094378875328
40
-0.26562094378875328
40
0
40
0
40
0
40
0
10
0.23074347702234257
20
0.53431458809465193
30
0
10
0.24304466420483647
20
0.53847104424241721
30
0
10
0.25986818195790945
20
0.54503154347139815
30
0
10
0.29538067327996714
20
0.56873223108965387
30
0
10
0.2972223485686375
20
0.57281106220590705
30
0
10
0.31645046594165971
20
0.60188660115824111
30
0
0
ENDSEC
0
SECTION
2
OBJECTS
0
DICTIONARY
5
C
100
AcDbDictionary
3
ACAD_GROUP
350
D
3
ACAD_MLINESTYLE
350
17
0
DICTIONARY
5
D
100
AcDbDictionary
0
DICTIONARY
5
1A
330
C
100
AcDbDictionary
0
DICTIONARY
5
17
100
AcDbDictionary
0
ENDSEC
0
EOF
