0
SECTION
2
HEADER
9
$INSUNITS
70
4
9
$ACADVER
1
AC1014
9
$HANDSEED
5
FFFF
0
ENDSEC
0
SECTION
2
TABLES
0
TABLE
2
VPORT
5
8
100
AcDbSymbolTable
0
ENDTAB
0
TABLE
2
LTYPE
5
5
100
AcDbSymbolTable
0
LTYPE
5
14
100
AcDbSymbolTableRecord
100
AcDbLinetypeTableRecord
2
BYBLOCK
70
0
0
LTYPE
5
15
100
AcDbSymbolTableRecord
100
AcDbLinetypeTableRecord
2
BYLAYER
70
0
0
ENDTAB
0
TABLE
2
LAYER
5
2
100
AcDbSymbolTable
70
2
0
LAYER
5
50
100
AcDbSymbolTableRecord
100
AcDbLayerTableRecord
2
0
70
0
6
CONTINUOUS
0
ENDTAB
0
TABLE
2
STYLE
5
3
100
AcDbSymbolTable
70
1
0
STYLE
5
11
100
AcDbSymbolTableRecord
100
AcDbTextStyleTableRecord
2
STANDARD
70
0
0
ENDTAB
0
TABLE
2
VIEW
5
6
100
AcDbSymbolTable
70
0
0
ENDTAB
0
TABLE
2
UCS
5
7
100
AcDbSymbolTable
70
0
0
ENDTAB
0
TABLE
2
APPID
5
9
100
AcDbSymbolTable
70
2
0
APPID
5
12
100
AcDbSymbolTableRecord
100
AcDbRegAppTableRecord
2
ACAD
70
0
0
ENDTAB
0
TABLE
2
DIMSTYLE
5
A
100
AcDbSymbolTable
70
1
0
ENDTAB
0
TABLE
2
BLOCK_RECORD
5
1
100
AcDbSymbolTable
70
1
0
BLOCK_RECORD
5
1F
100
AcDbSymbolTableRecord
100
AcDbBlockTableRecord
2
*MODEL_SPACE
0
BLOCK_RECORD
5
1B
100
AcDbSymbolTableRecord
100
AcDbBlockTableRecord
2
*PAPER_SPACE
0
ENDTAB
0
ENDSEC
0
SECTION
2
BLOCKS
0
BLOCK
5
20
100
AcDbEntity
100
AcDbBlockBegin
2
*MODEL_SPACE
0
ENDBLK
5
21
100
AcDbEntity
100
AcDbBlockEnd
0
BLOCK
5
1C
100
AcDbEntity
100
AcDbBlockBegin
2
*PAPER_SPACE
0
ENDBLK
5
1D
100
AcDbEntity
100
AcDbBlockEnd
0
ENDSEC
0
SECTION
2
ENTITIES
0
LWPOLYLINE
5
100
100
AcDbEntity
8
0
100
AcDbPolyline
90
8
70
1
43
0.0
10
-4.6786366294636688
20
8.13506092909887
10
-4.9278933417491002
20
8.5685019186011129
42
0.57849463661141876
10
-4.9278933417491029
20
-8.5702781473651264
10
-4.6786366294636732
20
-8.1368371578628835
42
0.070262732832804597
10
-2.2426366294636684
20
-9.1142953919055341
10
-2.2426366294636284
20
-6.468380580178307
42
-0.71165183565942225
10
-2.2426366294636688
20
6.4666043514144
10
-2.2426366294636719
20
9.112519163141517
42
0.070262732832805402
0
LWPOLYLINE
5
101
100
AcDbEntity
8
0
100
AcDbPolyline
90
8
70
1
43
0.0
10
4.6787613048143903
20
-8.1368371578628853
10
4.92801801709982
20
-8.5702781473651264
42
0.57849463661141598
10
4.9280180170998227
20
8.5685019186011075
10
4.6787613048143957
20
8.1350609290988665
42
0.0702627328328055
10
2.2427613048143922
20
9.1125191631415188
10
2.2427613048144317
20
6.4666043514145111
42
-0.71165183565941692
10
2.2427613048143908
20
-6.468380580178418
10
2.2427613048143979
20
-9.1142953919055323
42
0.070262732832804292
0
CIRCLE
5
102
100
AcDbEntity
8
0
100
AcDbCircle
10
26.048679588412227
20
-0.0017765077061888453
30
0
40
3.5000013500099936
210
0
220
-0
230
1
0
CIRCLE
5
103
100
AcDbEntity
8
0
100
AcDbCircle
10
13.025878295026123
20
22.557930004754645
30
0
40
3.5000013500099936
210
0
220
-0
230
1
0
CIRCLE
5
104
100
AcDbEntity
8
0
100
AcDbCircle
10
-13.022801293379228
20
22.559706512475842
30
0
40
3.500001350009994
210
0
220
-0
230
1
0
CIRCLE
5
105
100
AcDbEntity
8
0
100
AcDbCircle
10
13.022801293392963
20
-22.559706512445793
30
0
40
3.500001350009994
210
0
220
-0
230
1
0
CIRCLE
5
106
100
AcDbEntity
8
0
100
AcDbCircle
10
-13.025878295012392
20
-22.557930004724586
30
0
40
3.5000013500099936
210
-0
220
0
230
1
0
CIRCLE
5
107
100
AcDbEntity
8
0
100
AcDbCircle
10
-26.048679588398485
20
0.0017765077362377137
30
0
40
3.5000013500099936
210
0
220
-0
230
1
0
CIRCLE
5
108
100
AcDbEntity
8
0
100
AcDbCircle
10
-30.430130572407748
20
17.56884407745504
30
0
40
2.0065999999999997
210
0
220
-0
230
1
0
CIRCLE
5
109
100
AcDbEntity
8
0
100
AcDbCircle
10
30.430130572407734
20
17.568844077455076
30
0
40
1.7779999999999996
210
0
220
-0
230
1
0
CIRCLE
5
110
100
AcDbEntity
8
0
100
AcDbCircle
10
8.7440178313354816e-15
20
-35.137688154910137
30
0
40
1.7780000000000014
210
0
220
-0
230
1
0
CIRCLE
5
111
100
AcDbEntity
8
0
100
AcDbCircle
10
30.430130572407744
20
-17.568844077455054
30
0
40
1.7779999999999996
210
0
220
-0
230
1
0
CIRCLE
5
112
100
AcDbEntity
8
0
100
AcDbCircle
10
-4.4408920985006262e-15
20
35.137688154910137
30
0
40
1.7780000000000014
210
0
220
-0
230
1
0
CIRCLE
5
113
100
AcDbEntity
8
0
100
AcDbCircle
10
-30.430130572407723
20
-17.568844077455083
30
0
40
1.7779999999999996
210
0
220
-0
230
1
0
LWPOLYLINE
5
114
100
AcDbEntity
8
0
100
AcDbPolyline
90
12
70
1
43
0.0
10
10.392304845413259
20
-41.624999999999986
10
-10.392304845413264
20
-41.625
10
-30.852155009820596
20
-29.812500000000011
10
-41.244459855233877
20
-11.812500000000004
10
-41.244459855233877
20
11.812499999999986
10
-30.852155009820631
20
29.812499999999989
10
-10.392304845413282
20
41.624999999999986
10
10.392304845413252
20
41.625
10
30.852155009820592
20
29.812500000000021
10
41.244459855233877
20
11.812500000000018
10
41.244459855233885
20
-11.812499999999964
10
30.852155009820628
20
-29.812499999999964
0
CIRCLE
5
115
100
AcDbEntity
8
0
100
AcDbCircle
10
0
20
0
30
0
40
3.2594000000000016
210
0
220
0
230
1
0
ENDSEC
0
SECTION
2
OBJECTS
0
DICTIONARY
5
C
100
AcDbDictionary
3
ACAD_GROUP
350
D
3
ACAD_MLINESTYLE
350
17
0
DICTIONARY
5
D
100
AcDbDictionary
0
DICTIONARY
5
1A
330
C
100
AcDbDictionary
0
DICTIONARY
5
17
100
AcDbDictionary
0
ENDSEC
0
EOF
