0
SECTION
2
HEADER
9
$INSUNITS
70
4
9
$ACADVER
1
AC1014
9
$HANDSEED
5
FFFF
0
ENDSEC
0
SECTION
2
TABLES
0
TABLE
2
VPORT
5
8
100
AcDbSymbolTable
0
ENDTAB
0
TABLE
2
LTYPE
5
5
100
AcDbSymbolTable
0
LTYPE
5
14
100
AcDbSymbolTableRecord
100
AcDbLinetypeTableRecord
2
BYBLOCK
70
0
0
LTYPE
5
15
100
AcDbSymbolTableRecord
100
AcDbLinetypeTableRecord
2
BYLAYER
70
0
0
ENDTAB
0
TABLE
2
LAYER
5
2
100
AcDbSymbolTable
70
2
0
LAYER
5
50
100
AcDbSymbolTableRecord
100
AcDbLayerTableRecord
2
0
70
0
6
CONTINUOUS
0
ENDTAB
0
TABLE
2
STYLE
5
3
100
AcDbSymbolTable
70
1
0
STYLE
5
11
100
AcDbSymbolTableRecord
100
AcDbTextStyleTableRecord
2
STANDARD
70
0
0
ENDTAB
0
TABLE
2
VIEW
5
6
100
AcDbSymbolTable
70
0
0
ENDTAB
0
TABLE
2
UCS
5
7
100
AcDbSymbolTable
70
0
0
ENDTAB
0
TABLE
2
APPID
5
9
100
AcDbSymbolTable
70
2
0
APPID
5
12
100
AcDbSymbolTableRecord
100
AcDbRegAppTableRecord
2
ACAD
70
0
0
ENDTAB
0
TABLE
2
DIMSTYLE
5
A
100
AcDbSymbolTable
70
1
0
ENDTAB
0
TABLE
2
BLOCK_RECORD
5
1
100
AcDbSymbolTable
70
1
0
BLOCK_RECORD
5
1F
100
AcDbSymbolTableRecord
100
AcDbBlockTableRecord
2
*MODEL_SPACE
0
BLOCK_RECORD
5
1B
100
AcDbSymbolTableRecord
100
AcDbBlockTableRecord
2
*PAPER_SPACE
0
ENDTAB
0
ENDSEC
0
SECTION
2
BLOCKS
0
BLOCK
5
20
100
AcDbEntity
100
AcDbBlockBegin
2
*MODEL_SPACE
0
ENDBLK
5
21
100
AcDbEntity
100
AcDbBlockEnd
0
BLOCK
5
1C
100
AcDbEntity
100
AcDbBlockBegin
2
*PAPER_SPACE
0
ENDBLK
5
1D
100
AcDbEntity
100
AcDbBlockEnd
0
ENDSEC
0
SECTION
2
ENTITIES
0
CIRCLE
5
100
100
AcDbEntity
8
0
100
AcDbCircle
10
-5.4699285829435554e-08
20
-8.1152394662717402
30
1.1102230246251565e-15
40
1.2500000000000013
210
0
220
-0
230
1
0
CIRCLE
5
101
100
AcDbEntity
8
0
100
AcDbCircle
10
-0.31202344815000915
20
8.1093976348411179
30
1.1102230246251565e-15
40
1.2500000000000013
210
0
220
-0
230
1
0
CIRCLE
5
102
100
AcDbEntity
8
0
100
AcDbCircle
10
-6.233767447623903e-05
20
-0.00088811439661427925
30
1.1102230246251565e-15
40
3.0500000000000038
210
0
220
-0
230
1
0
LWPOLYLINE
5
103
100
AcDbEntity
8
0
100
AcDbPolyline
90
6
70
1
43
0.0
10
4.927893399494522
20
8.5685018853796482
10
4.6786366842883709
20
8.1350608975570236
10
4.6786366631351797
20
4.9959041678745315
42
-0.4335987468229851
10
4.678636595793761
20
-4.9976804597222575
10
4.6786365746407546
20
-8.1368371894047513
10
4.9278932840054557
20
-8.5702781805865911
42
0.57849463661141731
0
LWPOLYLINE
5
104
100
AcDbEntity
8
0
100
AcDbPolyline
90
6
70
1
43
0.0
10
-4.9280180748434717
20
-8.5702781141728739
10
-4.6787613596373179
20
-8.1368371263502528
10
-4.6787613384841276
20
-4.9976803966677599
42
-0.43359874682298549
10
-4.6787612711427071
20
4.9959042309290309
10
-4.6787612499897016
20
8.1350609606115238
10
-4.9280179593543991
20
8.5685019517933583
42
0.57849463661141765
0
ARC
5
105
100
AcDbEntity
8
0
100
AcDbCircle
10
-6.210090062310217e-05
20
-0.00088825386754807036
30
1.1102230246251565e-15
40
13.049489999998901
210
0
220
0
230
1
100
AcDbArc
50
169.10395895971135
51
174.89604026811739
0
SPLINE
5
106
100
AcDbEntity
8
0
100
AcDbSpline
70
4
71
5
72
66
73
60
74
0
42
0.000000001
43
0.0000000001
44
0.0000000001
40
0
40
0
40
0
40
0
40
0
40
0
40
0.018181818181818181
40
0.036363636363636362
40
0.054545454545454543
40
0.072727272727272724
40
0.090909090909090912
40
0.1090909090909091
40
0.12727272727272729
40
0.14545454545454548
40
0.16363636363636366
40
0.18181818181818185
40
0.20000000000000004
40
0.21818181818181823
40
0.23636363636363641
40
0.25454545454545457
40
0.27272727272727276
40
0.29090909090909095
40
0.30909090909090914
40
0.32727272727272733
40
0.34545454545454551
40
0.3636363636363637
40
0.38181818181818189
40
0.40000000000000008
40
0.41818181818181827
40
0.43636363636363645
40
0.45454545454545464
40
0.47272727272727283
40
0.49090909090909102
40
0.50909090909090915
40
0.52727272727272734
40
0.54545454545454553
40
0.56363636363636371
40
0.5818181818181819
40
0.60000000000000009
40
0.61818181818181828
40
0.63636363636363646
40
0.65454545454545465
40
0.67272727272727284
40
0.69090909090909103
40
0.70909090909090922
40
0.7272727272727274
40
0.74545454545454559
40
0.76363636363636378
40
0.78181818181818197
40
0.80000000000000016
40
0.81818181818181834
40
0.83636363636363653
40
0.85454545454545472
40
0.87272727272727291
40
0.89090909090909109
40
0.90909090909090928
40
0.92727272727272747
40
0.94545454545454566
40
0.96363636363636385
40
0.98181818181818203
40
1
40
1
40
1
40
1
40
1
40
1
41
1
41
1
41
1
41
1
41
1
41
1
41
1
41
1
41
1
41
1
41
1
41
1
41
1
41
1
41
1
41
1
41
1
41
1
41
1
41
1
41
1
41
1
41
1
41
1
41
1
41
1
41
1
41
1
41
1
41
1
41
1
41
1
41
1
41
1
41
1
41
1
41
1
41
1
41
1
41
1
41
1
41
1
41
1
41
1
41
1
41
1
41
1
41
1
41
1
41
1
41
1
41
1
41
1
41
1
41
1
41
1
41
1
41
1
41
1
41
1
10
-12.99780982276592
20
1.1600352659289821
30
1.1102230246251565e-15
10
-13.022413568854496
20
1.1627980102178206
30
1.1102230246251565e-15
10
-13.070518940412159
20
1.1681428618213512
30
1.1102230246251565e-15
10
-13.139370630203139
20
1.1756182279942082
30
1.1102230246251565e-15
10
-13.224556637816228
20
1.1845009797256398
30
1.1102230246251565e-15
10
-13.320063832424809
20
1.1937985569920777
30
1.1102230246251565e-15
10
-13.404787779078402
20
1.2013006176939314
30
1.1102230246251565e-15
10
-13.479138294764887
20
1.2070322051004185
30
1.1102230246251565e-15
10
-13.54382686951803
20
1.2110392745517333
30
1.1102230246251565e-15
10
-13.599937414938267
20
1.2133941844151637
30
1.1102230246251565e-15
10
-13.649030588032145
20
1.2142031136110607
30
1.1102230246251565e-15
10
-13.69315305180664
20
1.2136081066175031
30
1.1102230246251565e-15
10
-13.734497693864757
20
1.2117689904930597
30
1.1102230246251565e-15
10
-13.775101261620129
20
1.208847769692835
30
1.1102230246251565e-15
10
-13.816561071023596
20
1.2049934465886383
30
1.1102230246251565e-15
10
-13.859660903889344
20
1.2003233777744435
30
1.1102230246251565e-15
10
-13.904351683933902
20
1.1949188329789298
30
1.1102230246251565e-15
10
-13.9501044515881
20
1.1888356870530825
30
1.1102230246251565e-15
10
-13.996172013399942
20
1.1821111998621994
30
1.1102230246251565e-15
10
-14.041866222732066
20
1.1747719433845725
30
1.1102230246251565e-15
10
-14.08688193489126
20
1.1668422828054283
30
1.1102230246251565e-15
10
-14.131265240726428
20
1.1583459295738501
30
1.1102230246251565e-15
10
-14.175256556082502
20
1.1493049271682048
30
1.1102230246251565e-15
10
-14.219175250332448
20
1.1397395028059045
30
1.1102230246251565e-15
10
-14.263288658626783
20
1.1296675703426637
30
1.1102230246251565e-15
10
-14.307683690696871
20
1.1191043688714357
30
1.1102230246251565e-15
10
-14.352316197377455
20
1.108062917384838
30
1.1102230246251565e-15
10
-14.397067884808937
20
1.0965545350210524
30
1.1102230246251565e-15
10
-14.441798336166379
20
1.0845893261539943
30
1.1102230246251565e-15
10
-14.486403276127309
20
1.0721767194727259
30
1.1102230246251565e-15
10
-14.530857483401988
20
1.059325892289293
30
1.1102230246251565e-15
10
-14.575184873287821
20
1.0460456316676869
30
1.1102230246251565e-15
10
-14.619437353436362
20
1.0323442708416102
30
1.1102230246251565e-15
10
-14.663671909495989
20
1.0182296112268023
30
1.1102230246251565e-15
10
-14.707924771282737
20
1.0037088396103988
30
1.1102230246251565e-15
10
-14.75219944251403
20
0.98878851554723757
30
1.1102230246251565e-15
10
-14.796480674097543
20
0.97347468830278783
30
1.1102230246251565e-15
10
-14.840742928496699
20
0.95777299447477982
30
1.1102230246251565e-15
10
-14.884960211295038
20
0.94168876054398665
30
1.1102230246251565e-15
10
-14.929117317099951
20
0.92522713321938554
30
1.1102230246251565e-15
10
-14.973212222903001
20
0.90839310984530897
30
1.1102230246251565e-15
10
-15.017250309428871
20
0.89119148120993075
30
1.1102230246251565e-15
10
-15.061240776747871
20
0.87362680284898597
30
1.1102230246251565e-15
10
-15.105192495722559
20
0.85570336647590006
30
1.1102230246251565e-15
10
-15.14910928424014
20
0.83742516472615769
30
1.1102230246251565e-15
10
-15.192989836353359
20
0.81879593512255
30
1.1102230246251565e-15
10
-15.236829890777718
20
0.79981924167744167
30
1.1102230246251565e-15
10
-15.280623711817054
20
0.78049855453693417
30
1.1102230246251565e-15
10
-15.324365762347288
20
0.76083732754198041
30
1.1102230246251565e-15
10
-15.368052530474301
20
0.74083910769076566
30
1.1102230246251565e-15
10
-15.411682391799562
20
0.72050744140547573
30
1.1102230246251565e-15
10
-15.455254999213508
20
0.69984573862336685
30
1.1102230246251565e-15
10
-15.498770836185907
20
0.6788571563780228
30
1.1102230246251565e-15
10
-15.542230715677674
20
0.65754448222571549
30
1.1102230246251565e-15
10
-15.58563527503847
20
0.63591001772554923
30
1.1102230246251565e-15
10
-15.628984961555684
20
0.61395556028113596
30
1.1102230246251565e-15
10
-15.66362104653529
20
0.59613703002628637
30
1.1102230246251565e-15
10
-15.689573619038963
20
0.58263006246384952
30
1.1102230246251565e-15
10
-15.706864454957243
20
0.57356186503761819
30
1.1102230246251565e-15
10
-15.715507153142351
20
0.56901187822729193
30
1.1102230246251565e-15
0
ARC
5
107
100
AcDbEntity
8
0
100
AcDbCircle
10
-5.7019018319285132e-05
20
-0.00088829821669816021
30
1.1102230246251565e-15
40
15.725780080150233
210
0
220
0
230
1
100
AcDbArc
50
177.923153812587
51
181.07684541524131
0
SPLINE
5
108
100
AcDbEntity
8
0
100
AcDbSpline
70
4
71
5
72
66
73
60
74
0
42
0.000000001
43
0.0000000001
44
0.0000000001
40
-1
40
-1
40
-1
40
-1
40
-1
40
-1
40
-0.98181818181818203
40
-0.96363636363636385
40
-0.94545454545454566
40
-0.92727272727272747
40
-0.90909090909090928
40
-0.89090909090909109
40
-0.87272727272727291
40
-0.85454545454545472
40
-0.83636363636363653
40
-0.81818181818181834
40
-0.80000000000000016
40
-0.78181818181818197
40
-0.76363636363636378
40
-0.74545454545454559
40
-0.7272727272727274
40
-0.70909090909090922
40
-0.69090909090909103
40
-0.67272727272727284
40
-0.65454545454545465
40
-0.63636363636363646
40
-0.61818181818181828
40
-0.60000000000000009
40
-0.5818181818181819
40
-0.56363636363636371
40
-0.54545454545454553
40
-0.52727272727272734
40
-0.50909090909090915
40
-0.49090909090909102
40
-0.47272727272727283
40
-0.45454545454545464
40
-0.43636363636363645
40
-0.41818181818181827
40
-0.40000000000000008
40
-0.38181818181818189
40
-0.3636363636363637
40
-0.34545454545454551
40
-0.32727272727272733
40
-0.30909090909090914
40
-0.29090909090909095
40
-0.27272727272727276
40
-0.25454545454545457
40
-0.23636363636363641
40
-0.21818181818181823
40
-0.20000000000000004
40
-0.18181818181818185
40
-0.16363636363636366
40
-0.14545454545454548
40
-0.12727272727272729
40
-0.1090909090909091
40
-0.090909090909090912
40
-0.072727272727272724
40
-0.054545454545454543
40
-0.036363636363636362
40
-0.018181818181818181
40
0
40
0
40
0
40
0
40
0
40
0
41
1
41
1
41
1
41
1
41
1
41
1
41
1
41
1
41
1
41
1
41
1
41
1
41
1
41
1
41
1
41
1
41
1
41
1
41
1
41
1
41
1
41
1
41
1
41
1
41
1
41
1
41
1
41
1
41
1
41
1
41
1
41
1
41
1
41
1
41
1
41
1
41
1
41
1
41
1
41
1
41
1
41
1
41
1
41
1
41
1
41
1
41
1
41
1
41
1
41
1
41
1
41
1
41
1
41
1
41
1
41
1
41
1
41
1
41
1
41
1
10
-15.723059747458397
20
-0.29642904111994006
30
1.1102230246251565e-15
10
-15.714497773880678
20
-0.30112917094196051
30
1.1102230246251565e-15
10
-15.697367833434107
20
-0.31049775416456549
30
1.1102230246251565e-15
10
-15.671654942908921
20
-0.32445559974020211
30
1.1102230246251565e-15
10
-15.63733510965328
20
-0.34287589964151149
30
1.1102230246251565e-15
10
-15.594375183923582
20
-0.36558357024283666
30
1.1102230246251565e-15
10
-15.551354809056324
20
-0.38797225430047239
30
1.1102230246251565e-15
10
-15.508273506463404
20
-0.41004016249069791
30
1.1102230246251565e-15
10
-15.465130598724478
20
-0.43178500472817544
30
1.1102230246251565e-15
10
-15.421925224352917
20
-0.45320400806930144
30
1.1102230246251565e-15
10
-15.378656844854724
20
-0.47429402439906698
30
1.1102230246251565e-15
10
-15.335325747774835
20
-0.49505163824169912
30
1.1102230246251565e-15
10
-15.291933495370744
20
-0.51547327536551135
30
1.1102230246251565e-15
10
-15.24848353709781
20
-0.53555532802152594
30
1.1102230246251565e-15
10
-15.204981348958967
20
-0.55529424625862422
30
1.1102230246251565e-15
10
-15.16143260521433
20
-0.57468646035743243
30
1.1102230246251565e-15
10
-15.117841504298786
20
-0.59372833247865664
30
1.1102230246251565e-15
10
-15.074209286731923
20
-0.61241610287678627
30
1.1102230246251565e-15
10
-15.030532065526881
20
-0.63074584615579932
30
1.1102230246251565e-15
10
-14.986800896271383
20
-0.64871342607394378
30
1.1102230246251565e-15
10
-14.943006500791187
20
-0.66631444835281772
30
1.1102230246251565e-15
10
-14.899143415570254
20
-0.68354421684057709
30
1.1102230246251565e-15
10
-14.855213576093204
20
-0.70039769964763132
30
1.1102230246251565e-15
10
-14.811232095614194
20
-0.71686948547795948
30
1.1102230246251565e-15
10
-14.767224871630711
20
-0.73295379499657309
30
1.1102230246251565e-15
10
-14.723217339417488
20
-0.74864454677240577
30
1.1102230246251565e-15
10
-14.679224640170021
20
-0.7639354263277518
30
1.1102230246251565e-15
10
-14.635243156224423
20
-0.77881993625518264
30
1.1102230246251565e-15
10
-14.591236537855796
20
-0.79329152316010465
30
1.1102230246251565e-15
10
-14.547147671941424
20
-0.80734338135245376
30
1.1102230246251565e-15
10
-14.502924513300519
20
-0.82096808478186389
30
1.1102230246251565e-15
10
-14.458542996922612
20
-0.83415726510247323
30
1.1102230246251565e-15
10
-14.414028180089698
20
-0.84690130622745208
30
1.1102230246251565e-15
10
-14.369484157689115
20
-0.85918896104702769
30
1.1102230246251565e-15
10
-14.325051148813753
20
-0.87100767611282148
30
1.1102230246251565e-15
10
-14.280847231760131
20
-0.88234406949649169
30
1.1102230246251565e-15
10
-14.236916321756485
20
-0.89318435367851279
30
1.1102230246251565e-15
10
-14.193171256349251
20
-0.90351480867206357
30
1.1102230246251565e-15
10
-14.149344428464312
20
-0.91332218899514039
30
1.1102230246251565e-15
10
-14.105116164356364
20
-0.92259184427948271
30
1.1102230246251565e-15
10
-14.060245700085005
20
-0.93130593024235231
30
1.1102230246251565e-15
10
-14.01468653799899
20
-0.93944154344289277
30
1.1102230246251565e-15
10
-13.968743351085068
20
-0.94696899689344682
30
1.1102230246251565e-15
10
-13.923103717426944
20
-0.9538497128386364
30
1.1102230246251565e-15
10
-13.878514066400351
20
-0.96003339675407084
30
1.1102230246251565e-15
10
-13.835502301859879
20
-0.96545495067423392
30
1.1102230246251565e-15
10
-13.794116074261037
20
-0.97003226074834403
30
1.1102230246251565e-15
10
-13.753569673007146
20
-0.97366166714586511
30
1.1102230246251565e-15
10
-13.712263424974774
20
-0.97622206721767335
30
1.1102230246251565e-15
10
-13.668158065587594
20
-0.97758702735404412
30
1.1102230246251565e-15
10
-13.619058251861524
20
-0.97763501603424419
30
1.1102230246251565e-15
10
-13.562915153486806
20
-0.97625972963652652
30
1.1102230246251565e-15
10
-13.498166498073576
20
-0.97338224265339679
30
1.1102230246251565e-15
10
-13.42372727627799
20
-0.96894912461825777
30
1.1102230246251565e-15
10
-13.338885304397849
20
-0.96292684441265575
30
1.1102230246251565e-15
10
-13.243230390797079
20
-0.95529751487943249
30
1.1102230246251565e-15
10
-13.157902331932297
20
-0.94790281801096166
30
1.1102230246251565e-15
10
-13.088930665374088
20
-0.9416302189751381
30
1.1102230246251565e-15
10
-13.040739339914511
20
-0.93712573656312703
30
1.1102230246251565e-15
10
-13.01609112452814
20
-0.93479280796187214
30
1.1102230246251565e-15
0
ARC
5
109
100
AcDbEntity
8
0
100
AcDbCircle
10
-6.210090062310217e-05
20
-0.00088825386754807036
30
1.1102230246251565e-15
40
13.049489999998926
210
0
220
0
230
1
100
AcDbArc
50
184.1039589597126
51
189.89604026811867
0
SPLINE
5
110
100
AcDbEntity
8
0
100
AcDbSpline
70
4
71
5
72
66
73
60
74
0
42
0.000000001
43
0.0000000001
44
0.0000000001
40
0
40
0
40
0
40
0
40
0
40
0
40
0.018181818181818181
40
0.036363636363636362
40
0.054545454545454543
40
0.072727272727272724
40
0.090909090909090912
40
0.1090909090909091
40
0.12727272727272729
40
0.14545454545454548
40
0.16363636363636366
40
0.18181818181818185
40
0.20000000000000004
40
0.21818181818181823
40
0.23636363636363641
40
0.25454545454545457
40
0.27272727272727276
40
0.29090909090909095
40
0.30909090909090914
40
0.32727272727272733
40
0.34545454545454551
40
0.3636363636363637
40
0.38181818181818189
40
0.40000000000000008
40
0.41818181818181827
40
0.43636363636363645
40
0.45454545454545464
40
0.47272727272727283
40
0.49090909090909102
40
0.50909090909090915
40
0.52727272727272734
40
0.54545454545454553
40
0.56363636363636371
40
0.5818181818181819
40
0.60000000000000009
40
0.61818181818181828
40
0.63636363636363646
40
0.65454545454545465
40
0.67272727272727284
40
0.69090909090909103
40
0.70909090909090922
40
0.7272727272727274
40
0.74545454545454559
40
0.76363636363636378
40
0.78181818181818197
40
0.80000000000000016
40
0.81818181818181834
40
0.83636363636363653
40
0.85454545454545472
40
0.87272727272727291
40
0.89090909090909109
40
0.90909090909090928
40
0.92727272727272747
40
0.94545454545454566
40
0.96363636363636385
40
0.98181818181818203
40
1
40
1
40
1
40
1
40
1
40
1
41
1
41
1
41
1
41
1
41
1
41
1
41
1
41
1
41
1
41
1
41
1
41
1
41
1
41
1
41
1
41
1
41
1
41
1
41
1
41
1
41
1
41
1
41
1
41
1
41
1
41
1
41
1
41
1
41
1
41
1
41
1
41
1
41
1
41
1
41
1
41
1
41
1
41
1
41
1
41
1
41
1
41
1
41
1
41
1
41
1
41
1
41
1
41
1
41
1
41
1
41
1
41
1
41
1
41
1
41
1
41
1
41
1
41
1
41
1
41
1
10
-12.855391425871014
20
-2.2435868976066136
30
1.1102230246251565e-15
10
-12.87987187048288
20
-2.2472862096150963
30
1.1102230246251565e-15
10
-12.927721440646827
20
-2.2545740657442654
30
1.1102230246251565e-15
10
-12.996161833139865
20
-2.2651735451021526
30
1.1102230246251565e-15
10
-13.08074422325693
20
-2.2786412269426375
30
1.1102230246251565e-15
10
-13.175403479195875
20
-2.2943795378480756
30
1.1102230246251565e-15
10
-13.259182203557485
20
-2.3090612746360719
30
1.1102230246251565e-15
10
-13.332482730831037
20
-2.3227683158075436
30
1.1102230246251565e-15
10
-13.396004201734286
20
-2.3356404190836266
30
1.1102230246251565e-15
10
-13.450812322200544
20
-2.3478882286139244
30
1.1102230246251565e-15
10
-13.498442052266048
20
-2.359813111193219
30
1.1102230246251565e-15
10
-13.540907080403199
20
-2.371807577756782
30
1.1102230246251565e-15
10
-13.580366939667893
20
-2.384284808296476
30
1.1102230246251565e-15
10
-13.618830906826107
20
-2.3976154675458776
30
1.1102230246251565e-15
10
-13.657880435258269
20
-2.412069046055032
30
1.1102230246251565e-15
10
-13.69830297418188
20
-2.4277350437196334
30
1.1102230246251565e-15
10
-13.740072153700742
20
-2.4445222581329942
30
1.1102230246251565e-15
10
-13.782691499581667
20
-2.4622398135228978
30
1.1102230246251565e-15
10
-13.825448921935413
20
-2.480658331727434
30
1.1102230246251565e-15
10
-13.867686599487218
20
-2.4995740407309603
30
1.1102230246251565e-15
10
-13.909116091271256
20
-2.518884428313708
30
1.1102230246251565e-15
10
-13.949788054603403
20
-2.5385785201641173
30
1.1102230246251565e-15
10
-13.989940418629214
20
-2.5586972481165473
30
1.1102230246251565e-15
10
-14.029886905663009
20
-2.5793037330554442
30
1.1102230246251565e-15
10
-14.069890378077796
20
-2.6004498629532886
30
1.1102230246251565e-15
10
-14.110038728395223
20
-2.6221434118703222
30
1.1102230246251565e-15
10
-14.150292681359634
20
-2.6443603777805444
30
1.1102230246251565e-15
10
-14.190540903485553
20
-2.6670592105322739
30
1.1102230246251565e-15
10
-14.230650377739826
20
-2.6901938075012377
30
1.1102230246251565e-15
10
-14.270522822219737
20
-2.713728072833784
30
1.1102230246251565e-15
10
-14.310136250293208
20
-2.7376466141770632
30
1.1102230246251565e-15
10
-14.349516036623132
20
-2.7619471336134582
30
1.1102230246251565e-15
10
-14.388714476950295
20
-2.7866350165461395
30
1.1102230246251565e-15
10
-14.427788634339194
20
-2.8117174763572454
30
1.1102230246251565e-15
10
-14.466775364182249
20
-2.8371969481098835
30
1.1102230246251565e-15
10
-14.505679748548303
20
-2.8630680025894022
30
1.1102230246251565e-15
10
-14.544488623610434
20
-2.8893208498985516
30
1.1102230246251565e-15
10
-14.583178780861392
20
-2.9159434359011804
30
1.1102230246251565e-15
10
-14.621726490217569
20
-2.9429238877619017
30
1.1102230246251565e-15
10
-14.660118396463897
20
-2.9702532986963992
30
1.1102230246251565e-15
10
-14.698353838931999
20
-2.9979263180475986
30
1.1102230246251565e-15
10
-14.736439254950014
20
-3.0259397109035104
30
1.1102230246251565e-15
10
-14.774384710162886
20
-3.054291458107929
30
1.1102230246251565e-15
10
-14.812199883943098
20
-3.0829797101321983
30
1.1102230246251565e-15
10
-14.84988949745668
20
-3.1120015985284981
30
1.1102230246251565e-15
10
-14.887453256597595
20
-3.1413531751230153
30
1.1102230246251565e-15
10
-14.924887967715424
20
-3.1710298944425701
30
1.1102230246251565e-15
10
-14.962188988693006
20
-3.2010269200760066
30
1.1102230246251565e-15
10
-14.999351864998856
20
-3.2313394827559949
30
1.1102230246251565e-15
10
-15.03637412243441
20
-3.2619632474003017
30
1.1102230246251565e-15
10
-15.073255109832653
20
-3.2928943680028966
30
1.1102230246251565e-15
10
-15.109995374468191
20
-3.3241294609787637
30
1.1102230246251565e-15
10
-15.146596200437303
20
-3.3556656019988211
30
1.1102230246251565e-15
10
-15.183059094472704
20
-3.387500308900218
30
1.1102230246251565e-15
10
-15.219385267894392
20
-3.4196315235058101
30
1.1102230246251565e-15
10
-15.255575617951198
20
-3.4520576254234525
30
1.1102230246251565e-15
10
-15.284419731968979
20
-3.478233482423617
30
1.1102230246251565e-15
10
-15.305992131562494
20
-3.4979972312603103
30
1.1102230246251565e-15
10
-15.320346774335729
20
-3.5112316349935213
30
1.1102230246251565e-15
10
-15.327517356480252
20
-3.5178634796542312
30
1.1102230246251565e-15
0
ARC
5
111
100
AcDbEntity
8
0
100
AcDbCircle
10
-6.449831156678163e-05
20
-0.00088887388059446734
30
1.1102230246251565e-15
40
15.725772524650104
210
0
220
0
230
1
100
AcDbArc
50
192.92315305479491
51
196.07684617303374
0
SPLINE
5
112
100
AcDbEntity
8
0
100
AcDbSpline
70
4
71
5
72
66
73
60
74
0
42
0.000000001
43
0.0000000001
44
0.0000000001
40
-1
40
-1
40
-1
40
-1
40
-1
40
-1
40
-0.98181818181818203
40
-0.96363636363636385
40
-0.94545454545454566
40
-0.92727272727272747
40
-0.90909090909090928
40
-0.89090909090909109
40
-0.87272727272727291
40
-0.85454545454545472
40
-0.83636363636363653
40
-0.81818181818181834
40
-0.80000000000000016
40
-0.78181818181818197
40
-0.76363636363636378
40
-0.74545454545454559
40
-0.7272727272727274
40
-0.70909090909090922
40
-0.69090909090909103
40
-0.67272727272727284
40
-0.65454545454545465
40
-0.63636363636363646
40
-0.61818181818181828
40
-0.60000000000000009
40
-0.5818181818181819
40
-0.56363636363636371
40
-0.54545454545454553
40
-0.52727272727272734
40
-0.50909090909090915
40
-0.49090909090909102
40
-0.47272727272727283
40
-0.45454545454545464
40
-0.43636363636363645
40
-0.41818181818181827
40
-0.40000000000000008
40
-0.38181818181818189
40
-0.3636363636363637
40
-0.34545454545454551
40
-0.32727272727272733
40
-0.30909090909090914
40
-0.29090909090909095
40
-0.27272727272727276
40
-0.25454545454545457
40
-0.23636363636363641
40
-0.21818181818181823
40
-0.20000000000000004
40
-0.18181818181818185
40
-0.16363636363636366
40
-0.14545454545454548
40
-0.12727272727272729
40
-0.1090909090909091
40
-0.090909090909090912
40
-0.072727272727272724
40
-0.054545454545454543
40
-0.036363636363636362
40
-0.018181818181818181
40
0
40
0
40
0
40
0
40
0
40
0
41
1
41
1
41
1
41
1
41
1
41
1
41
1
41
1
41
1
41
1
41
1
41
1
41
1
41
1
41
1
41
1
41
1
41
1
41
1
41
1
41
1
41
1
41
1
41
1
41
1
41
1
41
1
41
1
41
1
41
1
41
1
41
1
41
1
41
1
41
1
41
1
41
1
41
1
41
1
41
1
41
1
41
1
41
1
41
1
41
1
41
1
41
1
41
1
41
1
41
1
41
1
41
1
41
1
41
1
41
1
41
1
41
1
41
1
41
1
41
1
10
-15.110820010047505
20
-4.3557699700279873
30
1.1102230246251565e-15
10
-15.101333295531594
20
-4.3580939449845699
30
1.1102230246251565e-15
10
-15.082362275886465
20
-4.3627097466462503
30
1.1102230246251565e-15
10
-15.053912974594725
20
-4.3695370043948305
30
1.1102230246251565e-15
10
-15.015995036867714
20
-4.3784470213262914
30
1.1102230246251565e-15
10
-14.968621757489339
20
-4.3892620998597494
30
1.1102230246251565e-15
10
-14.921272648521207
20
-4.3997534156642057
30
1.1102230246251565e-15
10
-14.873947710792946
20
-4.4099191165181235
30
1.1102230246251565e-15
10
-14.826646882683946
20
-4.4197568150397668
30
1.1102230246251565e-15
10
-14.77937004975243
20
-4.4292636098021525
30
1.1102230246251565e-15
10
-14.732117506645409
20
-4.4384363205871527
30
1.1102230246251565e-15
10
-14.68489041510046
20
-4.4472717227205525
30
1.1102230246251565e-15
10
-14.637691209222005
20
-4.4557667681015705
30
1.1102230246251565e-15
10
-14.590524154682473
20
-4.4639188646970105
30
1.1102230246251565e-15
10
-14.543395459689524
20
-4.4717260008112545
30
1.1102230246251565e-15
10
-14.496311529068844
20
-4.4791861969667863
30
1.1102230246251565e-15
10
-14.449277359739074
20
-4.4862970259156087
30
1.1102230246251565e-15
10
-14.402295123043679
20
-4.4930551770925646
30
1.1102230246251565e-15
10
-14.355362080408858
20
-4.4994558528300086
30
1.1102230246251565e-15
10
-14.308470662733942
20
-4.5054927428409552
30
1.1102230246251565e-15
10
-14.261613045313798
20
-4.5111592012101838
30
1.1102230246251565e-15
10
-14.21478516625073
20
-4.5164492777413416
30
1.1102230246251565e-15
10
-14.167990197428249
20
-4.5213586129426018
30
1.1102230246251565e-15
10
-14.121244137675372
20
-4.5258858915014155
30
1.1102230246251565e-15
10
-14.074573497855692
20
-4.5300322337744428
30
1.1102230246251565e-15
10
-14.028004420548182
20
-4.5337983486838782
30
1.1102230246251565e-15
10
-13.981553165331629
20
-4.5371820557423872
30
1.1102230246251565e-15
10
-13.935217919463824
20
-4.5401761426159828
30
1.1102230246251565e-15
10
-13.888965267950068
20
-4.5427648712105047
30
1.1102230246251565e-15
10
-13.842741805192338
20
-4.5449268857702494
30
1.1102230246251565e-15
10
-13.796499181409628
20
-4.5466415429973877
30
1.1102230246251565e-15
10
-13.750216317474038
20
-4.5478945312074668
30
1.1102230246251565e-15
10
-13.703919905687847
20
-4.5486830472757083
30
1.1102230246251565e-15
10
-13.657713404957278
20
-4.549023169067655
30
1.1102230246251565e-15
10
-13.611735505597114
20
-4.5489390622550854
30
1.1102230246251565e-15
10
-13.566103725981444
20
-4.5484483617997693
30
1.1102230246251565e-15
10
-13.520864053436043
20
-4.5475491160779562
30
1.1102230246251565e-15
10
-13.475935846489794
20
-4.5462055132970143
30
1.1102230246251565e-15
10
-13.431064044741429
20
-4.5443354974963643
30
1.1102230246251565e-15
10
-13.385943658858622
20
-4.5418421798533828
30
1.1102230246251565e-15
10
-13.340346747173342
20
-4.5386460098213153
30
1.1102230246251565e-15
10
-13.294234324250034
20
-4.5347128298974351
30
1.1102230246251565e-15
10
-13.247908365153073
20
-4.530092819825196
30
1.1102230246251565e-15
10
-13.202043003969216
20
-4.5249266746575465
30
1.1102230246251565e-15
10
-13.15737225329112
20
-4.5193590037528804
30
1.1102230246251565e-15
10
-13.114422877679246
20
-4.5134635588767225
30
1.1102230246251565e-15
10
-13.073262156567713
20
-4.5071733569853274
30
1.1102230246251565e-15
10
-13.033157980937135
20
-4.5001849135046958
30
1.1102230246251565e-15
10
-12.9925965288752
20
-4.4919672263877422
30
1.1102230246251565e-15
10
-12.949640745486148
20
-4.4818703696347582
30
1.1102230246251565e-15
10
-12.902201546955583
20
-4.4692087562360649
30
1.1102230246251565e-15
10
-12.848327428575143
20
-4.4533494284735449
30
1.1102230246251565e-15
10
-12.786529778521023
20
-4.4338118043133479
30
1.1102230246251565e-15
10
-12.715774387070072
20
-4.4102634528062223
30
1.1102230246251565e-15
10
-12.635382016085437
20
-4.3824876586740116
30
1.1102230246251565e-15
10
-12.544961080411252
20
-4.3503609788429927
30
1.1102230246251565e-15
10
-12.464454393033542
20
-4.3211337234462546
30
1.1102230246251565e-15
10
-12.399456347122271
20
-4.2972236771646868
30
1.1102230246251565e-15
10
-12.354072947100331
20
-4.2803998484337002
30
1.1102230246251565e-15
10
-12.33086840564294
20
-4.2717669848784885
30
1.1102230246251565e-15
0
ARC
5
113
100
AcDbEntity
8
0
100
AcDbCircle
10
-6.210090062310217e-05
20
-0.00088825386754807036
30
1.1102230246251565e-15
40
13.049489999999025
210
0
220
0
230
1
100
AcDbArc
50
199.10395895971379
51
204.89604026811989
0
SPLINE
5
114
100
AcDbEntity
8
0
100
AcDbSpline
70
4
71
5
72
66
73
60
74
0
42
0.000000001
43
0.0000000001
44
0.0000000001
40
0
40
0
40
0
40
0
40
0
40
0
40
0.018181818181818181
40
0.036363636363636362
40
0.054545454545454543
40
0.072727272727272724
40
0.090909090909090912
40
0.1090909090909091
40
0.12727272727272729
40
0.14545454545454548
40
0.16363636363636366
40
0.18181818181818185
40
0.20000000000000004
40
0.21818181818181823
40
0.23636363636363641
40
0.25454545454545457
40
0.27272727272727276
40
0.29090909090909095
40
0.30909090909090914
40
0.32727272727272733
40
0.34545454545454551
40
0.3636363636363637
40
0.38181818181818189
40
0.40000000000000008
40
0.41818181818181827
40
0.43636363636363645
40
0.45454545454545464
40
0.47272727272727283
40
0.49090909090909102
40
0.50909090909090915
40
0.52727272727272734
40
0.54545454545454553
40
0.56363636363636371
40
0.5818181818181819
40
0.60000000000000009
40
0.61818181818181828
40
0.63636363636363646
40
0.65454545454545465
40
0.67272727272727284
40
0.69090909090909103
40
0.70909090909090922
40
0.7272727272727274
40
0.74545454545454559
40
0.76363636363636378
40
0.78181818181818197
40
0.80000000000000016
40
0.81818181818181834
40
0.83636363636363653
40
0.85454545454545472
40
0.87272727272727291
40
0.89090909090909109
40
0.90909090909090928
40
0.92727272727272747
40
0.94545454545454566
40
0.96363636363636385
40
0.98181818181818203
40
1
40
1
40
1
40
1
40
1
40
1
41
1
41
1
41
1
41
1
41
1
41
1
41
1
41
1
41
1
41
1
41
1
41
1
41
1
41
1
41
1
41
1
41
1
41
1
41
1
41
1
41
1
41
1
41
1
41
1
41
1
41
1
41
1
41
1
41
1
41
1
41
1
41
1
41
1
41
1
41
1
41
1
41
1
41
1
41
1
41
1
41
1
41
1
41
1
41
1
41
1
41
1
41
1
41
1
41
1
41
1
41
1
41
1
41
1
41
1
41
1
41
1
41
1
41
1
41
1
41
1
10
-11.836903579915477
20
-5.4943728548061346
30
1.1102230246251565e-15
10
-11.859592421203061
20
-5.5042821211120172
30
1.1102230246251565e-15
10
-11.903925320836198
20
-5.523706029622554
30
1.1102230246251565e-15
10
-11.967290316379662
20
-5.5516580175096184
30
1.1102230246251565e-15
10
-12.045504938888733
20
-5.5865583326612818
30
1.1102230246251565e-15
10
-12.132865384297597
20
-5.6262599918594258
30
1.1102230246251565e-15
10
-12.209989504756837
20
-5.6621249900379151
30
1.1102230246251565e-15
10
-12.277244733824633
20
-5.6943365475832062
30
1.1102230246251565e-15
10
-12.335270217616328
20
-5.7232106110201562
30
1.1102230246251565e-15
10
-12.385040830298252
20
-5.7492264719647848
30
1.1102230246251565e-15
10
-12.427961229945804
20
-5.7730725052780887
30
1.1102230246251565e-15
10
-12.46587490095507
20
-5.7956490283371416
30
1.1102230246251565e-15
10
-12.500760853226696
20
-5.817914070650529
30
1.1102230246251565e-15
10
-12.534463963988651
20
-5.8407457059513597
30
1.1102230246251565e-15
10
-12.56844205061741
20
-5.8648135523758373
30
1.1102230246251565e-15
10
-12.603432566371573
20
-5.8904078670392916
30
1.1102230246251565e-15
10
-12.639433644807287
20
-5.9174337301503783
30
1.1102230246251565e-15
10
-12.676015130925764
20
-5.9455782728841271
30
1.1102230246251565e-15
10
-12.712548566149099
20
-5.9744356305247157
30
1.1102230246251565e-15
10
-12.748451283997325
20
-6.0036387177452619
30
1.1102230246251565e-15
10
-12.783471204006954
20
-6.0330138613297972
30
1.1102230246251565e-15
10
-12.817660097748455
20
-6.0625635719854563
30
1.1102230246251565e-15
10
-12.85123719319008
20
-6.0923889674224636
30
1.1102230246251565e-15
10
-12.884489185930612
20
-6.1226322150431756
30
1.1102230246251565e-15
10
-12.917656551929497
20
-6.1534114685687245
30
1.1102230246251565e-15
10
-12.95082217676846
20
-6.1847569854231832
30
1.1102230246251565e-15
10
-12.983954335645116
20
-6.2166354162455377
30
1.1102230246251565e-15
10
-13.016956242641038
20
-6.2489778114447549
30
1.1102230246251565e-15
10
-13.049711345405676
20
-6.2817052119638834
30
1.1102230246251565e-15
10
-13.082134053205404
20
-6.3147573146574771
30
1.1102230246251565e-15
10
-13.114207112418665
20
-6.3481135610953157
30
1.1102230246251565e-15
10
-13.1459556278325
20
-6.3817782991054495
30
1.1102230246251565e-15
10
-13.177428719408613
20
-6.4157702657215365
30
1.1102230246251565e-15
10
-13.208679638873981
20
-6.4501111975435439
30
1.1102230246251565e-15
10
-13.239743355563274
20
-6.4848129855392429
30
1.1102230246251565e-15
10
-13.270626183562165
20
-6.5198717008262497
30
1.1102230246251565e-15
10
-13.30131794140212
20
-6.5552744800408691
30
1.1102230246251565e-15
10
-13.331799331226593
20
-6.5910036729779922
30
1.1102230246251565e-15
10
-13.362050504450858
20
-6.627041669561673
30
1.1102230246251565e-15
10
-13.392060866173257
20
-6.6633764099149237
30
1.1102230246251565e-15
10
-13.421831163089141
20
-6.7000025547063142
30
1.1102230246251565e-15
10
-13.451368450436885
20
-6.7369186453539287
30
1.1102230246251565e-15
10
-13.480682973479002
20
-6.7741253366832632
30
1.1102230246251565e-15
10
-13.509784560464537
20
-6.8116233473927599
30
1.1102230246251565e-15
10
-13.538678514098512
20
-6.849411128702279
30
1.1102230246251565e-15
10
-13.567365572158854
20
-6.8874847908485313
30
1.1102230246251565e-15
10
-13.595843826271102
20
-6.9258391166640312
30
1.1102230246251565e-15
10
-13.624110044249708
20
-6.964468233066011
30
1.1102230246251565e-15
10
-13.652161157724972
20
-7.0033663803783774
30
1.1102230246251565e-15
10
-13.679995898806563
20
-7.0425287308635411
30
1.1102230246251565e-15
10
-13.70761463393513
20
-7.0819514010304987
30
1.1102230246251565e-15
10
-13.735018767473699
20
-7.1216312642322013
30
1.1102230246251565e-15
10
-13.762210296636145
20
-7.1615658281322343
30
1.1102230246251565e-15
10
-13.789191319245441
20
-7.2017530851165521
30
1.1102230246251565e-15
10
-13.815963538042064
20
-7.2421913606513559
30
1.1102230246251565e-15
10
-13.842528239089933
20
-7.2828793217831223
30
1.1102230246251565e-15
10
-13.863614703442416
20
-7.3156286641317347
30
1.1102230246251565e-15
10
-13.879336806742799
20
-7.3403023274207504
30
1.1102230246251565e-15
10
-13.889777011187451
20
-7.3568010347175594
30
1.1102230246251565e-15
10
-13.894986813967767
20
-7.3650627879747521
30
1.1102230246251565e-15
0
ARC
5
115
100
AcDbEntity
8
0
100
AcDbCircle
10
-5.8395592061872923e-05
20
-0.00088615750565218814
30
1.1102230246251565e-15
40
15.725779255621386
210
0
220
0
230
1
100
AcDbArc
50
207.92315372988949
51
211.07684549793902
0
SPLINE
5
116
100
AcDbEntity
8
0
100
AcDbSpline
70
4
71
5
72
66
73
60
74
0
42
0.000000001
43
0.0000000001
44
0.0000000001
40
-1
40
-1
40
-1
40
-1
40
-1
40
-1
40
-0.98181818181818203
40
-0.96363636363636385
40
-0.94545454545454566
40
-0.92727272727272747
40
-0.90909090909090928
40
-0.89090909090909109
40
-0.87272727272727291
40
-0.85454545454545472
40
-0.83636363636363653
40
-0.81818181818181834
40
-0.80000000000000016
40
-0.78181818181818197
40
-0.76363636363636378
40
-0.74545454545454559
40
-0.7272727272727274
40
-0.70909090909090922
40
-0.69090909090909103
40
-0.67272727272727284
40
-0.65454545454545465
40
-0.63636363636363646
40
-0.61818181818181828
40
-0.60000000000000009
40
-0.5818181818181819
40
-0.56363636363636371
40
-0.54545454545454553
40
-0.52727272727272734
40
-0.50909090909090915
40
-0.49090909090909102
40
-0.47272727272727283
40
-0.45454545454545464
40
-0.43636363636363645
40
-0.41818181818181827
40
-0.40000000000000008
40
-0.38181818181818189
40
-0.3636363636363637
40
-0.34545454545454551
40
-0.32727272727272733
40
-0.30909090909090914
40
-0.29090909090909095
40
-0.27272727272727276
40
-0.25454545454545457
40
-0.23636363636363641
40
-0.21818181818181823
40
-0.20000000000000004
40
-0.18181818181818185
40
-0.16363636363636366
40
-0.14545454545454548
40
-0.12727272727272729
40
-0.1090909090909091
40
-0.090909090909090912
40
-0.072727272727272724
40
-0.054545454545454543
40
-0.036363636363636362
40
-0.018181818181818181
40
0
40
0
40
0
40
0
40
0
40
0
41
1
41
1
41
1
41
1
41
1
41
1
41
1
41
1
41
1
41
1
41
1
41
1
41
1
41
1
41
1
41
1
41
1
41
1
41
1
41
1
41
1
41
1
41
1
41
1
41
1
41
1
41
1
41
1
41
1
41
1
41
1
41
1
41
1
41
1
41
1
41
1
41
1
41
1
41
1
41
1
41
1
41
1
41
1
41
1
41
1
41
1
41
1
41
1
41
1
41
1
41
1
41
1
41
1
41
1
41
1
41
1
41
1
41
1
41
1
41
1
10
-13.468807092836331
20
-8.1183329067620242
30
1.1102230246251565e-15
10
-13.459042141301227
20
-8.1181223518006718
30
1.1102230246251565e-15
10
-13.439522886099148
20
-8.1176708126465762
30
1.1102230246251565e-15
10
-13.410275946913043
20
-8.1169022162355091
30
1.1102230246251565e-15
10
-13.3713439495098
20
-8.1156947472678773
30
1.1102230246251565e-15
10
-13.322785727181632
20
-8.1138802040038858
30
1.1102230246251565e-15
10
-13.27433464763587
20
-8.1117591857203184
30
1.1102230246251565e-15
10
-13.22599119106567
20
-8.1093299035238573
30
1.1102230246251565e-15
10
-13.177755915851034
20
-8.1065900354326708
30
1.1102230246251565e-15
10
-13.129629462394494
20
-8.1035367492638706
30
1.1102230246251565e-15
10
-13.081612938403953
20
-8.1001670494228257
30
1.1102230246251565e-15
10
-13.033708300638196
20
-8.0964781217930124
30
1.1102230246251565e-15
10
-12.985918689167397
20
-8.0924676521274801
30
1.1102230246251565e-15
10
-12.938248895181905
20
-8.0881342407515238
30
1.1102230246251565e-15
10
-12.890705436014914
20
-8.0834775513187029
30
1.1102230246251565e-15
10
-12.843295010579617
20
-8.0784973294914622
30
1.1102230246251565e-15
10
-12.79602307374703
20
-8.0731925240260889
30
1.1102230246251565e-15
10
-12.748892579711502
20
-8.0675604991473566
30
1.1102230246251565e-15
10
-12.701902124941695
20
-8.0615959118692118
30
1.1102230246251565e-15
10
-12.655046031470183
20
-8.0552907078950966
30
1.1102230246251565e-15
10
-12.608318461301559
20
-8.0486364425811416
30
1.1102230246251565e-15
10
-12.561717030967989
20
-8.0416263171824713
30
1.1102230246251565e-15
10
-12.515245932593173
20
-8.0342569416971639
30
1.1102230246251565e-15
10
-12.468920960287139
20
-8.026531186432468
30
1.1102230246251565e-15
10
-12.422767431608108
20
-8.0184569950861899
30
1.1102230246251565e-15
10
-12.376810414865687
20
-8.0100418186219109
30
1.1102230246251565e-15
10
-12.331066179958656
20
-8.0012877591392684
30
1.1102230246251565e-15
10
-12.285534842601887
20
-7.992187380886425
30
1.1102230246251565e-15
10
-12.240188199707536
20
-7.9827168335948064
30
1.1102230246251565e-15
10
-12.194980192705447
20
-7.9728416668025401
30
1.1102230246251565e-15
10
-12.149869462172129
20
-7.9625294267710043
30
1.1102230246251565e-15
10
-12.104839351370105
20
-7.9517608337948653
30
1.1102230246251565e-15
10
-12.059916368585579
20
-7.9405400887396418
30
1.1102230246251565e-15
10
-12.01519628619022
20
-7.9289094987661555
30
1.1102230246251565e-15
10
-11.9708068142047
20
-7.9169283018156005
30
1.1102230246251565e-15
10
-11.926856902397597
20
-7.9046439479462771
30
1.1102230246251565e-15
10
-11.883391476231957
20
-7.8920664544301378
30
1.1102230246251565e-15
10
-11.840341910802197
20
-7.87914035818328
30
1.1102230246251565e-15
10
-11.797483074324976
20
-7.8657203847449244
30
1.1102230246251565e-15
10
-11.75454544640013
20
-7.8516340096514874
30
1.1102230246251565e-15
10
-11.711329441480183
20
-7.8367453973306391
30
1.1102230246251565e-15
10
-11.667806243138287
20
-7.8210114639951023
30
1.1102230246251565e-15
10
-11.624254549414541
20
-7.804558836452645
30
1.1102230246251565e-15
10
-11.581289109274373
20
-7.7876978944287121
30
1.1102230246251565e-15
10
-11.539581496781652
20
-7.7707582962751438
30
1.1102230246251565e-15
10
-11.499621439068111
20
-7.7539476174272712
30
1.1102230246251565e-15
10
-11.461491259564184
20
-7.7372185704320886
30
1.1102230246251565e-15
10
-11.424562342848269
20
-7.7200885279450162
30
1.1102230246251565e-15
10
-11.387509882681929
20
-7.7016527754342103
30
1.1102230246251565e-15
10
-11.348631040941413
20
-7.6807821858940297
30
1.1102230246251565e-15
10
-11.30608536059249
20
-7.6562738384484454
30
1.1102230246251565e-15
10
-11.258151654349538
20
-7.6270112563055541
30
1.1102230246251565e-15
10
-11.203516417389354
20
-7.5921449517754755
30
1.1102230246251565e-15
10
-11.141266719290853
20
-7.5510861480441012
30
1.1102230246251565e-15
10
-11.070802556436011
20
-7.5034497144590642
30
1.1102230246251565e-15
10
-10.991777636027226
20
-7.4490150644689557
30
1.1102230246251565e-15
10
-10.921578717831117
20
-7.3999470396930356
30
1.1102230246251565e-15
10
-10.864983801971608
20
-7.360028976298187
30
1.1102230246251565e-15
10
-10.825501131090604
20
-7.3320323173660906
30
1.1102230246251565e-15
10
-10.805321614710383
20
-7.3176878342375353
30
1.1102230246251565e-15
0
ARC
5
117
100
AcDbEntity
8
0
100
AcDbCircle
10
-6.210090062310217e-05
20
-0.00088825386754807036
30
1.1102230246251565e-15
40
13.049489999999182
210
0
220
0
230
1
100
AcDbArc
50
214.10395895971487
51
219.8960402681208
0
SPLINE
5
118
100
AcDbEntity
8
0
100
AcDbSpline
70
4
71
5
72
66
73
60
74
0
42
0.000000001
43
0.0000000001
44
0.0000000001
40
0
40
0
40
0
40
0
40
0
40
0
40
0.018181818181818181
40
0.036363636363636362
40
0.054545454545454543
40
0.072727272727272724
40
0.090909090909090912
40
0.1090909090909091
40
0.12727272727272729
40
0.14545454545454548
40
0.16363636363636366
40
0.18181818181818185
40
0.20000000000000004
40
0.21818181818181823
40
0.23636363636363641
40
0.25454545454545457
40
0.27272727272727276
40
0.29090909090909095
40
0.30909090909090914
40
0.32727272727272733
40
0.34545454545454551
40
0.3636363636363637
40
0.38181818181818189
40
0.40000000000000008
40
0.41818181818181827
40
0.43636363636363645
40
0.45454545454545464
40
0.47272727272727283
40
0.49090909090909102
40
0.50909090909090915
40
0.52727272727272734
40
0.54545454545454553
40
0.56363636363636371
40
0.5818181818181819
40
0.60000000000000009
40
0.61818181818181828
40
0.63636363636363646
40
0.65454545454545465
40
0.67272727272727284
40
0.69090909090909103
40
0.70909090909090922
40
0.7272727272727274
40
0.74545454545454559
40
0.76363636363636378
40
0.78181818181818197
40
0.80000000000000016
40
0.81818181818181834
40
0.83636363636363653
40
0.85454545454545472
40
0.87272727272727291
40
0.89090909090909109
40
0.90909090909090928
40
0.92727272727272747
40
0.94545454545454566
40
0.96363636363636385
40
0.98181818181818203
40
1
40
1
40
1
40
1
40
1
40
1
41
1
41
1
41
1
41
1
41
1
41
1
41
1
41
1
41
1
41
1
41
1
41
1
41
1
41
1
41
1
41
1
41
1
41
1
41
1
41
1
41
1
41
1
41
1
41
1
41
1
41
1
41
1
41
1
41
1
41
1
41
1
41
1
41
1
41
1
41
1
41
1
41
1
41
1
41
1
41
1
41
1
41
1
41
1
41
1
41
1
41
1
41
1
41
1
41
1
41
1
41
1
41
1
41
1
41
1
41
1
41
1
41
1
41
1
41
1
41
1
10
-10.011754548470439
20
-8.3707869148642491
30
1.1102230246251565e-15
10
-10.031105579396534
20
-8.3862308353451667
30
1.1102230246251565e-15
10
-10.06890059465503
20
-8.4164670889725652
30
1.1102230246251565e-15
10
-10.122871973521137
20
-8.4598667036082045
30
1.1102230246251565e-15
10
-10.189388631155953
20
-8.5138212532696365
30
1.1102230246251565e-15
10
-10.263496796049882
20
-8.5747806582961381
30
1.1102230246251565e-15
10
-10.328710431249103
20
-8.6293847775082284
30
1.1102230246251565e-15
10
-10.385337029391968
20
-8.6779056870117781
30
1.1102230246251565e-15
10
-10.43391218524067
20
-8.720813990902073
30
1.1102230246251565e-15
10
-10.475253505131974
20
-8.7588249653301791
30
1.1102230246251565e-15
10
-10.510539620053931
20
-8.7929670816142647
30
1.1102230246251565e-15
10
-10.541318179911251
20
-8.8245871084317287
30
1.1102230246251565e-15
10
-10.569252805194672
20
-8.8551226366800346
30
1.1102230246251565e-15
10
-10.595898248259756
20
-8.8858993098179351
30
1.1102230246251565e-15
10
-10.6224893426336
20
-8.9179412401982159
30
1.1102230246251565e-15
10
-10.649663289394812
20
-8.9517196616130583
30
1.1102230246251565e-15
10
-10.677442852746715
20
-8.9871424055132714
30
1.1102230246251565e-15
10
-10.705493511277215
20
-9.0237959315145133
30
1.1102230246251565e-15
10
-10.733313266133408
20
-9.0611255473567152
30
1.1102230246251565e-15
10
-10.760434313388071
20
-9.0986258706602445
30
1.1102230246251565e-15
10
-10.786658111947339
20
-9.1360639027557369
30
1.1102230246251565e-15
10
-10.812034019489509
20
-9.1734554682686458
30
1.1102230246251565e-15
10
-10.836747622781804
20
-9.2109549797802277
30
1.1102230246251565e-15
10
-10.861039052875878
20
-9.2487739627370384
30
1.1102230246251565e-15
10
-10.885110011278062
20
-9.2870887846278656
30
1.1102230246251565e-15
10
-10.909032728114648
20
-9.3259501242470737
30
1.1102230246251565e-15
10
-10.932785191029431
20
-9.3653175576025411
30
1.1102230246251565e-15
10
-10.956291757471568
20
-9.4050994344646206
30
1.1102230246251565e-15
10
-10.979460282623421
20
-9.4451893202730428
30
1.1102230246251565e-15
10
-11.002223699787487
20
-9.4855068141502272
30
1.1102230246251565e-15
10
-11.024570664158407
20
-9.5260275926116726
30
1.1102230246251565e-15
10
-11.046524299797618
20
-9.5667623529337789
30
1.1102230246251565e-15
10
-11.068127203443494
20
-9.6077419068828149
30
1.1102230246251565e-15
10
-11.089425186468379
20
-9.6490010329631843
30
1.1102230246251565e-15
10
-11.110448949046738
20
-9.690560267697558
30
1.1102230246251565e-15
10
-11.131205606986631
20
-9.7324174502825826
30
1.1102230246251565e-15
10
-11.151688655028112
20
-9.7745575205050219
30
1.1102230246251565e-15
10
-11.171884021082437
20
-9.8169584349231602
30
1.1102230246251565e-15
10
-11.191777090712055
20
-9.8595980463181014
30
1.1102230246251565e-15
10
-11.211360751353665
20
-9.9024619635808513
30
1.1102230246251565e-15
10
-11.230637106180286
20
-9.945545222572342
30
1.1102230246251565e-15
10
-11.249613347537696
20
-9.9888482404407881
30
1.1102230246251565e-15
10
-11.268299202108189
20
-10.032374301368103
30
1.1102230246251565e-15
10
-11.286703977238503
20
-10.076126643301713
30
1.1102230246251565e-15
10
-11.304833195802178
20
-10.120105142675854
30
1.1102230246251565e-15
10
-11.322688577182715
20
-10.164306233218507
30
1.1102230246251565e-15
10
-11.340269628334209
20
-10.208724381609036
30
1.1102230246251565e-15
10
-11.357574747270844
20
-10.253353078333889
30
1.1102230246251565e-15
10
-11.374602460888944
20
-10.298185965820696
30
1.1102230246251565e-15
10
-11.391352794010981
20
-10.343218052679141
30
1.1102230246251565e-15
10
-11.407827105713013
20
-10.388445682587186
30
1.1102230246251565e-15
10
-11.424027561741415
20
-10.433866198911923
30
1.1102230246251565e-15
10
-11.439956736320784
20
-10.479477711158404
30
1.1102230246251565e-15
10
-11.455617175401251
20
-10.525278823076736
30
1.1102230246251565e-15
10
-11.471010957104914
20
-10.571268357892528
30
1.1102230246251565e-15
10
-11.48613966866767
20
-10.61744536092845
30
1.1102230246251565e-15
10
-11.49803147565633
20
-10.654536375064701
30
1.1102230246251565e-15
10
-11.506831847305749
20
-10.682438483426406
30
1.1102230246251565e-15
10
-11.512646130742223
20
-10.701077134648283
30
1.1102230246251565e-15
10
-11.515540114708479
20
-10.710405771669709
30
1.1102230246251565e-15
0
ARC
5
119
100
AcDbEntity
8
0
100
AcDbCircle
10
-5.8815789907750875e-05
20
-0.00088502559953378102
30
1.1102230246251565e-15
40
15.725779604084844
210
0
220
0
230
1
100
AcDbArc
50
222.92315376483924
51
226.07684546298944
0
SPLINE
5
120
100
AcDbEntity
8
0
100
AcDbSpline
70
4
71
5
72
66
73
60
74
0
42
0.000000001
43
0.0000000001
44
0.0000000001
40
-1
40
-1
40
-1
40
-1
40
-1
40
-1
40
-0.98181818181818203
40
-0.96363636363636385
40
-0.94545454545454566
40
-0.92727272727272747
40
-0.90909090909090928
40
-0.89090909090909109
40
-0.87272727272727291
40
-0.85454545454545472
40
-0.83636363636363653
40
-0.81818181818181834
40
-0.80000000000000016
40
-0.78181818181818197
40
-0.76363636363636378
40
-0.74545454545454559
40
-0.7272727272727274
40
-0.70909090909090922
40
-0.69090909090909103
40
-0.67272727272727284
40
-0.65454545454545465
40
-0.63636363636363646
40
-0.61818181818181828
40
-0.60000000000000009
40
-0.5818181818181819
40
-0.56363636363636371
40
-0.54545454545454553
40
-0.52727272727272734
40
-0.50909090909090915
40
-0.49090909090909102
40
-0.47272727272727283
40
-0.45454545454545464
40
-0.43636363636363645
40
-0.41818181818181827
40
-0.40000000000000008
40
-0.38181818181818189
40
-0.3636363636363637
40
-0.34545454545454551
40
-0.32727272727272733
40
-0.30909090909090914
40
-0.29090909090909095
40
-0.27272727272727276
40
-0.25454545454545457
40
-0.23636363636363641
40
-0.21818181818181823
40
-0.20000000000000004
40
-0.18181818181818185
40
-0.16363636363636366
40
-0.14545454545454548
40
-0.12727272727272729
40
-0.1090909090909091
40
-0.090909090909090912
40
-0.072727272727272724
40
-0.054545454545454543
40
-0.036363636363636362
40
-0.018181818181818181
40
0
40
0
40
0
40
0
40
0
40
0
41
1
41
1
41
1
41
1
41
1
41
1
41
1
41
1
41
1
41
1
41
1
41
1
41
1
41
1
41
1
41
1
41
1
41
1
41
1
41
1
41
1
41
1
41
1
41
1
41
1
41
1
41
1
41
1
41
1
41
1
41
1
41
1
41
1
41
1
41
1
41
1
41
1
41
1
41
1
41
1
41
1
41
1
41
1
41
1
41
1
41
1
41
1
41
1
41
1
41
1
41
1
41
1
41
1
41
1
41
1
41
1
41
1
41
1
41
1
41
1
10
-10.908921462578158
20
-11.32770540511288
30
1.1102230246251565e-15
10
-10.899543739331545
20
-11.324974669205005
30
1.1102230246251565e-15
10
-10.880806453553882
20
-11.319486560880151
30
1.1102230246251565e-15
10
-10.852755007042568
20
-11.311174488882598
30
1.1102230246251565e-15
10
-10.815462101246682
20
-11.299931821029841
30
1.1102230246251565e-15
10
-10.769028098576609
20
-11.28561131409465
30
1.1102230246251565e-15
10
-10.722776909459492
20
-11.271022505616537
30
1.1102230246251565e-15
10
-10.676709460725506
20
-11.256163791939326
30
1.1102230246251565e-15
10
-10.630826892701155
20
-11.241033074719448
30
1.1102230246251565e-15
10
-10.585130556990549
20
-11.225627784026514
30
1.1102230246251565e-15
10
-10.539622298874374
20
-11.209945313034348
30
1.1102230246251565e-15
10
-10.494304736783633
20
-11.193983449961966
30
1.1102230246251565e-15
10
-10.449181502764587
20
-11.17774077212893
30
1.1102230246251565e-15
10
-10.404257587014321
20
-11.161217167604898
30
1.1102230246251565e-15
10
-10.359539371846152
20
-11.144413998314173
30
1.1102230246251565e-15
10
-10.315033393740682
20
-11.127332752391775
30
1.1102230246251565e-15
10
-10.270745193780517
20
-11.109973826238557
30
1.1102230246251565e-15
10
-10.226678307686969
20
-11.092335438492693
30
1.1102230246251565e-15
10
-10.182832762619455
20
-11.074412064965273
30
1.1102230246251565e-15
10
-10.139205158688021
20
-11.056194456237131
30
1.1102230246251565e-15
10
-10.095792042456813
20
-11.037672944424299
30
1.1102230246251565e-15
10
-10.05259287131739
20
-11.018840345556736
30
1.1102230246251565e-15
10
-10.009612571947322
20
-10.999694470145515
30
1.1102230246251565e-15
10
-9.966865657395152
20
-10.980242178511022
30
1.1102230246251565e-15
10
-9.9243745265639003
20
-10.960497696342378
30
1.1102230246251565e-15
10
-9.8821614651300145
20
-10.940474708873747
30
1.1102230246251565e-15
10
-9.8402416445455057
20
-10.920179457537099
30
1.1102230246251565e-15
10
-9.7986171010966103
20
-10.899604789896937
30
1.1102230246251565e-15
10
-9.7572667655961176
20
-10.878720368866482
30
1.1102230246251565e-15
10
-9.71615506531721
20
-10.857480997019739
30
1.1102230246251565e-15
10
-9.6752504497701413
20
-10.835844621845821
30
1.1102230246251565e-15
10
-9.6345418197368922
20
-10.813788309498513
30
1.1102230246251565e-15
10
-9.5940536929917926
20
-10.791322978551765
30
1.1102230246251565e-15
10
-9.5538676286431432
20
-10.76851428229871
30
1.1102230246251565e-15
10
-9.5140916531909152
20
-10.745452493982395
30
1.1102230246251565e-15
10
-9.4748187230515555
20
-10.722211645114648
30
1.1102230246251565e-15
10
-9.4360896402292838
20
-10.698813039202545
30
1.1102230246251565e-15
10
-9.3978524730577497
20
-10.675185341588282
30
1.1102230246251565e-15
10
-9.3599273607302784
20
-10.651129959524948
30
1.1102230246251565e-15
10
-9.3220986191485693
20
-10.626410490164833
30
1.1102230246251565e-15
10
-9.2842086203110732
20
-10.600844069879781
30
1.1102230246251565e-15
10
-9.2462406805917112
20
-10.574381624687046
30
1.1102230246251565e-15
10
-9.2084312281956819
20
-10.547217599051228
30
1.1102230246251565e-15
10
-9.1712937328409811
20
-10.519810905505302
30
1.1102230246251565e-15
10
-9.1353915634000362
20
-10.492653785723043
30
1.1102230246251565e-15
10
-9.1011440354810613
20
-10.466073492886816
30
1.1102230246251565e-15
10
-9.068642906304996
20
-10.44004565769608
30
1.1102230246251565e-15
10
-9.0374058931500141
20
-10.413941400291055
30
1.1102230246251565e-15
10
-9.0063874888074213
20
-10.386543948454555
30
1.1102230246251565e-15
10
-8.9742351175295827
20
-10.356321922313764
30
1.1102230246251565e-15
10
-8.9394823731680582
20
-10.321637044195617
30
1.1102230246251565e-15
10
-8.9007556819291089
20
-10.280965404282785
30
1.1102230246251565e-15
10
-8.8570061591732454
20
-10.233146500412225
30
1.1102230246251565e-15
10
-8.8075043684807284
20
-10.177375334073046
30
1.1102230246251565e-15
10
-8.7517704300072516
20
-10.113124605257784
30
1.1102230246251565e-15
10
-8.6895269425952133
20
-10.040091616547876
30
1.1102230246251565e-15
10
-8.6344197338462649
20
-9.9745267271961691
30
1.1102230246251565e-15
10
-8.5900847980261101
20
-9.9213209967458909
30
1.1102230246251565e-15
10
-8.5591935350576431
20
-9.8840594336568675
30
1.1102230246251565e-15
10
-8.5434142444472485
20
-9.8649808837774042
30
1.1102230246251565e-15
0
ARC
5
121
100
AcDbEntity
8
0
100
AcDbCircle
10
-6.210090062310217e-05
20
-0.00088825386754807036
30
1.1102230246251565e-15
40
13.049489999999413
210
0
220
0
230
1
100
AcDbArc
50
229.10395895971573
51
234.89604026812142
0
SPLINE
5
122
100
AcDbEntity
8
0
100
AcDbSpline
70
4
71
5
72
66
73
60
74
0
42
0.000000001
43
0.0000000001
44
0.0000000001
40
0
40
0
40
0
40
0
40
0
40
0
40
0.018181818181818181
40
0.036363636363636362
40
0.054545454545454543
40
0.072727272727272724
40
0.090909090909090912
40
0.1090909090909091
40
0.12727272727272729
40
0.14545454545454548
40
0.16363636363636366
40
0.18181818181818185
40
0.20000000000000004
40
0.21818181818181823
40
0.23636363636363641
40
0.25454545454545457
40
0.27272727272727276
40
0.29090909090909095
40
0.30909090909090914
40
0.32727272727272733
40
0.34545454545454551
40
0.3636363636363637
40
0.38181818181818189
40
0.40000000000000008
40
0.41818181818181827
40
0.43636363636363645
40
0.45454545454545464
40
0.47272727272727283
40
0.49090909090909102
40
0.50909090909090915
40
0.52727272727272734
40
0.54545454545454553
40
0.56363636363636371
40
0.5818181818181819
40
0.60000000000000009
40
0.61818181818181828
40
0.63636363636363646
40
0.65454545454545465
40
0.67272727272727284
40
0.69090909090909103
40
0.70909090909090922
40
0.7272727272727274
40
0.74545454545454559
40
0.76363636363636378
40
0.78181818181818197
40
0.80000000000000016
40
0.81818181818181834
40
0.83636363636363653
40
0.85454545454545472
40
0.87272727272727291
40
0.89090909090909109
40
0.90909090909090928
40
0.92727272727272747
40
0.94545454545454566
40
0.96363636363636385
40
0.98181818181818203
40
1
40
1
40
1
40
1
40
1
40
1
41
1
41
1
41
1
41
1
41
1
41
1
41
1
41
1
41
1
41
1
41
1
41
1
41
1
41
1
41
1
41
1
41
1
41
1
41
1
41
1
41
1
41
1
41
1
41
1
41
1
41
1
41
1
41
1
41
1
41
1
41
1
41
1
41
1
41
1
41
1
41
1
41
1
41
1
41
1
41
1
41
1
41
1
41
1
41
1
41
1
41
1
41
1
41
1
41
1
41
1
41
1
41
1
41
1
41
1
41
1
41
1
41
1
41
1
41
1
41
1
10
-7.5043252218274894
20
-10.676806213086984
30
1.1102230246251565e-15
10
-7.5190197016073057
20
-10.696732310083789
30
1.1102230246251565e-15
10
-7.5477011646493501
20
-10.73572035810993
30
1.1102230246251565e-15
10
-7.5886008665476821
20
-10.791609987476642
30
1.1102230246251565e-15
10
-7.6388865590055834
20
-10.860941858251579
30
1.1102230246251565e-15
10
-7.6946920944166939
20
-10.939004726394035
30
1.1102230246251565e-15
10
-7.7435510428956986
20
-11.008626786153846
30
1.1102230246251565e-15
10
-7.785690001042048
20
-11.070150427818813
30
1.1102230246251565e-15
10
-7.8215045123631359
20
-11.124168842162966
30
1.1102230246251565e-15
10
-7.8515991968422387
20
-11.171584544984448
30
1.1102230246251565e-15
10
-7.8768463366244656
20
-11.21369601543763
30
1.1102230246251565e-15
10
-7.8983922773399629
20
-11.252204693440603
30
1.1102230246251565e-15
10
-7.9174718770837105
20
-11.288929761835782
30
1.1102230246251565e-15
10
-7.9352438095369155
20
-11.32555409339675
30
1.1102230246251565e-15
10
-7.9526357725149213
20
-11.363386503128744
30
1.1102230246251565e-15
10
-7.9701412907168052
20
-11.403047087696706
30
1.1102230246251565e-15
10
-7.9878062076503777
20
-11.444452710928024
30
1.1102230246251565e-15
10
-8.005414432571186
20
-11.48711734297274
30
1.1102230246251565e-15
10
-8.022624636742874
20
-11.530375265387374
30
1.1102230246251565e-15
10
-8.0391157588547557
20
-11.573617239713432
30
1.1102230246251565e-15
10
-8.0547563274295193
20
-11.616566820302188
30
1.1102230246251565e-15
10
-8.0695899226089178
20
-11.659252067275141
30
1.1102230246251565e-15
10
-8.0837558425278182
20
-11.701870165122321
30
1.1102230246251565e-15
10
-8.0974312891569546
20
-11.744687582225168
30
1.1102230246251565e-15
10
-8.110765443925736
20
-11.787926880687401
30
1.1102230246251565e-15
10
-8.123814959141459
20
-11.831655706997664
30
1.1102230246251565e-15
10
-8.1365690349997521
20
-11.875829317360918
30
1.1102230246251565e-15
10
-8.1489783272319798
20
-11.920339606720551
30
1.1102230246251565e-15
10
-8.1609813780701757
20
-11.965059918352152
30
1.1102230246251565e-15
10
-8.1725342153374019
20
-12.009895232833083
30
1.1102230246251565e-15
10
-8.1836321761741999
20
-12.054819119229727
30
1.1102230246251565e-15
10
-8.1942948280499568
20
-12.099847895265199
30
1.1102230246251565e-15
10
-8.2045553415824877
20
-12.145022347667451
30
1.1102230246251565e-15
10
-8.2144489658201785
20
-12.190387926747706
30
1.1102230246251565e-15
10
-8.2240000396112318
20
-12.235972415053425
30
1.1102230246251565e-15
10
-8.2332159955554864
20
-12.281775567115501
30
1.1102230246251565e-15
10
-8.242094447924357
20
-12.327781152199869
30
1.1102230246251565e-15
10
-8.2506275093864172
20
-12.373964235852306
30
1.1102230246251565e-15
10
-8.2588067956010587
20
-12.42029964300735
30
1.1102230246251565e-15
10
-8.2666291610527729
20
-12.466771632054339
30
1.1102230246251565e-15
10
-8.2740979220644313
20
-12.513375952344315
30
1.1102230246251565e-15
10
-8.2812199179426713
20
-12.56011486832746
30
1.1102230246251565e-15
10
-8.2880036939323141
20
-12.606994069730513
30
1.1102230246251565e-15
10
-8.2944574021974873
20
-12.654019093089119
30
1.1102230246251565e-15
10
-8.3005864094055575
20
-12.701191248472835
30
1.1102230246251565e-15
10
-8.306393299372548
20
-12.748507536136767
30
1.1102230246251565e-15
10
-8.3118790279814263
20
-12.795962483694115
30
1.1102230246251565e-15
10
-8.3170437326187816
20
-12.843549388813249
30
1.1102230246251565e-15
10
-8.3218876358365499
20
-12.891261729283521
30
1.1102230246251565e-15
10
-8.3264120534782951
20
-12.93909469021639
30
1.1102230246251565e-15
10
-8.3306192446365088
20
-12.987045091630311
30
1.1102230246251565e-15
10
-8.3345119888487975
20
-13.03511092795098
30
1.1102230246251565e-15
10
-8.3380932619213191
20
-13.083291039358651
30
1.1102230246251565e-15
10
-8.3413658844290808
20
-13.131584736120043
30
1.1102230246251565e-15
10
-8.3443321682554412
20
-13.179991419416606
30
1.1102230246251565e-15
10
-8.3469938936410735
20
-13.228510577908752
30
1.1102230246251565e-15
10
-8.3488806362719554
20
-13.267415572516139
30
1.1102230246251565e-15
10
-8.3501595454863384
20
-13.296644643379143
30
1.1102230246251565e-15
10
-8.3509516741075416
20
-13.316153045250218
30
1.1102230246251565e-15
10
-8.3513326190353006
20
-13.325912834840972
30
1.1102230246251565e-15
0
ARC
5
123
100
AcDbEntity
8
0
100
AcDbCircle
10
-6.2788820319431478e-05
20
-0.00088942172545800242
30
1.1102230246251565e-15
40
15.725773645106795
210
0
220
0
230
1
100
AcDbArc
50
237.92315316717307
51
241.07684606065544
0
SPLINE
5
124
100
AcDbEntity
8
0
100
AcDbSpline
70
4
71
5
72
66
73
60
74
0
42
0.000000001
43
0.0000000001
44
0.0000000001
40
-1
40
-1
40
-1
40
-1
40
-1
40
-1
40
-0.98181818181818203
40
-0.96363636363636385
40
-0.94545454545454566
40
-0.92727272727272747
40
-0.90909090909090928
40
-0.89090909090909109
40
-0.87272727272727291
40
-0.85454545454545472
40
-0.83636363636363653
40
-0.81818181818181834
40
-0.80000000000000016
40
-0.78181818181818197
40
-0.76363636363636378
40
-0.74545454545454559
40
-0.7272727272727274
40
-0.70909090909090922
40
-0.69090909090909103
40
-0.67272727272727284
40
-0.65454545454545465
40
-0.63636363636363646
40
-0.61818181818181828
40
-0.60000000000000009
40
-0.5818181818181819
40
-0.56363636363636371
40
-0.54545454545454553
40
-0.52727272727272734
40
-0.50909090909090915
40
-0.49090909090909102
40
-0.47272727272727283
40
-0.45454545454545464
40
-0.43636363636363645
40
-0.41818181818181827
40
-0.40000000000000008
40
-0.38181818181818189
40
-0.3636363636363637
40
-0.34545454545454551
40
-0.32727272727272733
40
-0.30909090909090914
40
-0.29090909090909095
40
-0.27272727272727276
40
-0.25454545454545457
40
-0.23636363636363641
40
-0.21818181818181823
40
-0.20000000000000004
40
-0.18181818181818185
40
-0.16363636363636366
40
-0.14545454545454548
40
-0.12727272727272729
40
-0.1090909090909091
40
-0.090909090909090912
40
-0.072727272727272724
40
-0.054545454545454543
40
-0.036363636363636362
40
-0.018181818181818181
40
0
40
0
40
0
40
0
40
0
40
0
41
1
41
1
41
1
41
1
41
1
41
1
41
1
41
1
41
1
41
1
41
1
41
1
41
1
41
1
41
1
41
1
41
1
41
1
41
1
41
1
41
1
41
1
41
1
41
1
41
1
41
1
41
1
41
1
41
1
41
1
41
1
41
1
41
1
41
1
41
1
41
1
41
1
41
1
41
1
41
1
41
1
41
1
41
1
41
1
41
1
41
1
41
1
41
1
41
1
41
1
41
1
41
1
41
1
41
1
41
1
41
1
41
1
41
1
41
1
41
1
10
-7.6056150945640706
20
-13.765174033056748
30
1.1102230246251565e-15
10
-7.5972636759485717
20
-13.760109211343902
30
1.1102230246251565e-15
10
-7.5805852746575777
20
-13.749958539364844
30
1.1102230246251565e-15
10
-7.5556409805449132
20
-13.734669445754781
30
1.1102230246251565e-15
10
-7.5225286162574179
20
-13.714157748253015
30
1.1102230246251565e-15
10
-7.4813832337906732
20
-13.688307196525898
30
1.1102230246251565e-15
10
-7.4404838772051622
20
-13.662244801037245
30
1.1102230246251565e-15
10
-7.3998318568069532
20
-13.635969252656771
30
1.1102230246251565e-15
10
-7.3594288171581894
20
-13.609478819679259
30
1.1102230246251565e-15
10
-7.319276728955173
20
-13.582771369563726
30
1.1102230246251565e-15
10
-7.2793780492984093
20
-13.555844861903024
30
1.1102230246251565e-15
10
-7.2397358798490483
20
-13.528697837980134
30
1.1102230246251565e-15
10
-7.20035409711112
20
-13.501329863633451
30
1.1102230246251565e-15
10
-7.1612375502145431
20
-13.473742122304209
30
1.1102230246251565e-15
10
-7.1223920515085917
20
-13.445937581374396
30
1.1102230246251565e-15
10
-7.0838235295910215
20
-13.417919370037835
30
1.1102230246251565e-15
10
-7.0455372341405624
20
-13.3896893053263
30
1.1102230246251565e-15
10
-7.0075370414521707
20
-13.361246581688697
30
1.1102230246251565e-15
10
-6.9698244075251186
20
-13.332585870197738
30
1.1102230246251565e-15
10
-6.9323984422437057
20
-13.303697356644314
30
1.1102230246251565e-15
10
-6.8952583120775577
20
-13.274570808754618
30
1.1102230246251565e-15
10
-6.8584053522554154
20
-13.245199146908961
30
1.1102230246251565e-15
10
-6.8218448882638043
20
-13.215581531341364
30
1.1102230246251565e-15
10
-6.7855891630495861
20
-13.185728344865764
30
1.1102230246251565e-15
10
-6.7496561304124132
20
-13.15565912570537
30
1.1102230246251565e-15
10
-6.7140637746634386
20
-13.125392860738723
30
1.1102230246251565e-15
10
-6.6788251348985135
20
-13.094939505386913
30
1.1102230246251565e-15
10
-6.643944029205608
20
-13.064292677957479
30
1.1102230246251565e-15
10
-6.6094079581284939
20
-13.033417621967992
30
1.1102230246251565e-15
10
-6.5751942590063397
20
-13.002261473158281
30
1.1102230246251565e-15
10
-6.5412833403970154
20
-12.970775446054418
30
1.1102230246251565e-15
10
-6.5076704169953823
20
-12.938934515573052
30
1.1102230246251565e-15
10
-6.4743763452179497
20
-12.906755573913543
30
1.1102230246251565e-15
10
-6.4414629127910779
20
-12.874323146337796
30
1.1102230246251565e-15
10
-6.4090111008663806
20
-12.841752389418126
30
1.1102230246251565e-15
10
-6.3770915376819506
20
-12.809138870994678
30
1.1102230246251565e-15
10
-6.3457381211940849
20
-12.776513729010981
30
1.1102230246251565e-15
10
-6.3149191520331431
20
-12.743794618574547
30
1.1102230246251565e-15
10
-6.2845122975860965
20
-12.710743162420144
30
1.1102230246251565e-15
10
-6.2543704085715248
20
-12.677075189779499
30
1.1102230246251565e-15
10
-6.2243885566214292
20
-12.642573270822586
30
1.1102230246251565e-15
10
-6.194563327871788
20
-12.607185685681756
30
1.1102230246251565e-15
10
-6.1650727685012763
20
-12.571161445409334
30
1.1102230246251565e-15
10
-6.1362940768677525
20
-12.535076721214955
30
1.1102230246251565e-15
10
-6.108644023994688
20
-12.499552792637697
30
1.1102230246251565e-15
10
-6.0824429383011926
20
-12.465014288843594
30
1.1102230246251565e-15
10
-6.05778575769585
20
-12.431461419412324
30
1.1102230246251565e-15
10
-6.0343693989271552
20
-12.398161909092213
30
1.1102230246251565e-15
10
-6.0114989034043811
20
-12.363669848996457
30
1.1102230246251565e-15
10
-5.988264133557645
20
-12.326155967392424
30
1.1102230246251565e-15
10
-5.9636726672795195
20
-12.283658275725909
30
1.1102230246251565e-15
10
-5.9367921510520718
20
-12.234349283089642
30
1.1102230246251565e-15
10
-5.9069098001745139
20
-12.176836559152251
30
1.1102230246251565e-15
10
-5.8735293821156764
20
-12.110153743024464
30
1.1102230246251565e-15
10
-5.8363238438240952
20
-12.033667299967991
30
1.1102230246251565e-15
10
-5.7951035802134072
20
-11.947013050026175
30
1.1102230246251565e-15
10
-5.7588435461205343
20
-11.869419434957354
30
1.1102230246251565e-15
10
-5.7297899429514807
20
-11.806551920055831
30
1.1102230246251565e-15
10
-5.7095952764189608
20
-11.762564766757304
30
1.1102230246251565e-15
10
-5.6992915441583012
20
-11.740052321772732
30
1.1102230246251565e-15
0
ARC
5
125
100
AcDbEntity
8
0
100
AcDbCircle
10
-6.210090062310217e-05
20
-0.00088825386754807036
30
1.1102230246251565e-15
40
13.049489999999668
210
0
220
0
230
1
100
AcDbArc
50
244.10395895971627
51
249.89604026812214
0
SPLINE
5
126
100
AcDbEntity
8
0
100
AcDbSpline
70
4
71
5
72
66
73
60
74
0
42
0.000000001
43
0.0000000001
44
0.0000000001
40
0
40
0
40
0
40
0
40
0
40
0
40
0.018181818181818181
40
0.036363636363636362
40
0.054545454545454543
40
0.072727272727272724
40
0.090909090909090912
40
0.1090909090909091
40
0.12727272727272729
40
0.14545454545454548
40
0.16363636363636366
40
0.18181818181818185
40
0.20000000000000004
40
0.21818181818181823
40
0.23636363636363641
40
0.25454545454545457
40
0.27272727272727276
40
0.29090909090909095
40
0.30909090909090914
40
0.32727272727272733
40
0.34545454545454551
40
0.3636363636363637
40
0.38181818181818189
40
0.40000000000000008
40
0.41818181818181827
40
0.43636363636363645
40
0.45454545454545464
40
0.47272727272727283
40
0.49090909090909102
40
0.50909090909090915
40
0.52727272727272734
40
0.54545454545454553
40
0.56363636363636371
40
0.5818181818181819
40
0.60000000000000009
40
0.61818181818181828
40
0.63636363636363646
40
0.65454545454545465
40
0.67272727272727284
40
0.69090909090909103
40
0.70909090909090922
40
0.7272727272727274
40
0.74545454545454559
40
0.76363636363636378
40
0.78181818181818197
40
0.80000000000000016
40
0.81818181818181834
40
0.83636363636363653
40
0.85454545454545472
40
0.87272727272727291
40
0.89090909090909109
40
0.90909090909090928
40
0.92727272727272747
40
0.94545454545454566
40
0.96363636363636385
40
0.98181818181818203
40
1
40
1
40
1
40
1
40
1
40
1
41
1
41
1
41
1
41
1
41
1
41
1
41
1
41
1
41
1
41
1
41
1
41
1
41
1
41
1
41
1
41
1
41
1
41
1
41
1
41
1
41
1
41
1
41
1
41
1
41
1
41
1
41
1
41
1
41
1
41
1
41
1
41
1
41
1
41
1
41
1
41
1
41
1
41
1
41
1
41
1
41
1
41
1
41
1
41
1
41
1
41
1
41
1
41
1
41
1
41
1
41
1
41
1
41
1
41
1
41
1
41
1
41
1
41
1
41
1
41
1
10
-4.4854927648744649
20
-12.255279345177534
30
1.1102230246251565e-15
10
-4.4945292890013651
20
-12.27832968810165
30
1.1102230246251565e-15
10
-4.5121426055307117
20
-12.323412559470698
30
1.1102230246251565e-15
10
-4.5371833833800448
20
-12.387983417673716
30
1.1102230246251565e-15
10
-4.5678112238301889
20
-12.467967757134463
30
1.1102230246251565e-15
10
-4.6015110747429677
20
-12.557814232934167
30
1.1102230246251565e-15
10
-4.6306856798977369
20
-12.637709604934768
30
1.1102230246251565e-15
10
-4.6554652976753443
20
-12.708043244268987
30
1.1102230246251565e-15
10
-4.6760784646958937
20
-12.769490503413932
30
1.1102230246251565e-15
10
-4.692875610739736
20
-12.823079632850856
30
1.1102230246251565e-15
10
-4.7063632245240585
20
-12.870290630359944
30
1.1102230246251565e-15
10
-4.7172082258439287
20
-12.913063656781523
30
1.1102230246251565e-15
10
-4.7261325568587171
20
-12.953475512600352
30
1.1102230246251565e-15
10
-4.7338198508767588
20
-12.993451614908572
30
1.1102230246251565e-15
10
-4.7408274489267441
20
-13.034496287786313
30
1.1102230246251565e-15
10
-4.7474715664346112
20
-13.077336232209543
30
1.1102230246251565e-15
10
-4.7538180020533485
20
-13.121903009974954
30
1.1102230246251565e-15
10
-4.7597838219338255
20
-13.167671223897415
30
1.1102230246251565e-15
10
-4.7652116284463117
20
-13.213909496960861
30
1.1102230246251565e-15
10
-4.7699489826951478
20
-13.259946253221187
30
1.1102230246251565e-15
10
-4.773940442383811
20
-13.305480439364132
30
1.1102230246251565e-15
10
-4.7772208402028635
20
-13.350550438756454
30
1.1102230246251565e-15
10
-4.7798736927168246
20
-13.395382770000072
30
1.1102230246251565e-15
10
-4.7820011967936269
20
-13.44028068503173
30
1.1102230246251565e-15
10
-4.7836898473176062
20
-13.485497773330872
30
1.1102230246251565e-15
10
-4.7849768580159173
20
-13.531114039084208
30
1.1102230246251565e-15
10
-4.7858633776249393
20
-13.577083467909469
30
1.1102230246251565e-15
10
-4.7863297228887438
20
-13.623288867103877
30
1.1102230246251565e-15
10
-4.7863493113344795
20
-13.669591989225287
30
1.1102230246251565e-15
10
-4.7859042619370227
20
-13.715889671722215
30
1.1102230246251565e-15
10
-4.7849969115489799
20
-13.762155177436439
30
1.1102230246251565e-15
10
-4.783641937556852
20
-13.808409332511891
30
1.1102230246251565e-15
10
-4.781860823935097
20
-13.854700119090229
30
1.1102230246251565e-15
10
-4.7796758552437684
20
-13.901080561926022
30
1.1102230246251565e-15
10
-4.7771033503525411
20
-13.947583796256897
30
1.1102230246251565e-15
10
-4.7741505521336354
20
-13.994211508676281
30
1.1102230246251565e-15
10
-4.770819356973294
20
-14.040947404026973
30
1.1102230246251565e-15
10
-4.7671085998060247
20
-14.087765356084041
30
1.1102230246251565e-15
10
-4.763016697767088
20
-14.134638877574496
30
1.1102230246251565e-15
10
-4.7585446867504428
20
-14.181551949150675
30
1.1102230246251565e-15
10
-4.7536968702269009
20
-14.22850132332851
30
1.1102230246251565e-15
10
-4.7484792683765189
20
-14.275490957541786
30
1.1102230246251565e-15
10
-4.7428986626623288
20
-14.322528559316613
30
1.1102230246251565e-15
10
-4.7369614945093552
20
-14.369621586471126
30
1.1102230246251565e-15
10
-4.7306726086492334
20
-14.416772693431025
30
1.1102230246251565e-15
10
-4.7240352772477499
20
-14.463979651406051
30
1.1102230246251565e-15
10
-4.7170518399749071
20
-14.511237421877132
30
1.1102230246251565e-15
10
-4.7097241642270529
20
-14.558539566447308
30
1.1102230246251565e-15
10
-4.7020541530451618
20
-14.605879842745487
30
1.1102230246251565e-15
10
-4.6940443236213234
20
-14.65325394051192
30
1.1102230246251565e-15
10
-4.6856976811110256
20
-14.700659372816551
30
1.1102230246251565e-15
10
-4.677017429422186
20
-14.748094921820776
30
1.1102230246251565e-15
10
-4.6680067431462389
20
-14.795560237420109
30
1.1102230246251565e-15
10
-4.658668525265556
20
-14.843055383401806
30
1.1102230246251565e-15
10
-4.6490051638737588
20
-14.890580379710912
30
1.1102230246251565e-15
10
-4.639018510895899
20
-14.938135193191224
30
1.1102230246251565e-15
10
-4.6307716107767387
20
-14.976202857180096
30
1.1102230246251565e-15
10
-4.6244419020066987
20
-15.004766977666337
30
1.1102230246251565e-15
10
-4.6201578935562226
20
-15.023815664836153
30
1.1102230246251565e-15
10
-4.6179998386782417
20
-15.03334149346319
30
1.1102230246251565e-15
0
ARC
5
127
100
AcDbEntity
8
0
100
AcDbCircle
10
-6.1631791783602801e-05
20
-0.00088656231998107834
30
1.1102230246251565e-15
40
15.725776754725775
210
0
220
0
230
1
100
AcDbArc
50
252.92315347905779
51
256.07684574877089
0
SPLINE
5
128
100
AcDbEntity
8
0
100
AcDbSpline
70
4
71
5
72
66
73
60
74
0
42
0.000000001
43
0.0000000001
44
0.0000000001
40
-1
40
-1
40
-1
40
-1
40
-1
40
-1
40
-0.98181818181818203
40
-0.96363636363636385
40
-0.94545454545454566
40
-0.92727272727272747
40
-0.90909090909090928
40
-0.89090909090909109
40
-0.87272727272727291
40
-0.85454545454545472
40
-0.83636363636363653
40
-0.81818181818181834
40
-0.80000000000000016
40
-0.78181818181818197
40
-0.76363636363636378
40
-0.74545454545454559
40
-0.7272727272727274
40
-0.70909090909090922
40
-0.69090909090909103
40
-0.67272727272727284
40
-0.65454545454545465
40
-0.63636363636363646
40
-0.61818181818181828
40
-0.60000000000000009
40
-0.5818181818181819
40
-0.56363636363636371
40
-0.54545454545454553
40
-0.52727272727272734
40
-0.50909090909090915
40
-0.49090909090909102
40
-0.47272727272727283
40
-0.45454545454545464
40
-0.43636363636363645
40
-0.41818181818181827
40
-0.40000000000000008
40
-0.38181818181818189
40
-0.3636363636363637
40
-0.34545454545454551
40
-0.32727272727272733
40
-0.30909090909090914
40
-0.29090909090909095
40
-0.27272727272727276
40
-0.25454545454545457
40
-0.23636363636363641
40
-0.21818181818181823
40
-0.20000000000000004
40
-0.18181818181818185
40
-0.16363636363636366
40
-0.14545454545454548
40
-0.12727272727272729
40
-0.1090909090909091
40
-0.090909090909090912
40
-0.072727272727272724
40
-0.054545454545454543
40
-0.036363636363636362
40
-0.018181818181818181
40
0
40
0
40
0
40
0
40
0
40
0
41
1
41
1
41
1
41
1
41
1
41
1
41
1
41
1
41
1
41
1
41
1
41
1
41
1
41
1
41
1
41
1
41
1
41
1
41
1
41
1
41
1
41
1
41
1
41
1
41
1
41
1
41
1
41
1
41
1
41
1
41
1
41
1
41
1
41
1
41
1
41
1
41
1
41
1
41
1
41
1
41
1
41
1
41
1
41
1
41
1
41
1
41
1
41
1
41
1
41
1
41
1
41
1
41
1
41
1
41
1
41
1
41
1
41
1
41
1
41
1
10
-3.7840028588023382
20
-15.264629331706631
30
1.1102230246251565e-15
10
-3.7772468801945367
20
-15.257575583416163
30
1.1102230246251565e-15
10
-3.7637639688746614
20
-15.243454099299425
30
1.1102230246251565e-15
10
-3.7436267395808711
20
-15.222229910535921
30
1.1102230246251565e-15
10
-3.7169514697067632
20
-15.193847021671203
30
1.1102230246251565e-15
10
-3.6838986972632948
20
-15.158228097535087
30
1.1102230246251565e-15
10
-3.6511383967727711
20
-15.122468224223375
30
1.1102230246251565e-15
10
-3.618672172721249
20
-15.086566476344274
30
1.1102230246251565e-15
10
-3.5865020618318626
20
-15.050521606842162
30
1.1102230246251565e-15
10
-3.5546305195932382
20
-15.0143320658941
30
1.1102230246251565e-15
10
-3.5230604474785028
20
-14.977996518562707
30
1.1102230246251565e-15
10
-3.4917952190061046
20
-14.941514358604973
30
1.1102230246251565e-15
10
-3.4608386909608151
20
-14.904886169966529
30
1.1102230246251565e-15
10
-3.4301952409454008
20
-14.868114350811489
30
1.1102230246251565e-15
10
-3.3998697152431827
20
-14.8312032717575
30
1.1102230246251565e-15
10
-3.3698670305448726
20
-14.794157489807647
30
1.1102230246251565e-15
10
-3.3401917873682638
20
-14.756980118796488
30
1.1102230246251565e-15
10
-3.3108479384186786
20
-14.719671383880087
30
1.1102230246251565e-15
10
-3.2818382693112556
20
-14.682226514550138
30
1.1102230246251565e-15
10
-3.253164460364482
20
-14.64463580062967
30
1.1102230246251565e-15
10
-3.224828354757177
20
-14.606889142767642
30
1.1102230246251565e-15
10
-3.1968330745616962
20
-14.568980048159277
30
1.1102230246251565e-15
10
-3.1691839811504585
20
-14.530909083990347
30
1.1102230246251565e-15
10
-3.1418902130320534
20
-14.492689447996913
30
1.1102230246251565e-15
10
-3.1149640553809781
20
-14.454344659438705
30
1.1102230246251565e-15
10
-3.0884179655420847
20
-14.415897712914326
30
1.1102230246251565e-15
10
-3.0622619616622018
20
-14.377361599388379
30
1.1102230246251565e-15
10
-3.036501383434655
20
-14.338731142813085
30
1.1102230246251565e-15
10
-3.0111331529514409
20
-14.299969535907069
30
1.1102230246251565e-15
10
-2.986149062040488
20
-14.261019850187884
30
1.1102230246251565e-15
10
-2.9615428134316324
20
-14.221829891867944
30
1.1102230246251565e-15
10
-2.9373162618432347
20
-14.182374250044834
30
1.1102230246251565e-15
10
-2.9134851810037361
20
-14.142674639368028
30
1.1102230246251565e-15
10
-2.8900873765262469
20
-14.102828696811351
30
1.1102230246251565e-15
10
-2.8671712654825003
20
-14.062968614546559
30
1.1102230246251565e-15
10
-2.844780334734633
20
-14.023204983951885
30
1.1102230246251565e-15
10
-2.8229392681012557
20
-13.98357665540772
30
1.1102230246251565e-15
10
-2.8016387587689682
20
-13.943995885455152
30
1.1102230246251565e-15
10
-2.7808223390835534
20
-13.904200757326912
30
1.1102230246251565e-15
10
-2.7604214225606247
20
-13.863878698102168
30
1.1102230246251565e-15
10
-2.7403909311605985
20
-13.822792529232666
30
1.1102230246251565e-15
10
-2.720740953430854
20
-13.780891409589664
30
1.1102230246251565e-15
10
-2.7015790199709104
20
-13.738461947121801
30
1.1102230246251565e-15
10
-2.6831203523340035
20
-13.696158306599804
30
1.1102230246251565e-15
10
-2.6656067214383352
20
-13.654688466254292
30
1.1102230246251565e-15
10
-2.6492376386615257
20
-13.614545493458756
30
1.1102230246251565e-15
10
-2.6341047527381471
20
-13.575754162390375
30
1.1102230246251565e-15
10
-2.6201048345094158
20
-13.537528705753667
30
1.1102230246251565e-15
10
-2.6069408342816565
20
-13.498292614293383
30
1.1102230246251565e-15
10
-2.5942070770336336
20
-13.456043386262701
30
1.1102230246251565e-15
10
-2.5814527566252519
20
-13.408629028503839
30
1.1102230246251565e-15
10
-2.5682502781658578
20
-13.354043009504991
30
1.1102230246251565e-15
10
-2.5542715319931975
20
-13.290755862592361
30
1.1102230246251565e-15
10
-2.5392873068922475
20
-13.217705720396077
30
1.1102230246251565e-15
10
-2.5231456647301975
20
-13.134195987792607
30
1.1102230246251565e-15
10
-2.5057577177661527
20
-13.039825820549542
30
1.1102230246251565e-15
10
-2.4908159197322717
20
-12.955491356401389
30
1.1102230246251565e-15
10
-2.4790236042598868
20
-12.887246374296135
30
1.1102230246251565e-15
10
-2.4709017673168576
20
-12.839531282593564
30
1.1102230246251565e-15
10
-2.4667757757332462
20
-12.815119128426218
30
1.1102230246251565e-15
0
ARC
5
129
100
AcDbEntity
8
0
100
AcDbCircle
10
-6.210090062310217e-05
20
-0.00088825386754807036
30
1.1102230246251565e-15
40
13.049489999999954
210
0
220
0
230
1
100
AcDbArc
50
259.10395895971652
51
264.89604026812214
0
SPLINE
5
130
100
AcDbEntity
8
0
100
AcDbSpline
70
4
71
5
72
66
73
60
74
0
42
0.000000001
43
0.0000000001
44
0.0000000001
40
0
40
0
40
0
40
0
40
0
40
0
40
0.018181818181818181
40
0.036363636363636362
40
0.054545454545454543
40
0.072727272727272724
40
0.090909090909090912
40
0.1090909090909091
40
0.12727272727272729
40
0.14545454545454548
40
0.16363636363636366
40
0.18181818181818185
40
0.20000000000000004
40
0.21818181818181823
40
0.23636363636363641
40
0.25454545454545457
40
0.27272727272727276
40
0.29090909090909095
40
0.30909090909090914
40
0.32727272727272733
40
0.34545454545454551
40
0.3636363636363637
40
0.38181818181818189
40
0.40000000000000008
40
0.41818181818181827
40
0.43636363636363645
40
0.45454545454545464
40
0.47272727272727283
40
0.49090909090909102
40
0.50909090909090915
40
0.52727272727272734
40
0.54545454545454553
40
0.56363636363636371
40
0.5818181818181819
40
0.60000000000000009
40
0.61818181818181828
40
0.63636363636363646
40
0.65454545454545465
40
0.67272727272727284
40
0.69090909090909103
40
0.70909090909090922
40
0.7272727272727274
40
0.74545454545454559
40
0.76363636363636378
40
0.78181818181818197
40
0.80000000000000016
40
0.81818181818181834
40
0.83636363636363653
40
0.85454545454545472
40
0.87272727272727291
40
0.89090909090909109
40
0.90909090909090928
40
0.92727272727272747
40
0.94545454545454566
40
0.96363636363636385
40
0.98181818181818203
40
1
40
1
40
1
40
1
40
1
40
1
41
1
41
1
41
1
41
1
41
1
41
1
41
1
41
1
41
1
41
1
41
1
41
1
41
1
41
1
41
1
41
1
41
1
41
1
41
1
41
1
41
1
41
1
41
1
41
1
41
1
41
1
41
1
41
1
41
1
41
1
41
1
41
1
41
1
41
1
41
1
41
1
41
1
41
1
41
1
41
1
41
1
41
1
41
1
41
1
41
1
41
1
41
1
41
1
41
1
41
1
41
1
41
1
41
1
41
1
41
1
41
1
41
1
41
1
41
1
41
1
10
-1.1609856206962008
20
-12.998635975734105
30
1.1102230246251565e-15
10
-1.1637483649851335
20
-13.02323972182367
30
1.1102230246251565e-15
10
-1.1690932165888337
20
-13.071345093383123
30
1.1102230246251565e-15
10
-1.1765685827618944
20
-13.140196783176245
30
1.1102230246251565e-15
10
-1.1854513344934896
20
-13.225382790791077
30
1.1102230246251565e-15
10
-1.1947489117599686
20
-13.320889985400111
30
1.1102230246251565e-15
10
-1.2022509724617256
20
-13.405613932052647
30
1.1102230246251565e-15
10
-1.2079825598680136
20
-13.479964447737014
30
1.1102230246251565e-15
10
-1.2119896293190944
20
-13.544653022487692
30
1.1102230246251565e-15
10
-1.2143445391823262
20
-13.600763567905865
30
1.1102230246251565e-15
10
-1.2151534683781116
20
-13.649856740998612
30
1.1102230246251565e-15
10
-1.2145584613845357
20
-13.693979204772948
30
1.1102230246251565e-15
10
-1.2127193452601472
20
-13.735323846831646
30
1.1102230246251565e-15
10
-1.209798124460014
20
-13.775927414587919
30
1.1102230246251565e-15
10
-1.2059438013559001
20
-13.81738722399221
30
1.1102230246251565e-15
10
-1.2012737325417477
20
-13.860487056858377
30
1.1102230246251565e-15
10
-1.195869187746232
20
-13.905177836902906
30
1.1102230246251565e-15
10
-1.1897860418203496
20
-13.950930604556754
30
1.1102230246251565e-15
10
-1.183061554629425
20
-13.996998166368179
30
1.1102230246251565e-15
10
-1.1757222981517668
20
-14.042692375700028
30
1.1102230246251565e-15
10
-1.1677926375726091
20
-14.087708087859143
30
1.1102230246251565e-15
10
-1.1592962843410328
20
-14.132091393694356
30
1.1102230246251565e-15
10
-1.1502552819354037
20
-14.176082709050565
30
1.1102230246251565e-15
10
-1.1406898575731226
20
-14.220001403300639
30
1.1102230246251565e-15
10
-1.1306179251098998
20
-14.264114811595057
30
1.1102230246251565e-15
10
-1.1200547236386793
20
-14.308509843665169
30
1.1102230246251565e-15
10
-1.1090132721520825
20
-14.353142350345767
30
1.1102230246251565e-15
10
-1.0975048897882849
20
-14.397894037777192
30
1.1102230246251565e-15
10
-1.0855396809212086
20
-14.442624489134545
30
1.1102230246251565e-15
10
-1.0731270742399266
20
-14.4872294290954
30
1.1102230246251565e-15
10
-1.0602762470564882
20
-14.531683636370062
30
1.1102230246251565e-15
10
-1.0469959864348863
20
-14.576011026255918
30
1.1102230246251565e-15
10
-1.0332946256088207
20
-14.620263506404516
30
1.1102230246251565e-15
10
-1.0191799659940262
20
-14.664498062464201
30
1.1102230246251565e-15
10
-1.00465919437763
20
-14.708750924250948
30
1.1102230246251565e-15
10
-0.98973887031446939
20
-14.7530255954822
30
1.1102230246251565e-15
10
-0.97442504307001643
20
-14.797306827065684
30
1.1102230246251565e-15
10
-0.95872334924200675
20
-14.841569081464883
30
1.1102230246251565e-15
10
-0.94263911531119782
20
-14.885786364263225
30
1.1102230246251565e-15
10
-0.92617748798658539
20
-14.929943470068189
30
1.1102230246251565e-15
10
-0.90934346461249771
20
-14.974038375871233
30
1.1102230246251565e-15
10
-0.89214183597712104
20
-15.018076462397101
30
1.1102230246251565e-15
10
-0.87457715761619303
20
-15.062066929716071
30
1.1102230246251565e-15
10
-0.85665372124313777
20
-15.106018648690716
30
1.1102230246251565e-15
10
-0.83837551949342948
20
-15.149935437208262
30
1.1102230246251565e-15
10
-0.81974628988984199
20
-15.193815989321482
30
1.1102230246251565e-15
10
-0.80076959644472578
20
-15.23765604374587
30
1.1102230246251565e-15
10
-0.78144890930417332
20
-15.281449864785237
30
1.1102230246251565e-15
10
-0.76178768230914229
20
-15.325191915315502
30
1.1102230246251565e-15
10
-0.74178946245785038
20
-15.368878683442542
30
1.1102230246251565e-15
10
-0.72145779617252048
20
-15.412508544767807
30
1.1102230246251565e-15
10
-0.70079609339044291
20
-15.45608115218174
30
1.1102230246251565e-15
10
-0.67980751114521232
20
-15.499596989154096
30
1.1102230246251565e-15
10
-0.65849483699308697
20
-15.543056868645831
30
1.1102230246251565e-15
10
-0.63686037249310445
20
-15.586461428006606
30
1.1102230246251565e-15
10
-0.61490591504879322
20
-15.629811114523793
30
1.1102230246251565e-15
10
-0.59708738479388934
20
-15.664447199503407
30
1.1102230246251565e-15
10
-0.58358041723130449
20
-15.690399772007105
30
1.1102230246251565e-15
10
-0.57451221980492362
20
-15.707690607925411
30
1.1102230246251565e-15
10
-0.56996223299450988
20
-15.716333306110537
30
1.1102230246251565e-15
0
ARC
5
131
100
AcDbEntity
8
0
100
AcDbCircle
10
-6.2160851708936438e-05
20
-0.00089512370231879801
30
1.1102230246251565e-15
40
15.725768132505404
210
0
220
0
230
1
100
AcDbArc
50
267.92315261427666
51
271.07684661355216
0
SPLINE
5
132
100
AcDbEntity
8
0
100
AcDbSpline
70
4
71
5
72
66
73
60
74
0
42
0.000000001
43
0.0000000001
44
0.0000000001
40
-1
40
-1
40
-1
40
-1
40
-1
40
-1
40
-0.98181818181818203
40
-0.96363636363636385
40
-0.94545454545454566
40
-0.92727272727272747
40
-0.90909090909090928
40
-0.89090909090909109
40
-0.87272727272727291
40
-0.85454545454545472
40
-0.83636363636363653
40
-0.81818181818181834
40
-0.80000000000000016
40
-0.78181818181818197
40
-0.76363636363636378
40
-0.74545454545454559
40
-0.7272727272727274
40
-0.70909090909090922
40
-0.69090909090909103
40
-0.67272727272727284
40
-0.65454545454545465
40
-0.63636363636363646
40
-0.61818181818181828
40
-0.60000000000000009
40
-0.5818181818181819
40
-0.56363636363636371
40
-0.54545454545454553
40
-0.52727272727272734
40
-0.50909090909090915
40
-0.49090909090909102
40
-0.47272727272727283
40
-0.45454545454545464
40
-0.43636363636363645
40
-0.41818181818181827
40
-0.40000000000000008
40
-0.38181818181818189
40
-0.3636363636363637
40
-0.34545454545454551
40
-0.32727272727272733
40
-0.30909090909090914
40
-0.29090909090909095
40
-0.27272727272727276
40
-0.25454545454545457
40
-0.23636363636363641
40
-0.21818181818181823
40
-0.20000000000000004
40
-0.18181818181818185
40
-0.16363636363636366
40
-0.14545454545454548
40
-0.12727272727272729
40
-0.1090909090909091
40
-0.090909090909090912
40
-0.072727272727272724
40
-0.054545454545454543
40
-0.036363636363636362
40
-0.018181818181818181
40
0
40
0
40
0
40
0
40
0
40
0
41
1
41
1
41
1
41
1
41
1
41
1
41
1
41
1
41
1
41
1
41
1
41
1
41
1
41
1
41
1
41
1
41
1
41
1
41
1
41
1
41
1
41
1
41
1
41
1
41
1
41
1
41
1
41
1
41
1
41
1
41
1
41
1
41
1
41
1
41
1
41
1
41
1
41
1
41
1
41
1
41
1
41
1
41
1
41
1
41
1
41
1
41
1
41
1
41
1
41
1
41
1
41
1
41
1
41
1
41
1
41
1
41
1
41
1
41
1
41
1
10
0.29547868635271735
20
-15.723885900426577
30
1.1102230246251565e-15
10
0.3001788161750617
20
-15.715323926848264
30
1.1102230246251565e-15
10
0.30954739939821957
20
-15.698193986400682
30
1.1102230246251565e-15
10
0.3235052449744058
20
-15.672481095874494
30
1.1102230246251565e-15
10
0.34192554487591809
20
-15.638161262618508
30
1.1102230246251565e-15
10
0.36463321547686411
20
-15.595201336889517
30
1.1102230246251565e-15
10
0.38702189953380872
20
-15.552180962023494
30
1.1102230246251565e-15
10
0.40908980772336756
20
-15.509099659431772
30
1.1102230246251565e-15
10
0.43083464996042681
20
-15.465956751693648
30
1.1102230246251565e-15
10
0.45225365330144818
20
-15.422751377322303
30
1.1102230246251565e-15
10
0.47334366963136137
20
-15.379482997823864
30
1.1102230246251565e-15
10
0.49410128347427412
20
-15.336151900743452
30
1.1102230246251565e-15
10
0.51452292059835802
20
-15.292759648338786
30
1.1102230246251565e-15
10
0.53460497325453282
20
-15.2493096900655
30
1.1102230246251565e-15
10
0.55434389149165975
20
-15.205807501926573
30
1.1102230246251565e-15
10
0.57373610559039179
20
-15.162258758182096
30
1.1102230246251565e-15
10
0.59277797771149554
20
-15.118667657266826
30
1.1102230246251565e-15
10
0.6114657481095267
20
-15.075035439700191
30
1.1102230246251565e-15
10
0.62979549138848501
20
-15.031358218495281
30
1.1102230246251565e-15
10
0.64776307130663002
20
-14.987627049239796
30
1.1102230246251565e-15
10
0.66536409358553417
20
-14.943832653759543
30
1.1102230246251565e-15
10
0.6825938620733395
20
-14.89996956853849
30
1.1102230246251565e-15
10
0.69944734488042493
20
-14.85603972906134
30
1.1102230246251565e-15
10
0.71591913071076985
20
-14.812058248582238
30
1.1102230246251565e-15
10
0.73200344022937847
20
-14.768051024598707
30
1.1102230246251565e-15
10
0.74769419200519427
20
-14.724043492385539
30
1.1102230246251565e-15
10
0.76298507156052575
20
-14.680050793138172
30
1.1102230246251565e-15
10
0.77786958148795904
20
-14.636069309192671
30
1.1102230246251565e-15
10
0.79234116839290702
20
-14.592062690824136
30
1.1102230246251565e-15
10
0.80639302658527767
20
-14.547973824909839
30
1.1102230246251565e-15
10
0.82001773001468881
20
-14.503750666268896
30
1.1102230246251565e-15
10
0.83320691033526439
20
-14.459369149890824
30
1.1102230246251565e-15
10
0.84595095146018529
20
-14.414854333057745
30
1.1102230246251565e-15
10
0.8582386062796945
20
-14.370310310657025
30
1.1102230246251565e-15
10
0.87005732134546188
20
-14.325877301781613
30
1.1102230246251565e-15
10
0.88139371472916384
20
-14.281673384728073
30
1.1102230246251565e-15
10
0.89223399891128397
20
-14.237742474724653
30
1.1102230246251565e-15
10
0.90256445390497209
20
-14.19399740931774
30
1.1102230246251565e-15
10
0.91237183422817214
20
-14.150170581433093
30
1.1102230246251565e-15
10
0.92164148951254854
20
-14.105942317325265
30
1.1102230246251565e-15
10
0.93035557547531877
20
-14.061071853053642
30
1.1102230246251565e-15
10
0.93849118867562031
20
-14.015512690967062
30
1.1102230246251565e-15
10
0.94601864212586328
20
-13.969569504052387
30
1.1102230246251565e-15
10
0.95289935807080228
20
-13.923929870393668
30
1.1102230246251565e-15
10
0.9590830419862042
20
-13.879340219367
30
1.1102230246251565e-15
10
0.96450459590666626
20
-13.83632845482725
30
1.1102230246251565e-15
10
0.96908190598141986
20
-13.794942227229923
30
1.1102230246251565e-15
10
0.97271131237972619
20
-13.754395825977921
30
1.1102230246251565e-15
10
0.97527171245208732
20
-13.713089577946899
30
1.1102230246251565e-15
10
0.97663667258837528
20
-13.668984218559533
30
1.1102230246251565e-15
10
0.97668466126758835
20
-13.619884404831094
30
1.1102230246251565e-15
10
0.97530937486793257
20
-13.563741306451654
30
1.1102230246251565e-15
10
0.97243188788225809
20
-13.498992651032168
30
1.1102230246251565e-15
10
0.96799876984460453
20
-13.424553429230276
30
1.1102230246251565e-15
10
0.96197648963730398
20
-13.339711457345789
30
1.1102230246251565e-15
10
0.95434716010401166
20
-13.244056543744737
30
1.1102230246251565e-15
10
0.94695246323737037
20
-13.158728484884483
30
1.1102230246251565e-15
10
0.94067986420420702
20
-13.089756818332951
30
1.1102230246251565e-15
10
0.93617538179456838
20
-13.041565492879347
30
1.1102230246251565e-15
10
0.93384245319464887
20
-13.016917277496326
30
1.1102230246251565e-15
0
ARC
5
133
100
AcDbEntity
8
0
100
AcDbCircle
10
-6.210090062310217e-05
20
-0.00088825386754807036
30
1.1102230246251565e-15
40
13.049490000000253
210
-0
220
0
230
1
100
AcDbArc
50
274.10395895971641
51
279.89604026812179
0
SPLINE
5
134
100
AcDbEntity
8
0
100
AcDbSpline
70
4
71
5
72
66
73
60
74
0
42
0.000000001
43
0.0000000001
44
0.0000000001
40
0
40
0
40
0
40
0
40
0
40
0
40
0.018181818181818181
40
0.036363636363636362
40
0.054545454545454543
40
0.072727272727272724
40
0.090909090909090912
40
0.1090909090909091
40
0.12727272727272729
40
0.14545454545454548
40
0.16363636363636366
40
0.18181818181818185
40
0.20000000000000004
40
0.21818181818181823
40
0.23636363636363641
40
0.25454545454545457
40
0.27272727272727276
40
0.29090909090909095
40
0.30909090909090914
40
0.32727272727272733
40
0.34545454545454551
40
0.3636363636363637
40
0.38181818181818189
40
0.40000000000000008
40
0.41818181818181827
40
0.43636363636363645
40
0.45454545454545464
40
0.47272727272727283
40
0.49090909090909102
40
0.50909090909090915
40
0.52727272727272734
40
0.54545454545454553
40
0.56363636363636371
40
0.5818181818181819
40
0.60000000000000009
40
0.61818181818181828
40
0.63636363636363646
40
0.65454545454545465
40
0.67272727272727284
40
0.69090909090909103
40
0.70909090909090922
40
0.7272727272727274
40
0.74545454545454559
40
0.76363636363636378
40
0.78181818181818197
40
0.80000000000000016
40
0.81818181818181834
40
0.83636363636363653
40
0.85454545454545472
40
0.87272727272727291
40
0.89090909090909109
40
0.90909090909090928
40
0.92727272727272747
40
0.94545454545454566
40
0.96363636363636385
40
0.98181818181818203
40
1
40
1
40
1
40
1
40
1
40
1
41
1
41
1
41
1
41
1
41
1
41
1
41
1
41
1
41
1
41
1
41
1
41
1
41
1
41
1
41
1
41
1
41
1
41
1
41
1
41
1
41
1
41
1
41
1
41
1
41
1
41
1
41
1
41
1
41
1
41
1
41
1
41
1
41
1
41
1
41
1
41
1
41
1
41
1
41
1
41
1
41
1
41
1
41
1
41
1
41
1
41
1
41
1
41
1
41
1
41
1
41
1
41
1
41
1
41
1
41
1
41
1
41
1
41
1
41
1
41
1
10
2.2426365428393904
20
-12.856217578839198
30
1.1102230246251565e-15
10
2.2463358548461048
20
-12.88069802345079
30
1.1102230246251565e-15
10
2.2536237109721315
20
-12.928547593614258
30
1.1102230246251565e-15
10
2.2642231903265007
20
-12.99698798610676
30
1.1102230246251565e-15
10
2.2776908721645897
20
-13.081570376223461
30
1.1102230246251565e-15
10
2.2934291830701672
20
-13.176229632162462
30
1.1102230246251565e-15
10
2.3081109198604453
20
-13.260008356524475
30
1.1102230246251565e-15
10
2.3218179610352321
20
-13.333308883798534
30
1.1102230246251565e-15
10
2.3346900643146276
20
-13.396830354702242
30
1.1102230246251565e-15
10
2.3469378738474376
20
-13.451638475168826
30
1.1102230246251565e-15
10
2.3588627564280129
20
-13.499268205234479
30
1.1102230246251565e-15
10
2.3708572229916935
20
-13.541733233371627
30
1.1102230246251565e-15
10
2.3833344535306811
20
-13.581193092636246
30
1.1102230246251565e-15
10
2.3966651127790541
20
-13.619657059794354
30
1.1102230246251565e-15
10
2.4111186912873555
20
-13.658706588226391
30
1.1102230246251565e-15
10
2.4267846889515354
20
-13.699129127149885
30
1.1102230246251565e-15
10
2.4435719033649388
20
-13.740898306668718
30
1.1102230246251565e-15
10
2.4612894587551839
20
-13.783517652549733
30
1.1102230246251565e-15
10
2.4797079769601478
20
-13.826275074903606
30
1.1102230246251565e-15
10
2.4986236859639894
20
-13.868512752455445
30
1.1102230246251565e-15
10
2.5179340735468401
20
-13.909942244239414
30
1.1102230246251565e-15
10
2.5376281653971784
20
-13.950614207571492
30
1.1102230246251565e-15
10
2.5577468933494552
20
-13.990766571597284
30
1.1102230246251565e-15
10
2.5783533782882095
20
-14.030713058631182
30
1.1102230246251565e-15
10
2.5994995081859722
20
-14.070716531046102
30
1.1102230246251565e-15
10
2.6211930571029902
20
-14.110864881363572
30
1.1102230246251565e-15
10
2.64341002301324
20
-14.151118834327953
30
1.1102230246251565e-15
10
2.6661088557650152
20
-14.191367056453803
30
1.1102230246251565e-15
10
2.6892434527340225
20
-14.231476530707996
30
1.1102230246251565e-15
10
2.7127777180666057
20
-14.271348975187852
30
1.1102230246251565e-15
10
2.736696259409892
20
-14.310962403261323
30
1.1102230246251565e-15
10
2.760996778846279
20
-14.350342189591279
30
1.1102230246251565e-15
10
2.785684661778931
20
-14.38954062991848
30
1.1102230246251565e-15
10
2.8107671215900161
20
-14.428614787307389
30
1.1102230246251565e-15
10
2.8362465933426368
20
-14.467601517150451
30
1.1102230246251565e-15
10
2.8621176478221626
20
-14.506505901516524
30
1.1102230246251565e-15
10
2.8883704951313276
20
-14.545314776578655
30
1.1102230246251565e-15
10
2.914993081133967
20
-14.584004933829606
30
1.1102230246251565e-15
10
2.9419735329946772
20
-14.622552643185738
30
1.1102230246251565e-15
10
2.969302943929141
20
-14.660944549431999
30
1.1102230246251565e-15
10
2.9969759632803084
20
-14.699179991900078
30
1.1102230246251565e-15
10
3.024989356136214
20
-14.737265407918114
30
1.1102230246251565e-15
10
3.0533411033406708
20
-14.775210863131058
30
1.1102230246251565e-15
10
3.0820293553650302
20
-14.813026036911321
30
1.1102230246251565e-15
10
3.1110512437614339
20
-14.850715650424915
30
1.1102230246251565e-15
10
3.1404028203560141
20
-14.888279409565811
30
1.1102230246251565e-15
10
3.1700795396755437
20
-14.925714120683606
30
1.1102230246251565e-15
10
3.2000765653088452
20
-14.963015141661174
30
1.1102230246251565e-15
10
3.2303891279885972
20
-15.000178017967063
30
1.1102230246251565e-15
10
3.2610128926326674
20
-15.037200275402672
30
1.1102230246251565e-15
10
3.2919440132351321
20
-15.074081262800954
30
1.1102230246251565e-15
10
3.3231791062110916
20
-15.110821527436473
30
1.1102230246251565e-15
10
3.3547152472315056
20
-15.147422353405506
30
1.1102230246251565e-15
10
3.3865499541334767
20
-15.183885247440788
30
1.1102230246251565e-15
10
3.4186811687396581
20
-15.220211420862384
30
1.1102230246251565e-15
10
3.4511072706576278
20
-15.256401770919176
30
1.1102230246251565e-15
10
3.4772831276576133
20
-15.285245884937012
30
1.1102230246251565e-15
10
3.4970468764938345
20
-15.306818284530594
30
1.1102230246251565e-15
10
3.5102812802265748
20
-15.321172927303888
30
1.1102230246251565e-15
10
3.5169131248870089
20
-15.328343509448437
30
1.1102230246251565e-15
0
ARC
5
135
100
AcDbEntity
8
0
100
AcDbCircle
10
-6.1480886630417726e-05
20
-0.00089065127975152068
30
1.1102230246251565e-15
40
15.725772524650104
210
-0
220
0
230
1
100
AcDbArc
50
282.92315305479497
51
286.0768461730338
0
SPLINE
5
136
100
AcDbEntity
8
0
100
AcDbSpline
70
4
71
5
72
66
73
60
74
0
42
0.000000001
43
0.0000000001
44
0.0000000001
40
-1
40
-1
40
-1
40
-1
40
-1
40
-1
40
-0.98181818181818203
40
-0.96363636363636385
40
-0.94545454545454566
40
-0.92727272727272747
40
-0.90909090909090928
40
-0.89090909090909109
40
-0.87272727272727291
40
-0.85454545454545472
40
-0.83636363636363653
40
-0.81818181818181834
40
-0.80000000000000016
40
-0.78181818181818197
40
-0.76363636363636378
40
-0.74545454545454559
40
-0.7272727272727274
40
-0.70909090909090922
40
-0.69090909090909103
40
-0.67272727272727284
40
-0.65454545454545465
40
-0.63636363636363646
40
-0.61818181818181828
40
-0.60000000000000009
40
-0.5818181818181819
40
-0.56363636363636371
40
-0.54545454545454553
40
-0.52727272727272734
40
-0.50909090909090915
40
-0.49090909090909102
40
-0.47272727272727283
40
-0.45454545454545464
40
-0.43636363636363645
40
-0.41818181818181827
40
-0.40000000000000008
40
-0.38181818181818189
40
-0.3636363636363637
40
-0.34545454545454551
40
-0.32727272727272733
40
-0.30909090909090914
40
-0.29090909090909095
40
-0.27272727272727276
40
-0.25454545454545457
40
-0.23636363636363641
40
-0.21818181818181823
40
-0.20000000000000004
40
-0.18181818181818185
40
-0.16363636363636366
40
-0.14545454545454548
40
-0.12727272727272729
40
-0.1090909090909091
40
-0.090909090909090912
40
-0.072727272727272724
40
-0.054545454545454543
40
-0.036363636363636362
40
-0.018181818181818181
40
0
40
0
40
0
40
0
40
0
40
0
41
1
41
1
41
1
41
1
41
1
41
1
41
1
41
1
41
1
41
1
41
1
41
1
41
1
41
1
41
1
41
1
41
1
41
1
41
1
41
1
41
1
41
1
41
1
41
1
41
1
41
1
41
1
41
1
41
1
41
1
41
1
41
1
41
1
41
1
41
1
41
1
41
1
41
1
41
1
41
1
41
1
41
1
41
1
41
1
41
1
41
1
41
1
41
1
41
1
41
1
41
1
41
1
41
1
41
1
41
1
41
1
41
1
41
1
41
1
41
1
10
4.3548196152607623
20
-15.11164616301569
30
1.1102230246251565e-15
10
4.3571435902174365
20
-15.10215944849981
30
1.1102230246251565e-15
10
4.3617593918792732
20
-15.083188428854735
30
1.1102230246251565e-15
10
4.3685866496280115
20
-15.054739127563053
30
1.1102230246251565e-15
10
4.3774966665595381
20
-15.016821189836049
30
1.1102230246251565e-15
10
4.388311745092893
20
-14.969447910457598
30
1.1102230246251565e-15
10
4.3988030608971513
20
-14.922098801489383
30
1.1102230246251565e-15
10
4.4089687617508684
20
-14.874773863761114
30
1.1102230246251565e-15
10
4.4188064602723829
20
-14.827473035652179
30
1.1102230246251565e-15
10
4.4283132550347259
20
-14.780196202720743
30
1.1102230246251565e-15
10
4.437485965819767
20
-14.732943659613767
30
1.1102230246251565e-15
10
4.4463213679532529
20
-14.685716568068774
30
1.1102230246251565e-15
10
4.4548164133343668
20
-14.638517362190171
30
1.1102230246251565e-15
10
4.4629685099298806
20
-14.591350307650464
30
1.1102230246251565e-15
10
4.4707756460441477
20
-14.54422161265744
30
1.1102230246251565e-15
10
4.4782358421996458
20
-14.497137682036778
30
1.1102230246251565e-15
10
4.4853466711484193
20
-14.450103512707136
30
1.1102230246251565e-15
10
4.4921048223253237
20
-14.403121276011927
30
1.1102230246251565e-15
10
4.4985054980627295
20
-14.356188233377258
30
1.1102230246251565e-15
10
4.5045423880736646
20
-14.309296815702366
30
1.1102230246251565e-15
10
4.5102088464429153
20
-14.262439198282141
30
1.1102230246251565e-15
10
4.5154989229741034
20
-14.215611319218942
30
1.1102230246251565e-15
10
4.5204082581753919
20
-14.168816350396396
30
1.1102230246251565e-15
10
4.5249355367342252
20
-14.122070290643487
30
1.1102230246251565e-15
10
4.5290818790072542
20
-14.075399650823819
30
1.1102230246251565e-15
10
4.5328479939166808
20
-14.028830573516318
30
1.1102230246251565e-15
10
4.5362317009751694
20
-13.982379318299794
30
1.1102230246251565e-15
10
4.5392257878487463
20
-13.936044072432045
30
1.1102230246251565e-15
10
4.5418145164432584
20
-13.889791420918357
30
1.1102230246251565e-15
10
4.5439765310029951
20
-13.843567958160639
30
1.1102230246251565e-15
10
4.5456911882301378
20
-13.797325334377899
30
1.1102230246251565e-15
10
4.5469441764402445
20
-13.751042470442229
30
1.1102230246251565e-15
10
4.547732692508494
20
-13.704746058655971
30
1.1102230246251565e-15
10
4.5480728143004594
20
-13.658539557925382
30
1.1102230246251565e-15
10
4.5479887074878906
20
-13.612561658565234
30
1.1102230246251565e-15
10
4.5474980070325728
20
-13.566929878949605
30
1.1102230246251565e-15
10
4.5465987613107348
20
-13.52169020640423
30
1.1102230246251565e-15
10
4.5452551585297627
20
-13.476761999457999
30
1.1102230246251565e-15
10
4.5433851427290968
20
-13.431890197709658
30
1.1102230246251565e-15
10
4.5408918250861259
20
-13.386769811826849
30
1.1102230246251565e-15
10
4.5376956550540761
20
-13.341172900141551
30
1.1102230246251565e-15
10
4.5337624751302172
20
-13.295060477218213
30
1.1102230246251565e-15
10
4.5291424650579941
20
-13.248734518121212
30
1.1102230246251565e-15
10
4.5239763198903553
20
-13.202869156937346
30
1.1102230246251565e-15
10
4.5184086489856954
20
-13.158198406259276
30
1.1102230246251565e-15
10
4.5125132041095384
20
-13.115249030647458
30
1.1102230246251565e-15
10
4.5062230022180767
20
-13.074088309535883
30
1.1102230246251565e-15
10
4.499234558737319
20
-13.03398413390517
30
1.1102230246251565e-15
10
4.4910168716202445
20
-12.993422681843052
30
1.1102230246251565e-15
10
4.4809200148672392
20
-12.950466898453927
30
1.1102230246251565e-15
10
4.4682584014687077
20
-12.90302769992355
30
1.1102230246251565e-15
10
4.452399073706613
20
-12.849153581543789
30
1.1102230246251565e-15
10
4.4328614495470298
20
-12.787355931490723
30
1.1102230246251565e-15
10
4.4093130980405402
20
-12.716600540040897
30
1.1102230246251565e-15
10
4.3815373039087433
20
-12.636208169057017
30
1.1102230246251565e-15
10
4.3494106240777031
20
-12.545787233382772
30
1.1102230246251565e-15
10
4.3201833686805058
20
-12.465280546004243
30
1.1102230246251565e-15
10
4.2962733223983092
20
-12.400282500091892
30
1.1102230246251565e-15
10
4.27944949366678
20
-12.354899100069028
30
1.1102230246251565e-15
10
4.2708166301112636
20
-12.331694558611124
30
1.1102230246251565e-15
0
ARC
5
137
100
AcDbEntity
8
0
100
AcDbCircle
10
-6.210090062310217e-05
20
-0.00088825386754807036
30
1.1102230246251565e-15
40
13.049490000000523
210
-0
220
0
230
1
100
AcDbArc
50
289.10395895971595
51
294.89604026812134
0
SPLINE
5
138
100
AcDbEntity
8
0
100
AcDbSpline
70
4
71
5
72
66
73
60
74
0
42
0.000000001
43
0.0000000001
44
0.0000000001
40
0
40
0
40
0
40
0
40
0
40
0
40
0.018181818181818181
40
0.036363636363636362
40
0.054545454545454543
40
0.072727272727272724
40
0.090909090909090912
40
0.1090909090909091
40
0.12727272727272729
40
0.14545454545454548
40
0.16363636363636366
40
0.18181818181818185
40
0.20000000000000004
40
0.21818181818181823
40
0.23636363636363641
40
0.25454545454545457
40
0.27272727272727276
40
0.29090909090909095
40
0.30909090909090914
40
0.32727272727272733
40
0.34545454545454551
40
0.3636363636363637
40
0.38181818181818189
40
0.40000000000000008
40
0.41818181818181827
40
0.43636363636363645
40
0.45454545454545464
40
0.47272727272727283
40
0.49090909090909102
40
0.50909090909090915
40
0.52727272727272734
40
0.54545454545454553
40
0.56363636363636371
40
0.5818181818181819
40
0.60000000000000009
40
0.61818181818181828
40
0.63636363636363646
40
0.65454545454545465
40
0.67272727272727284
40
0.69090909090909103
40
0.70909090909090922
40
0.7272727272727274
40
0.74545454545454559
40
0.76363636363636378
40
0.78181818181818197
40
0.80000000000000016
40
0.81818181818181834
40
0.83636363636363653
40
0.85454545454545472
40
0.87272727272727291
40
0.89090909090909109
40
0.90909090909090928
40
0.92727272727272747
40
0.94545454545454566
40
0.96363636363636385
40
0.98181818181818203
40
1
40
1
40
1
40
1
40
1
40
1
41
1
41
1
41
1
41
1
41
1
41
1
41
1
41
1
41
1
41
1
41
1
41
1
41
1
41
1
41
1
41
1
41
1
41
1
41
1
41
1
41
1
41
1
41
1
41
1
41
1
41
1
41
1
41
1
41
1
41
1
41
1
41
1
41
1
41
1
41
1
41
1
41
1
41
1
41
1
41
1
41
1
41
1
41
1
41
1
41
1
41
1
41
1
41
1
41
1
41
1
41
1
41
1
41
1
41
1
41
1
41
1
41
1
41
1
41
1
41
1
10
5.4934225000389088
20
-11.837729732883659
30
1.1102230246251565e-15
10
5.5033317663448535
20
-11.860418574171476
30
1.1102230246251565e-15
10
5.5227556748555013
20
-11.904751473805032
30
1.1102230246251565e-15
10
5.5507076627426954
20
-11.968116469348985
30
1.1102230246251565e-15
10
5.585607977894461
20
-12.046331091858441
30
1.1102230246251565e-15
10
5.6253096370926325
20
-12.133691537267373
30
1.1102230246251565e-15
10
5.6611746352710437
20
-12.210815657726302
30
1.1102230246251565e-15
10
5.6933861928162033
20
-12.278070886793603
30
1.1102230246251565e-15
10
5.7222602562529907
20
-12.336096370584752
30
1.1102230246251565e-15
10
5.7482761171975252
20
-12.385866983266332
30
1.1102230246251565e-15
10
5.7721221505108229
20
-12.428787382913733
30
1.1102230246251565e-15
10
5.7946986735699078
20
-12.466701053923025
30
1.1102230246251565e-15
10
5.8169637158833201
20
-12.501587006194741
30
1.1102230246251565e-15
10
5.8397953511841525
20
-12.535290116956809
30
1.1102230246251565e-15
10
5.8638631976085973
20
-12.569268203585636
30
1.1102230246251565e-15
10
5.8894575122720108
20
-12.604258719339821
30
1.1102230246251565e-15
10
5.9164833753830823
20
-12.640259797775517
30
1.1102230246251565e-15
10
5.9446279181168551
20
-12.676841283893975
30
1.1102230246251565e-15
10
5.9734852757574846
20
-12.713374719117292
30
1.1102230246251565e-15
10
6.0026883629780681
20
-12.749277436965507
30
1.1102230246251565e-15
10
6.0320635065626131
20
-12.784297356975136
30
1.1102230246251565e-15
10
6.0616132172182713
20
-12.81848625071663
30
1.1102230246251565e-15
10
6.0914386126552644
20
-12.852063346158239
30
1.1102230246251565e-15
10
6.1216818602759453
20
-12.885315338898781
30
1.1102230246251565e-15
10
6.1524611138014818
20
-12.918482704897718
30
1.1102230246251565e-15
10
6.1838066306559325
20
-12.951648329736706
30
1.1102230246251565e-15
10
6.2156850614782853
20
-12.984780488613355
30
1.1102230246251565e-15
10
6.2480274566775087
20
-13.017782395609242
30
1.1102230246251565e-15
10
6.2807548571966656
20
-13.050537498373853
30
1.1102230246251565e-15
10
6.3138069598902575
20
-13.082960206173563
30
1.1102230246251565e-15
10
6.3471632063280845
20
-13.11503326538679
30
1.1102230246251565e-15
10
6.3808279443382041
20
-13.146781780800623
30
1.1102230246251565e-15
10
6.4148199109542947
20
-13.178254872376765
30
1.1102230246251565e-15
10
6.4491608427763261
20
-13.209505791842188
30
1.1102230246251565e-15
10
6.4838626307720464
20
-13.240569508531506
30
1.1102230246251565e-15
10
6.5189213460590656
20
-13.271452336530414
30
1.1102230246251565e-15
10
6.5543241252736699
20
-13.302144094370352
30
1.1102230246251565e-15
10
6.5900533182107726
20
-13.332625484194789
30
1.1102230246251565e-15
10
6.6260913147944382
20
-13.362876657419028
30
1.1102230246251565e-15
10
6.6624260551476864
20
-13.39288701914141
30
1.1102230246251565e-15
10
6.6990521999390786
20
-13.4226573160573
30
1.1102230246251565e-15
10
6.7359682905867011
20
-13.452194603405056
30
1.1102230246251565e-15
10
6.7731749819160409
20
-13.481509126447186
30
1.1102230246251565e-15
10
6.8106729926255323
20
-13.510610713432726
30
1.1102230246251565e-15
10
6.8484607739350363
20
-13.539504667066684
30
1.1102230246251565e-15
10
6.8865344360812761
20
-13.568191725126994
30
1.1102230246251565e-15
10
6.9248887618967716
20
-13.596669979239227
30
1.1102230246251565e-15
10
6.9635178782987701
20
-13.624936197217872
30
1.1102230246251565e-15
10
7.0024160256111863
20
-13.652987310693216
30
1.1102230246251565e-15
10
7.041578376096397
20
-13.680822051774895
30
1.1102230246251565e-15
10
7.0810010462633812
20
-13.708440786903521
30
1.1102230246251565e-15
10
7.1206809094650625
20
-13.735844920442055
30
1.1102230246251565e-15
10
7.1606154733650236
20
-13.763036449604364
30
1.1102230246251565e-15
10
7.2008027303492375
20
-13.790017472213453
30
1.1102230246251565e-15
10
7.2412410058839258
20
-13.816789691009879
30
1.1102230246251565e-15
10
7.2819289670156397
20
-13.843354392057661
30
1.1102230246251565e-15
10
7.314678309364294
20
-13.864440856410226
30
1.1102230246251565e-15
10
7.3393519726533976
20
-13.880162959710763
30
1.1102230246251565e-15
10
7.3558506799502883
20
-13.890603164155559
30
1.1102230246251565e-15
10
7.3641124332075272
20
-13.895812966935953
30
1.1102230246251565e-15
0
ARC
5
139
100
AcDbEntity
8
0
100
AcDbCircle
10
-6.2318729013079784e-05
20
-0.00088786885534363315
30
1.1102230246251565e-15
40
15.725775442194575
210
-0
220
0
230
1
100
AcDbArc
50
297.92315334741522
51
301.07684588041326
0
SPLINE
5
140
100
AcDbEntity
8
0
100
AcDbSpline
70
4
71
5
72
66
73
60
74
0
42
0.000000001
43
0.0000000001
44
0.0000000001
40
-1
40
-1
40
-1
40
-1
40
-1
40
-1
40
-0.98181818181818203
40
-0.96363636363636385
40
-0.94545454545454566
40
-0.92727272727272747
40
-0.90909090909090928
40
-0.89090909090909109
40
-0.87272727272727291
40
-0.85454545454545472
40
-0.83636363636363653
40
-0.81818181818181834
40
-0.80000000000000016
40
-0.78181818181818197
40
-0.76363636363636378
40
-0.74545454545454559
40
-0.7272727272727274
40
-0.70909090909090922
40
-0.69090909090909103
40
-0.67272727272727284
40
-0.65454545454545465
40
-0.63636363636363646
40
-0.61818181818181828
40
-0.60000000000000009
40
-0.5818181818181819
40
-0.56363636363636371
40
-0.54545454545454553
40
-0.52727272727272734
40
-0.50909090909090915
40
-0.49090909090909102
40
-0.47272727272727283
40
-0.45454545454545464
40
-0.43636363636363645
40
-0.41818181818181827
40
-0.40000000000000008
40
-0.38181818181818189
40
-0.3636363636363637
40
-0.34545454545454551
40
-0.32727272727272733
40
-0.30909090909090914
40
-0.29090909090909095
40
-0.27272727272727276
40
-0.25454545454545457
40
-0.23636363636363641
40
-0.21818181818181823
40
-0.20000000000000004
40
-0.18181818181818185
40
-0.16363636363636366
40
-0.14545454545454548
40
-0.12727272727272729
40
-0.1090909090909091
40
-0.090909090909090912
40
-0.072727272727272724
40
-0.054545454545454543
40
-0.036363636363636362
40
-0.018181818181818181
40
0
40
0
40
0
40
0
40
0
40
0
41
1
41
1
41
1
41
1
41
1
41
1
41
1
41
1
41
1
41
1
41
1
41
1
41
1
41
1
41
1
41
1
41
1
41
1
41
1
41
1
41
1
41
1
41
1
41
1
41
1
41
1
41
1
41
1
41
1
41
1
41
1
41
1
41
1
41
1
41
1
41
1
41
1
41
1
41
1
41
1
41
1
41
1
41
1
41
1
41
1
41
1
41
1
41
1
41
1
41
1
41
1
41
1
41
1
41
1
41
1
41
1
41
1
41
1
41
1
41
1
10
8.1173825519948064
20
-13.469633245804516
30
1.1102230246251565e-15
10
8.1171719970333172
20
-13.459868294268322
30
1.1102230246251565e-15
10
8.1167204578790049
20
-13.440349039064392
30
1.1102230246251565e-15
10
8.1159518614677406
20
-13.411102099876469
30
1.1102230246251565e-15
10
8.114744392500052
20
-13.372170102472564
30
1.1102230246251565e-15
10
8.1129298492362096
20
-13.323611880145682
30
1.1102230246251565e-15
10
8.110808830952891
20
-13.275160800602205
30
1.1102230246251565e-15
10
8.1083795487566732
20
-13.226817344034211
30
1.1102230246251565e-15
10
8.1056396806656679
20
-13.178582068820955
30
1.1102230246251565e-15
10
8.1025863944969263
20
-13.130455615364765
30
1.1102230246251565e-15
10
8.0992166946558282
20
-13.082439091373717
30
1.1102230246251565e-15
10
8.0955277670258958
20
-13.034534453607021
30
1.1102230246251565e-15
10
8.0915172973602267
20
-12.986744842135353
30
1.1102230246251565e-15
10
8.0871838859841798
20
-12.939075048149341
30
1.1102230246251565e-15
10
8.0825271965513359
20
-12.891531588982259
30
1.1102230246251565e-15
10
8.0775469747241342
20
-12.844121163547191
30
1.1102230246251565e-15
10
8.0722421692588426
20
-12.796849226715015
30
1.1102230246251565e-15
10
8.0666101443801619
20
-12.749718732679812
30
1.1102230246251565e-15
10
8.0606455571020312
20
-12.702728277910147
30
1.1102230246251565e-15
10
8.0543403531279054
20
-12.655872184438612
30
1.1102230246251565e-15
10
8.0476860878139238
20
-12.609144614269869
30
1.1102230246251565e-15
10
8.0406759624152375
20
-12.562543183936192
30
1.1102230246251565e-15
10
8.0333065869299567
20
-12.516072085561321
30
1.1102230246251565e-15
10
8.0255808316652661
20
-12.469747113255295
30
1.1102230246251565e-15
10
8.0175066403189739
20
-12.423593584576265
30
1.1102230246251565e-15
10
8.0090914638546717
20
-12.377636567833852
30
1.1102230246251565e-15
10
8.0003374043720221
20
-12.331892332926827
30
1.1102230246251565e-15
10
7.99123702611924
20
-12.28636099557008
30
1.1102230246251565e-15
10
7.981766478827681
20
-12.241014352675778
30
1.1102230246251565e-15
10
7.9718913120354937
20
-12.195806345673766
30
1.1102230246251565e-15
10
7.9615790720039534
20
-12.150695615140465
30
1.1102230246251565e-15
10
7.9508104790277025
20
-12.105665504338337
30
1.1102230246251565e-15
10
7.9395897339722605
20
-12.060742521553621
30
1.1102230246251565e-15
10
7.9279591439985211
20
-12.016022439158059
30
1.1102230246251565e-15
10
7.9159779470478417
20
-11.971632967172454
30
1.1102230246251565e-15
10
7.9036935931786232
20
-11.927683055365447
30
1.1102230246251565e-15
10
7.8911160996628773
20
-11.884217629200123
30
1.1102230246251565e-15
10
7.8781900034166448
20
-11.841168063770798
30
1.1102230246251565e-15
10
7.8647700299788559
20
-11.798309227293924
30
1.1102230246251565e-15
10
7.8506836548856018
20
-11.755371599369136
30
1.1102230246251565e-15
10
7.8357950425642997
20
-11.712155594448879
30
1.1102230246251565e-15
10
7.8200611092276571
20
-11.668632396106325
30
1.1102230246251565e-15
10
7.8036084816837228
20
-11.625080702381759
30
1.1102230246251565e-15
10
7.7867475396586308
20
-11.582115262240965
30
1.1102230246251565e-15
10
7.7698079415049461
20
-11.54040764974819
30
1.1102230246251565e-15
10
7.7529972626584893
20
-11.500447592035437
30
1.1102230246251565e-15
10
7.7362682156662421
20
-11.462317412533128
30
1.1102230246251565e-15
10
7.7191381731826612
20
-11.425388495819096
30
1.1102230246251565e-15
10
7.7007024206742472
20
-11.388336035653984
30
1.1102230246251565e-15
10
7.6798318311336322
20
-11.349457193913139
30
1.1102230246251565e-15
10
7.6553234836836781
20
-11.306911513561904
30
1.1102230246251565e-15
10
7.6260609015323633
20
-11.258977807314656
30
1.1102230246251565e-15
10
7.5911945969913042
20
-11.204342570348992
30
1.1102230246251565e-15
10
7.5501357932490691
20
-11.142092872245041
30
1.1102230246251565e-15
10
7.5024993596566656
20
-11.071628709386497
30
1.1102230246251565e-15
10
7.4480647096662373
20
-10.992603788977558
30
1.1102230246251565e-15
10
7.3989966848982274
20
-10.92240487078543
30
1.1102230246251565e-15
10
7.3590786215149064
20
-10.865809954931718
30
1.1102230246251565e-15
10
7.331081962593089
20
-10.826327284055884
30
1.1102230246251565e-15
10
7.3167374794703157
20
-10.806147767678567
30
1.1102230246251565e-15
0
ARC
5
141
100
AcDbEntity
8
0
100
AcDbCircle
10
-6.210090062310217e-05
20
-0.00088825386754807036
30
1.1102230246251565e-15
40
13.049490000000759
210
-0
220
0
230
1
100
AcDbArc
50
304.10395895971527
51
309.89604026812054
0
SPLINE
5
142
100
AcDbEntity
8
0
100
AcDbSpline
70
4
71
5
72
66
73
60
74
0
42
0.000000001
43
0.0000000001
44
0.0000000001
40
0
40
0
40
0
40
0
40
0
40
0
40
0.018181818181818181
40
0.036363636363636362
40
0.054545454545454543
40
0.072727272727272724
40
0.090909090909090912
40
0.1090909090909091
40
0.12727272727272729
40
0.14545454545454548
40
0.16363636363636366
40
0.18181818181818185
40
0.20000000000000004
40
0.21818181818181823
40
0.23636363636363641
40
0.25454545454545457
40
0.27272727272727276
40
0.29090909090909095
40
0.30909090909090914
40
0.32727272727272733
40
0.34545454545454551
40
0.3636363636363637
40
0.38181818181818189
40
0.40000000000000008
40
0.41818181818181827
40
0.43636363636363645
40
0.45454545454545464
40
0.47272727272727283
40
0.49090909090909102
40
0.50909090909090915
40
0.52727272727272734
40
0.54545454545454553
40
0.56363636363636371
40
0.5818181818181819
40
0.60000000000000009
40
0.61818181818181828
40
0.63636363636363646
40
0.65454545454545465
40
0.67272727272727284
40
0.69090909090909103
40
0.70909090909090922
40
0.7272727272727274
40
0.74545454545454559
40
0.76363636363636378
40
0.78181818181818197
40
0.80000000000000016
40
0.81818181818181834
40
0.83636363636363653
40
0.85454545454545472
40
0.87272727272727291
40
0.89090909090909109
40
0.90909090909090928
40
0.92727272727272747
40
0.94545454545454566
40
0.96363636363636385
40
0.98181818181818203
40
1
40
1
40
1
40
1
40
1
40
1
41
1
41
1
41
1
41
1
41
1
41
1
41
1
41
1
41
1
41
1
41
1
41
1
41
1
41
1
41
1
41
1
41
1
41
1
41
1
41
1
41
1
41
1
41
1
41
1
41
1
41
1
41
1
41
1
41
1
41
1
41
1
41
1
41
1
41
1
41
1
41
1
41
1
41
1
41
1
41
1
41
1
41
1
41
1
41
1
41
1
41
1
41
1
41
1
41
1
41
1
41
1
41
1
41
1
41
1
41
1
41
1
41
1
41
1
41
1
41
1
10
8.3698365600970295
20
-10.012580701438623
30
1.1102230246251565e-15
10
8.385280480578265
20
-10.031931732361114
30
1.1102230246251565e-15
10
8.4155167342062054
20
-10.06972674761319
30
1.1102230246251565e-15
10
8.4589163488423722
20
-10.123698126472062
30
1.1102230246251565e-15
10
8.5128708985039889
20
-10.190214784101869
30
1.1102230246251565e-15
10
8.5738303035301975
20
-10.264322948995936
30
1.1102230246251565e-15
10
8.6284344227418099
20
-10.32953658419979
30
1.1102230246251565e-15
10
8.676955332244912
20
-10.386163182349497
30
1.1102230246251565e-15
10
8.7198636361349351
20
-10.43473833820514
30
1.1102230246251565e-15
10
8.7578746105629115
20
-10.476079658101693
30
1.1102230246251565e-15
10
8.7920167268469722
20
-10.5113657730263
30
1.1102230246251565e-15
10
8.82363675366447
20
-10.54214433288381
30
1.1102230246251565e-15
10
8.8541722819128346
20
-10.570078958165752
30
1.1102230246251565e-15
10
8.8849489550507457
20
-10.596724401228737
30
1.1102230246251565e-15
10
8.9169908854309838
20
-10.62331549560087
30
1.1102230246251565e-15
10
8.9507693068457286
20
-10.650489442361215
30
1.1102230246251565e-15
10
8.9861920507458812
20
-10.678269005713146
30
1.1102230246251565e-15
10
9.0228455767471392
20
-10.706319664244308
30
1.1102230246251565e-15
10
9.0601751925894458
20
-10.734139419101412
30
1.1102230246251565e-15
10
9.0976755158931333
20
-10.761260466356852
30
1.1102230246251565e-15
10
9.135113547988766
20
-10.787484264916493
30
1.1102230246251565e-15
10
9.1725051135016997
20
-10.812860172458599
30
1.1102230246251565e-15
10
9.2100046250131502
20
-10.837573775750471
30
1.1102230246251565e-15
10
9.2478236079698135
20
-10.861865205844035
30
1.1102230246251565e-15
10
9.2861384298605429
20
-10.88593616424588
30
1.1102230246251565e-15
10
9.3249997694797067
20
-10.909858881082359
30
1.1102230246251565e-15
10
9.3643672028352096
20
-10.933611343997248
30
1.1102230246251565e-15
10
9.4041490796973513
20
-10.957117910439591
30
1.1102230246251565e-15
10
9.4442389655058339
20
-10.980286435591653
30
1.1102230246251565e-15
10
9.4845564593830929
20
-11.00304985275587
30
1.1102230246251565e-15
10
9.5250772378445561
20
-11.025396817126826
30
1.1102230246251565e-15
10
9.5658119981666427
20
-11.047350452765979
30
1.1102230246251565e-15
10
9.6067915521156486
20
-11.068953356411761
30
1.1102230246251565e-15
10
9.6480506781959363
20
-11.090251339436509
30
1.1102230246251565e-15
10
9.6896099129302247
20
-11.111275102014776
30
1.1102230246251565e-15
10
9.731467095515189
20
-11.132031759954643
30
1.1102230246251565e-15
10
9.7736071657376584
20
-11.15251480799618
30
1.1102230246251565e-15
10
9.8160080801558856
20
-11.172710174050597
30
1.1102230246251565e-15
10
9.8586476915509458
20
-11.192603243680262
30
1.1102230246251565e-15
10
9.9015116088138164
20
-11.212186904321889
30
1.1102230246251565e-15
10
9.9445948678053746
20
-11.231463259148487
30
1.1102230246251565e-15
10
9.9878978856737923
20
-11.250439500505859
30
1.1102230246251565e-15
10
10.031423946600974
20
-11.269125355076353
30
1.1102230246251565e-15
10
10.075176288534347
20
-11.287530130206715
30
1.1102230246251565e-15
10
10.119154787908236
20
-11.305659348770442
30
1.1102230246251565e-15
10
10.163355878450723
20
-11.323514730151015
30
1.1102230246251565e-15
10
10.207774026841307
20
-11.341095781302478
30
1.1102230246251565e-15
10
10.252402723566503
20
-11.358400900239038
30
1.1102230246251565e-15
10
10.297235611053953
20
-11.375428613857085
30
1.1102230246251565e-15
10
10.342267697913098
20
-11.392178946979081
30
1.1102230246251565e-15
10
10.387495327821529
20
-11.408653258681102
30
1.1102230246251565e-15
10
10.43291584414602
20
-11.424853714709524
30
1.1102230246251565e-15
10
10.478527356391469
20
-11.440782889288956
30
1.1102230246251565e-15
10
10.524328468308104
20
-11.456443328369501
30
1.1102230246251565e-15
10
10.570318003122116
20
-11.471837110073245
30
1.1102230246251565e-15
10
10.616495006157059
20
-11.486965821636058
30
1.1102230246251565e-15
10
10.653586020293822
20
-11.498857628624695
30
1.1102230246251565e-15
10
10.681488128656939
20
-11.507658000274041
30
1.1102230246251565e-15
10
10.700126779880241
20
-11.513472283710449
30
1.1102230246251565e-15
10
10.709455416902493
20
-11.516366267676661
30
1.1102230246251565e-15
0
ARC
5
143
100
AcDbEntity
8
0
100
AcDbCircle
10
-6.8764208873896065e-05
20
-0.00088147323468931531
30
1.1102230246251565e-15
40
15.725784503064812
210
-0
220
0
230
1
100
AcDbArc
50
312.92315425619063
51
316.07684497163791
0
SPLINE
5
144
100
AcDbEntity
8
0
100
AcDbSpline
70
4
71
5
72
66
73
60
74
0
42
0.000000001
43
0.0000000001
44
0.0000000001
40
-1
40
-1
40
-1
40
-1
40
-1
40
-1
40
-0.98181818181818203
40
-0.96363636363636385
40
-0.94545454545454566
40
-0.92727272727272747
40
-0.90909090909090928
40
-0.89090909090909109
40
-0.87272727272727291
40
-0.85454545454545472
40
-0.83636363636363653
40
-0.81818181818181834
40
-0.80000000000000016
40
-0.78181818181818197
40
-0.76363636363636378
40
-0.74545454545454559
40
-0.7272727272727274
40
-0.70909090909090922
40
-0.69090909090909103
40
-0.67272727272727284
40
-0.65454545454545465
40
-0.63636363636363646
40
-0.61818181818181828
40
-0.60000000000000009
40
-0.5818181818181819
40
-0.56363636363636371
40
-0.54545454545454553
40
-0.52727272727272734
40
-0.50909090909090915
40
-0.49090909090909102
40
-0.47272727272727283
40
-0.45454545454545464
40
-0.43636363636363645
40
-0.41818181818181827
40
-0.40000000000000008
40
-0.38181818181818189
40
-0.3636363636363637
40
-0.34545454545454551
40
-0.32727272727272733
40
-0.30909090909090914
40
-0.29090909090909095
40
-0.27272727272727276
40
-0.25454545454545457
40
-0.23636363636363641
40
-0.21818181818181823
40
-0.20000000000000004
40
-0.18181818181818185
40
-0.16363636363636366
40
-0.14545454545454548
40
-0.12727272727272729
40
-0.1090909090909091
40
-0.090909090909090912
40
-0.072727272727272724
40
-0.054545454545454543
40
-0.036363636363636362
40
-0.018181818181818181
40
0
40
0
40
0
40
0
40
0
40
0
41
1
41
1
41
1
41
1
41
1
41
1
41
1
41
1
41
1
41
1
41
1
41
1
41
1
41
1
41
1
41
1
41
1
41
1
41
1
41
1
41
1
41
1
41
1
41
1
41
1
41
1
41
1
41
1
41
1
41
1
41
1
41
1
41
1
41
1
41
1
41
1
41
1
41
1
41
1
41
1
41
1
41
1
41
1
41
1
41
1
41
1
41
1
41
1
41
1
41
1
41
1
41
1
41
1
41
1
41
1
41
1
41
1
41
1
41
1
41
1
10
11.326755050345657
20
-10.909747615546351
30
1.1102230246251565e-15
10
11.324024314437883
20
-10.9003698922988
30
1.1102230246251565e-15
10
11.318536206113208
20
-10.881632606519535
30
1.1102230246251565e-15
10
11.310224134115829
20
-10.853581160006646
30
1.1102230246251565e-15
10
11.298981466263127
20
-10.816288254210203
30
1.1102230246251565e-15
10
11.28466095932782
20
-10.769854251541243
30
1.1102230246251565e-15
10
11.270072150849497
20
-10.723603062426101
30
1.1102230246251565e-15
10
11.255213437172067
20
-10.677535613694005
30
1.1102230246251565e-15
10
11.240082719952035
20
-10.631653045670822
30
1.1102230246251565e-15
10
11.224677429259067
20
-10.585956709960513
30
1.1102230246251565e-15
10
11.208994958266958
20
-10.540448451843922
30
1.1102230246251565e-15
10
11.193033095194689
20
-10.495130889752396
30
1.1102230246251565e-15
10
11.176790417361733
20
-10.450007655732589
30
1.1102230246251565e-15
10
11.160266812837719
20
-10.40508373998186
30
1.1102230246251565e-15
10
11.143463643546987
20
-10.360365524813592
30
1.1102230246251565e-15
10
11.126382397624548
20
-10.31585954670831
30
1.1102230246251565e-15
10
11.109023471471316
20
-10.27157134674848
30
1.1102230246251565e-15
10
11.091385083725472
20
-10.227504460655281
30
1.1102230246251565e-15
10
11.073461710198075
20
-10.183658915587996
30
1.1102230246251565e-15
10
11.055244101469929
20
-10.140031311656596
30
1.1102230246251565e-15
10
11.036722589657082
20
-10.096618195425284
30
1.1102230246251565e-15
10
11.017889990789493
20
-10.05341902428567
30
1.1102230246251565e-15
10
10.998744115378297
20
-10.010438724915417
30
1.1102230246251565e-15
10
10.979291823743845
20
-9.9676918103631564
30
1.1102230246251565e-15
10
10.959547341575266
20
-9.9252006795319296
30
1.1102230246251565e-15
10
10.939524354106652
20
-9.8829876180981255
30
1.1102230246251565e-15
10
10.919229102769934
20
-9.8410677975136931
30
1.1102230246251565e-15
10
10.898654435129629
20
-9.7994432540648191
30
1.1102230246251565e-15
10
10.877770014099003
20
-9.7580929185642482
30
1.1102230246251565e-15
10
10.856530642252189
20
-9.716981218285289
30
1.1102230246251565e-15
10
10.834894267078351
20
-9.6760766027382346
30
1.1102230246251565e-15
10
10.812837954731261
20
-9.6353679727050761
30
1.1102230246251565e-15
10
10.790372623784696
20
-9.594879845960044
30
1.1102230246251565e-15
10
10.767563927531775
20
-9.5546937816114301
30
1.1102230246251565e-15
10
10.744502139215442
20
-9.5149178061591879
30
1.1102230246251565e-15
10
10.721261290347581
20
-9.475644876019782
30
1.1102230246251565e-15
10
10.69786268443532
20
-9.4369157931974659
30
1.1102230246251565e-15
10
10.674234986820892
20
-9.3986786260259265
30
1.1102230246251565e-15
10
10.650179604757454
20
-9.3607535136984801
30
1.1102230246251565e-15
10
10.625460135397351
20
-9.3229247721168313
30
1.1102230246251565e-15
10
10.599893715112422
20
-9.2850347732793512
30
1.1102230246251565e-15
10
10.573431269919872
20
-9.2470668335598916
30
1.1102230246251565e-15
10
10.546267244284202
20
-9.2092573811636509
30
1.1102230246251565e-15
10
10.518860550738328
20
-9.1721198858087245
30
1.1102230246251565e-15
10
10.491703430956012
20
-9.1362177163677227
30
1.1102230246251565e-15
10
10.465123138119665
20
-9.1019701884489805
30
1.1102230246251565e-15
10
10.43909530292877
20
-9.0694690592734144
30
1.1102230246251565e-15
10
10.412991045523643
20
-9.0382320461190897
30
1.1102230246251565e-15
10
10.385593593687087
20
-9.0072136417769499
30
1.1102230246251565e-15
10
10.355371567546339
20
-8.9750612704990544
30
1.1102230246251565e-15
10
10.32068668942831
20
-8.9403085261367021
30
1.1102230246251565e-15
10
10.280015049515747
20
-8.9015818348961844
30
1.1102230246251565e-15
10
10.232196145645654
20
-8.8578323121383846
30
1.1102230246251565e-15
10
10.17642497930707
20
-8.8083305214440735
30
1.1102230246251565e-15
10
10.112174250492254
20
-8.7525965829694492
30
1.1102230246251565e-15
10
10.03914126178239
20
-8.6903530955574002
30
1.1102230246251565e-15
10
9.9735763724303119
20
-8.6352458868098161
30
1.1102230246251565e-15
10
9.9203706419794635
20
-8.5909109509916064
30
1.1102230246251565e-15
10
9.8831090788899267
20
-8.560019688024866
30
1.1102230246251565e-15
10
9.8640305290101775
20
-8.5442403974154395
30
1.1102230246251565e-15
0
ARC
5
145
100
AcDbEntity
8
0
100
AcDbCircle
10
-6.210090062310217e-05
20
-0.00088825386754807036
30
1.1102230246251565e-15
40
13.049490000000956
210
-0
220
0
230
1
100
AcDbArc
50
319.10395895971425
51
324.89604026811941
0
SPLINE
5
146
100
AcDbEntity
8
0
100
AcDbSpline
70
4
71
5
72
66
73
60
74
0
42
0.000000001
43
0.0000000001
44
0.0000000001
40
0
40
0
40
0
40
0
40
0
40
0
40
0.018181818181818181
40
0.036363636363636362
40
0.054545454545454543
40
0.072727272727272724
40
0.090909090909090912
40
0.1090909090909091
40
0.12727272727272729
40
0.14545454545454548
40
0.16363636363636366
40
0.18181818181818185
40
0.20000000000000004
40
0.21818181818181823
40
0.23636363636363641
40
0.25454545454545457
40
0.27272727272727276
40
0.29090909090909095
40
0.30909090909090914
40
0.32727272727272733
40
0.34545454545454551
40
0.3636363636363637
40
0.38181818181818189
40
0.40000000000000008
40
0.41818181818181827
40
0.43636363636363645
40
0.45454545454545464
40
0.47272727272727283
40
0.49090909090909102
40
0.50909090909090915
40
0.52727272727272734
40
0.54545454545454553
40
0.56363636363636371
40
0.5818181818181819
40
0.60000000000000009
40
0.61818181818181828
40
0.63636363636363646
40
0.65454545454545465
40
0.67272727272727284
40
0.69090909090909103
40
0.70909090909090922
40
0.7272727272727274
40
0.74545454545454559
40
0.76363636363636378
40
0.78181818181818197
40
0.80000000000000016
40
0.81818181818181834
40
0.83636363636363653
40
0.85454545454545472
40
0.87272727272727291
40
0.89090909090909109
40
0.90909090909090928
40
0.92727272727272747
40
0.94545454545454566
40
0.96363636363636385
40
0.98181818181818203
40
1
40
1
40
1
40
1
40
1
40
1
41
1
41
1
41
1
41
1
41
1
41
1
41
1
41
1
41
1
41
1
41
1
41
1
41
1
41
1
41
1
41
1
41
1
41
1
41
1
41
1
41
1
41
1
41
1
41
1
41
1
41
1
41
1
41
1
41
1
41
1
41
1
41
1
41
1
41
1
41
1
41
1
41
1
41
1
41
1
41
1
41
1
41
1
41
1
41
1
41
1
41
1
41
1
41
1
41
1
41
1
41
1
41
1
41
1
41
1
41
1
41
1
41
1
41
1
41
1
41
1
10
10.675855858319762
20
-7.5051513747956804
30
1.1102230246251565e-15
10
10.695781955316564
20
-7.5198458545773654
30
1.1102230246251565e-15
10
10.734770003342703
20
-7.5485273176227423
30
1.1102230246251565e-15
10
10.790659632709446
20
-7.5894270195248428
30
1.1102230246251565e-15
10
10.859991503484467
20
-7.6397127119853785
30
1.1102230246251565e-15
10
10.938054371627054
20
-7.6955182473964578
30
1.1102230246251565e-15
10
11.007676431386898
20
-7.744377195873076
30
1.1102230246251565e-15
10
11.069200073051825
20
-7.7865161540158558
30
1.1102230246251565e-15
10
11.123218487395841
20
-7.8223306653333013
30
1.1102230246251565e-15
10
11.170634190217188
20
-7.8524253498096108
30
1.1102230246251565e-15
10
11.212745660670311
20
-7.877672489590422
30
1.1102230246251565e-15
10
11.251254338673251
20
-7.8992184303057957
30
1.1102230246251565e-15
10
11.287979407068466
20
-7.9182980300503312
30
1.1102230246251565e-15
10
11.324603738629495
20
-7.9360699625046696
30
1.1102230246251565e-15
10
11.362436148361558
20
-7.9534619254836159
30
1.1102230246251565e-15
10
11.402096732929534
20
-7.9709674436859403
30
1.1102230246251565e-15
10
11.443502356160861
20
-7.9886323606194694
30
1.1102230246251565e-15
10
11.486166988205566
20
-8.0062405855399081
30
1.1102230246251565e-15
10
11.529424910620156
20
-8.0234507897111325
30
1.1102230246251565e-15
10
11.572666884946177
20
-8.0399419118226696
30
1.1102230246251565e-15
10
11.61561646553492
20
-8.0555824803973088
30
1.1102230246251565e-15
10
11.658301712507939
20
-8.0704160755768122
30
1.1102230246251565e-15
10
11.700919810355154
20
-8.084581995495892
30
1.1102230246251565e-15
10
11.743737227457965
20
-8.0982574421251634
30
1.1102230246251565e-15
10
11.78697652592011
20
-8.1115915968939962
30
1.1102230246251565e-15
10
11.830705352230275
20
-8.1246411121096749
30
1.1102230246251565e-15
10
11.874878962593518
20
-8.1373951879679236
30
1.1102230246251565e-15
10
11.919389251953213
20
-8.1498044802001353
30
1.1102230246251565e-15
10
11.964109563584959
20
-8.1618075310383666
30
1.1102230246251565e-15
10
12.008944878065996
20
-8.1733603683056621
30
1.1102230246251565e-15
10
12.053868764462676
20
-8.1844583291424975
30
1.1102230246251565e-15
10
12.098897540498077
20
-8.1951209810182295
30
1.1102230246251565e-15
10
12.144071992900241
20
-8.2053814945507071
30
1.1102230246251565e-15
10
12.189437571980463
20
-8.2152751187883464
30
1.1102230246251565e-15
10
12.235022060286214
20
-8.2248261925793873
30
1.1102230246251565e-15
10
12.280825212348327
20
-8.2340421485236526
30
1.1102230246251565e-15
10
12.326830797432715
20
-8.2429206008925444
30
1.1102230246251565e-15
10
12.373013881085118
20
-8.2514536623546082
30
1.1102230246251565e-15
10
12.419349288240095
20
-8.2596329485692515
30
1.1102230246251565e-15
10
12.465821277287041
20
-8.2674553140209568
30
1.1102230246251565e-15
10
12.512425597577002
20
-8.2749240750326152
30
1.1102230246251565e-15
10
12.559164513560185
20
-8.2820460709108605
30
1.1102230246251565e-15
10
12.606043714963279
20
-8.2888298469005104
30
1.1102230246251565e-15
10
12.653068738321927
20
-8.2952835551656765
30
1.1102230246251565e-15
10
12.700240893705637
20
-8.3014125623737307
30
1.1102230246251565e-15
10
12.747557181369555
20
-8.3072194523407141
30
1.1102230246251565e-15
10
12.795012128926874
20
-8.3127051809495871
30
1.1102230246251565e-15
10
12.842599034046005
20
-8.3178698855869566
30
1.1102230246251565e-15
10
12.890311374516335
20
-8.3227137888047693
30
1.1102230246251565e-15
10
12.938144335449216
20
-8.3272382064465447
30
1.1102230246251565e-15
10
12.986094736863141
20
-8.3314453976047762
30
1.1102230246251565e-15
10
13.034160573183787
20
-8.3353381418170471
30
1.1102230246251565e-15
10
13.082340684591438
20
-8.338919414889526
30
1.1102230246251565e-15
10
13.130634381352779
20
-8.3421920373972007
30
1.1102230246251565e-15
10
13.179041064649301
20
-8.3451583212234794
30
1.1102230246251565e-15
10
13.227560223141451
20
-8.3478200466090833
30
1.1102230246251565e-15
10
13.26646521774887
20
-8.3497067892400025
30
1.1102230246251565e-15
10
13.295694288611898
20
-8.3509856984544424
30
1.1102230246251565e-15
10
13.315202690482986
20
-8.3517778270756988
30
1.1102230246251565e-15
10
13.324962480073747
20
-8.3521587720034915
30
1.1102230246251565e-15
0
ARC
5
147
100
AcDbEntity
8
0
100
AcDbCircle
10
-6.0933041102016939e-05
20
-0.00088894178887088775
30
1.1102230246251565e-15
40
15.725773645106042
210
-0
220
0
230
1
100
AcDbArc
50
327.92315316717293
51
331.07684606065561
0
SPLINE
5
148
100
AcDbEntity
8
0
100
AcDbSpline
70
4
71
5
72
66
73
60
74
0
42
0.000000001
43
0.0000000001
44
0.0000000001
40
-1
40
-1
40
-1
40
-1
40
-1
40
-1
40
-0.98181818181818203
40
-0.96363636363636385
40
-0.94545454545454566
40
-0.92727272727272747
40
-0.90909090909090928
40
-0.89090909090909109
40
-0.87272727272727291
40
-0.85454545454545472
40
-0.83636363636363653
40
-0.81818181818181834
40
-0.80000000000000016
40
-0.78181818181818197
40
-0.76363636363636378
40
-0.74545454545454559
40
-0.7272727272727274
40
-0.70909090909090922
40
-0.69090909090909103
40
-0.67272727272727284
40
-0.65454545454545465
40
-0.63636363636363646
40
-0.61818181818181828
40
-0.60000000000000009
40
-0.5818181818181819
40
-0.56363636363636371
40
-0.54545454545454553
40
-0.52727272727272734
40
-0.50909090909090915
40
-0.49090909090909102
40
-0.47272727272727283
40
-0.45454545454545464
40
-0.43636363636363645
40
-0.41818181818181827
40
-0.40000000000000008
40
-0.38181818181818189
40
-0.3636363636363637
40
-0.34545454545454551
40
-0.32727272727272733
40
-0.30909090909090914
40
-0.29090909090909095
40
-0.27272727272727276
40
-0.25454545454545457
40
-0.23636363636363641
40
-0.21818181818181823
40
-0.20000000000000004
40
-0.18181818181818185
40
-0.16363636363636366
40
-0.14545454545454548
40
-0.12727272727272729
40
-0.1090909090909091
40
-0.090909090909090912
40
-0.072727272727272724
40
-0.054545454545454543
40
-0.036363636363636362
40
-0.018181818181818181
40
0
40
0
40
0
40
0
40
0
40
0
41
1
41
1
41
1
41
1
41
1
41
1
41
1
41
1
41
1
41
1
41
1
41
1
41
1
41
1
41
1
41
1
41
1
41
1
41
1
41
1
41
1
41
1
41
1
41
1
41
1
41
1
41
1
41
1
41
1
41
1
41
1
41
1
41
1
41
1
41
1
41
1
41
1
41
1
41
1
41
1
41
1
41
1
41
1
41
1
41
1
41
1
41
1
41
1
41
1
41
1
41
1
41
1
41
1
41
1
41
1
41
1
41
1
41
1
41
1
41
1
10
13.764223678289532
20
-7.6064412475322571
30
1.1102230246251565e-15
10
13.75915885657561
20
-7.5980898289166179
30
1.1102230246251565e-15
10
13.749008184594711
20
-7.5814114276253939
30
1.1102230246251565e-15
10
13.73371909098285
20
-7.5564671335125215
30
1.1102230246251565e-15
10
13.713207393480429
20
-7.5233547692249605
30
1.1102230246251565e-15
10
13.687356841754589
20
-7.4822093867583828
30
1.1102230246251565e-15
10
13.661294446268188
20
-7.441310030173133
30
1.1102230246251565e-15
10
13.635018897889902
20
-7.4006580097751833
30
1.1102230246251565e-15
10
13.608528464913782
20
-7.3602549701265838
30
1.1102230246251565e-15
10
13.581821014798646
20
-7.320102881923618
30
1.1102230246251565e-15
10
13.554894507137483
20
-7.2802042022668081
30
1.1102230246251565e-15
10
13.52774748321365
20
-7.2405620328173361
30
1.1102230246251565e-15
10
13.500379508865985
20
-7.2011802500792745
30
1.1102230246251565e-15
10
13.472791767536126
20
-7.1620637031826098
30
1.1102230246251565e-15
10
13.444987226606173
20
-7.123218204476645
30
1.1102230246251565e-15
10
13.416969015269888
20
-7.0846496825591254
30
1.1102230246251565e-15
10
13.388738950558821
20
-7.0463633871087321
30
1.1102230246251565e-15
10
13.360296226921626
20
-7.0083631944203759
30
1.1102230246251565e-15
10
13.331635515430902
20
-6.9706505604933273
30
1.1102230246251565e-15
10
13.30274700187751
20
-6.9332245952119091
30
1.1102230246251565e-15
10
13.273620453987691
20
-6.896084465045754
30
1.1102230246251565e-15
10
13.244248792141846
20
-6.8592315052236099
30
1.1102230246251565e-15
10
13.214631176574049
20
-6.82267104123199
30
1.1102230246251565e-15
10
13.184777990098288
20
-6.7864153160177558
30
1.1102230246251565e-15
10
13.154708770937795
20
-6.7504822833805562
30
1.1102230246251565e-15
10
13.124442505971192
20
-6.7148899276315763
30
1.1102230246251565e-15
10
13.093989150619594
20
-6.6796512878666769
30
1.1102230246251565e-15
10
13.06334232319043
20
-6.6447701821738283
30
1.1102230246251565e-15
10
13.032467267201191
20
-6.610234111096787
30
1.1102230246251565e-15
10
13.001311118391563
20
-6.5760204119746657
30
1.1102230246251565e-15
10
12.969825091287595
20
-6.5421094933653201
30
1.1102230246251565e-15
10
12.937984160805918
20
-6.5084965699636008
30
1.1102230246251565e-15
10
12.905805219146007
20
-6.4752024981860341
30
1.1102230246251565e-15
10
12.873372791569913
20
-6.4422890657590361
30
1.1102230246251565e-15
10
12.840802034650116
20
-6.4098372538342812
30
1.1102230246251565e-15
10
12.80818851622689
20
-6.3779176906499178
30
1.1102230246251565e-15
10
12.775563374243726
20
-6.3465642741622563
30
1.1102230246251565e-15
10
12.742844263808045
20
-6.3157453050016148
30
1.1102230246251565e-15
10
12.709792807654273
20
-6.2853384505548373
30
1.1102230246251565e-15
10
12.67612483501377
20
-6.2551965615403473
30
1.1102230246251565e-15
10
12.641622916056308
20
-6.2252147095900314
30
1.1102230246251565e-15
10
12.606235330914274
20
-6.1953894808398626
30
1.1102230246251565e-15
10
12.570211090640367
20
-6.1658989214686848
30
1.1102230246251565e-15
10
12.534126366444887
20
-6.1371202298346592
30
1.1102230246251565e-15
10
12.498602437867579
20
-6.1094701769615645
30
1.1102230246251565e-15
10
12.464063934074883
20
-6.0832690912687069
30
1.1102230246251565e-15
10
12.430511064646424
20
-6.0586119106646343
30
1.1102230246251565e-15
10
12.397211554329635
20
-6.0351955518974396
30
1.1102230246251565e-15
10
12.362719494236201
20
-6.0123250563757082
30
1.1102230246251565e-15
10
12.325205612631828
20
-5.9890902865288087
30
1.1102230246251565e-15
10
12.282707920961116
20
-5.9644988202487914
30
1.1102230246251565e-15
10
12.233398928316577
20
-5.9376183040176382
30
1.1102230246251565e-15
10
12.175886204368251
20
-5.9077359531352069
30
1.1102230246251565e-15
10
12.109203388229634
20
-5.8743555350715573
30
1.1102230246251565e-15
10
12.032716945165841
20
-5.8371499967767146
30
1.1102230246251565e-15
10
11.946062695223771
20
-5.7959297331659059
30
1.1102230246251565e-15
10
11.868469080162834
20
-5.7596696990765475
30
1.1102230246251565e-15
10
11.805601565272742
20
-5.7306160959125885
30
1.1102230246251565e-15
10
11.761614411984375
20
-5.7104214293846027
30
1.1102230246251565e-15
10
11.739101967005514
20
-5.7001176971264886
30
1.1102230246251565e-15
0
ARC
5
149
100
AcDbEntity
8
0
100
AcDbCircle
10
-6.210090062310217e-05
20
-0.00088825386754807036
30
1.1102230246251565e-15
40
13.049490000001079
210
-0
220
0
230
1
100
AcDbArc
50
334.10395895971311
51
339.8960402681181
0
SPLINE
5
150
100
AcDbEntity
8
0
100
AcDbSpline
70
4
71
5
72
66
73
60
74
0
42
0.000000001
43
0.0000000001
44
0.0000000001
40
0
40
0
40
0
40
0
40
0
40
0
40
0.018181818181818181
40
0.036363636363636362
40
0.054545454545454543
40
0.072727272727272724
40
0.090909090909090912
40
0.1090909090909091
40
0.12727272727272729
40
0.14545454545454548
40
0.16363636363636366
40
0.18181818181818185
40
0.20000000000000004
40
0.21818181818181823
40
0.23636363636363641
40
0.25454545454545457
40
0.27272727272727276
40
0.29090909090909095
40
0.30909090909090914
40
0.32727272727272733
40
0.34545454545454551
40
0.3636363636363637
40
0.38181818181818189
40
0.40000000000000008
40
0.41818181818181827
40
0.43636363636363645
40
0.45454545454545464
40
0.47272727272727283
40
0.49090909090909102
40
0.50909090909090915
40
0.52727272727272734
40
0.54545454545454553
40
0.56363636363636371
40
0.5818181818181819
40
0.60000000000000009
40
0.61818181818181828
40
0.63636363636363646
40
0.65454545454545465
40
0.67272727272727284
40
0.69090909090909103
40
0.70909090909090922
40
0.7272727272727274
40
0.74545454545454559
40
0.76363636363636378
40
0.78181818181818197
40
0.80000000000000016
40
0.81818181818181834
40
0.83636363636363653
40
0.85454545454545472
40
0.87272727272727291
40
0.89090909090909109
40
0.90909090909090928
40
0.92727272727272747
40
0.94545454545454566
40
0.96363636363636385
40
0.98181818181818203
40
1
40
1
40
1
40
1
40
1
40
1
41
1
41
1
41
1
41
1
41
1
41
1
41
1
41
1
41
1
41
1
41
1
41
1
41
1
41
1
41
1
41
1
41
1
41
1
41
1
41
1
41
1
41
1
41
1
41
1
41
1
41
1
41
1
41
1
41
1
41
1
41
1
41
1
41
1
41
1
41
1
41
1
41
1
41
1
41
1
41
1
41
1
41
1
41
1
41
1
41
1
41
1
41
1
41
1
41
1
41
1
41
1
41
1
41
1
41
1
41
1
41
1
41
1
41
1
41
1
41
1
10
12.254328990410313
20
-4.4863189178426524
30
1.1102230246251565e-15
10
12.277379333341056
20
-4.4953554419712543
30
1.1102230246251565e-15
10
12.322462204721887
20
-4.5129687585036296
30
1.1102230246251565e-15
10
12.387033062938126
20
-4.5380095363563626
30
1.1102230246251565e-15
10
12.467017402407929
20
-4.5686373768088409
30
1.1102230246251565e-15
10
12.556863878207206
20
-4.6023372277215131
30
1.1102230246251565e-15
10
12.636759250199249
20
-4.6315118328740832
30
1.1102230246251565e-15
10
12.707092889520958
20
-4.6562914506484718
30
1.1102230246251565e-15
10
12.768540148653365
20
-4.6769046176657989
30
1.1102230246251565e-15
10
12.822129278080869
20
-4.6937017637072094
30
1.1102230246251565e-15
10
12.869340275585202
20
-4.7071893774903062
30
1.1102230246251565e-15
10
12.912113302006421
20
-4.7180343788100751
30
1.1102230246251565e-15
10
12.952525157827889
20
-4.7269587098255474
30
1.1102230246251565e-15
10
12.9925012601399
20
-4.7346460038445697
30
1.1102230246251565e-15
10
13.033545933020763
20
-4.7416536018953623
30
1.1102230246251565e-15
10
13.076385877445475
20
-4.7482977194036238
30
1.1102230246251565e-15
10
13.120952655210766
20
-4.7546441550223335
30
1.1102230246251565e-15
10
13.166720869132003
20
-4.7606099749024917
30
1.1102230246251565e-15
10
13.212959142193878
20
-4.7660377814145605
30
1.1102230246251565e-15
10
13.258995898453037
20
-4.7707751356630883
30
1.1102230246251565e-15
10
13.3045300845955
20
-4.7747665953516236
30
1.1102230246251565e-15
10
13.349600083988001
20
-4.7780469931707206
30
1.1102230246251565e-15
10
13.394432415232211
20
-4.7806998456848424
30
1.1102230246251565e-15
10
13.43933033026455
20
-4.7828273497618268
30
1.1102230246251565e-15
10
13.484547418564134
20
-4.7845160002859197
30
1.1102230246251565e-15
10
13.530163684317609
20
-4.7858030109842611
30
1.1102230246251565e-15
10
13.576133113142728
20
-4.7866895305932404
30
1.1102230246251565e-15
10
13.622338512336857
20
-4.7871558758569721
30
1.1102230246251565e-15
10
13.668641634457998
20
-4.7871754643026492
30
1.1102230246251565e-15
10
13.714939316954808
20
-4.7867304149051755
30
1.1102230246251565e-15
10
13.761204822669066
20
-4.7858230645171425
30
1.1102230246251565e-15
10
13.807458977744602
20
-4.7844680905250323
30
1.1102230246251565e-15
10
13.853749764323002
20
-4.7826869769032871
30
1.1102230246251565e-15
10
13.900130207158819
20
-4.780502008211954
30
1.1102230246251565e-15
10
13.946633441489681
20
-4.777929503320733
30
1.1102230246251565e-15
10
13.99326115390906
20
-4.7749767051018353
30
1.1102230246251565e-15
10
14.039997049259759
20
-4.7716455099415036
30
1.1102230246251565e-15
10
14.086815001316822
20
-4.767934752774222
30
1.1102230246251565e-15
10
14.133688522807279
20
-4.7638428507352666
30
1.1102230246251565e-15
10
14.180601594383479
20
-4.7593708397185992
30
1.1102230246251565e-15
10
14.227550968561321
20
-4.7545230231950404
30
1.1102230246251565e-15
10
14.274540602774593
20
-4.7493054213446619
30
1.1102230246251565e-15
10
14.3215782045494
20
-4.7437248156304985
30
1.1102230246251565e-15
10
14.368671231703898
20
-4.7377876474775729
30
1.1102230246251565e-15
10
14.415822338663766
20
-4.731498761617507
30
1.1102230246251565e-15
10
14.463029296638766
20
-4.7248614302160554
30
1.1102230246251565e-15
10
14.510287067109847
20
-4.7178779929431975
30
1.1102230246251565e-15
10
14.557589211680057
20
-4.7105503171952696
30
1.1102230246251565e-15
10
14.604929487978357
20
-4.7028803060132605
30
1.1102230246251565e-15
10
14.652303585744921
20
-4.6948704765893048
30
1.1102230246251565e-15
10
14.699709018049639
20
-4.6865238340789412
30
1.1102230246251565e-15
10
14.747144567053818
20
-4.6778435823901452
30
1.1102230246251565e-15
10
14.794609882652942
20
-4.6688328961143766
30
1.1102230246251565e-15
10
14.842105028634309
20
-4.6594946782339877
30
1.1102230246251565e-15
10
14.889630024943061
20
-4.6498313168424978
30
1.1102230246251565e-15
10
14.937184838423205
20
-4.6398446638648165
30
1.1102230246251565e-15
10
14.975252502412197
20
-4.6315977637455683
30
1.1102230246251565e-15
10
15.003816622898709
20
-4.6252680549752814
30
1.1102230246251565e-15
10
15.022865310068781
20
-4.6209840465245557
30
1.1102230246251565e-15
10
15.032391138695973
20
-4.6188259916464283
30
1.1102230246251565e-15
0
ARC
5
151
100
AcDbEntity
8
0
100
AcDbCircle
10
-6.3792447208192368e-05
20
-0.00088778475997818213
30
1.1102230246251565e-15
40
15.725776754725747
210
-0
220
0
230
1
100
AcDbArc
50
342.92315347905776
51
346.07684574877084
0
SPLINE
5
152
100
AcDbEntity
8
0
100
AcDbSpline
70
4
71
5
72
66
73
60
74
0
42
0.000000001
43
0.0000000001
44
0.0000000001
40
-1
40
-1
40
-1
40
-1
40
-1
40
-1
40
-0.98181818181818203
40
-0.96363636363636385
40
-0.94545454545454566
40
-0.92727272727272747
40
-0.90909090909090928
40
-0.89090909090909109
40
-0.87272727272727291
40
-0.85454545454545472
40
-0.83636363636363653
40
-0.81818181818181834
40
-0.80000000000000016
40
-0.78181818181818197
40
-0.76363636363636378
40
-0.74545454545454559
40
-0.7272727272727274
40
-0.70909090909090922
40
-0.69090909090909103
40
-0.67272727272727284
40
-0.65454545454545465
40
-0.63636363636363646
40
-0.61818181818181828
40
-0.60000000000000009
40
-0.5818181818181819
40
-0.56363636363636371
40
-0.54545454545454553
40
-0.52727272727272734
40
-0.50909090909090915
40
-0.49090909090909102
40
-0.47272727272727283
40
-0.45454545454545464
40
-0.43636363636363645
40
-0.41818181818181827
40
-0.40000000000000008
40
-0.38181818181818189
40
-0.3636363636363637
40
-0.34545454545454551
40
-0.32727272727272733
40
-0.30909090909090914
40
-0.29090909090909095
40
-0.27272727272727276
40
-0.25454545454545457
40
-0.23636363636363641
40
-0.21818181818181823
40
-0.20000000000000004
40
-0.18181818181818185
40
-0.16363636363636366
40
-0.14545454545454548
40
-0.12727272727272729
40
-0.1090909090909091
40
-0.090909090909090912
40
-0.072727272727272724
40
-0.054545454545454543
40
-0.036363636363636362
40
-0.018181818181818181
40
0
40
0
40
0
40
0
40
0
40
0
41
1
41
1
41
1
41
1
41
1
41
1
41
1
41
1
41
1
41
1
41
1
41
1
41
1
41
1
41
1
41
1
41
1
41
1
41
1
41
1
41
1
41
1
41
1
41
1
41
1
41
1
41
1
41
1
41
1
41
1
41
1
41
1
41
1
41
1
41
1
41
1
41
1
41
1
41
1
41
1
41
1
41
1
41
1
41
1
41
1
41
1
41
1
41
1
41
1
41
1
41
1
41
1
41
1
41
1
41
1
41
1
41
1
41
1
41
1
41
1
10
15.263678976939412
20
-3.7848290117705243
30
1.1102230246251565e-15
10
15.256625228648971
20
-3.7780730331627215
30
1.1102230246251565e-15
10
15.242503744532296
20
-3.7645901218428479
30
1.1102230246251565e-15
10
15.221279555768877
20
-3.7444528925490599
30
1.1102230246251565e-15
10
15.192896666904215
20
-3.7177776226749608
30
1.1102230246251565e-15
10
15.157277742768095
20
-3.6847248502315013
30
1.1102230246251565e-15
10
15.121517869456309
20
-3.6519645497409776
30
1.1102230246251565e-15
10
15.085616121577027
20
-3.6194983256894329
30
1.1102230246251565e-15
10
15.049571252074763
20
-3.5873282148000256
30
1.1102230246251565e-15
10
15.013381711126641
20
-3.555456672561391
30
1.1102230246251565e-15
10
14.977046163795269
20
-3.5238866004466556
30
1.1102230246251565e-15
10
14.940564003837636
20
-3.4926213719742725
30
1.1102230246251565e-15
10
14.90393581519934
20
-3.461664843929007
30
1.1102230246251565e-15
10
14.867163996044411
20
-3.4310213939136136
30
1.1102230246251565e-15
10
14.830252916990478
20
-3.4006958682114075
30
1.1102230246251565e-15
10
14.793207135040605
20
-3.3706931835130942
30
1.1102230246251565e-15
10
14.756029764029346
20
-3.3410179403364673
30
1.1102230246251565e-15
10
14.718721029112823
20
-3.3116740913868572
30
1.1102230246251565e-15
10
14.68127615978279
20
-3.282664422279415
30
1.1102230246251565e-15
10
14.643685445862291
20
-3.2539906133326331
30
1.1102230246251565e-15
10
14.605938788000291
20
-3.2256545077253342
30
1.1102230246251565e-15
10
14.568029693392017
20
-3.1976592275298739
30
1.1102230246251565e-15
10
14.529958729223157
20
-3.1700101341186544
30
1.1102230246251565e-15
10
14.491739093229807
20
-3.1427163660002657
30
1.1102230246251565e-15
10
14.453394304671583
20
-3.1157902083491895
30
1.1102230246251565e-15
10
14.414947358147142
20
-3.0892441185102819
30
1.1102230246251565e-15
10
14.376411244621156
20
-3.0630881146303892
30
1.1102230246251565e-15
10
14.337780788045858
20
-3.0373275364028385
30
1.1102230246251565e-15
10
14.299019181139874
20
-3.0119593059196288
30
1.1102230246251565e-15
10
14.260069495420707
20
-2.9869752150086795
30
1.1102230246251565e-15
10
14.220879537100775
20
-2.9623689663998261
30
1.1102230246251565e-15
10
14.181423895277627
20
-2.9381424148114221
30
1.1102230246251565e-15
10
14.14172428460077
20
-2.9143113339719182
30
1.1102230246251565e-15
10
14.101878342044095
20
-2.8909135294944317
30
1.1102230246251565e-15
10
14.062018259779327
20
-2.8679974184506922
30
1.1102230246251565e-15
10
14.022254629184649
20
-2.8456064877028209
30
1.1102230246251565e-15
10
13.982626300640504
20
-2.8237654210694418
30
1.1102230246251565e-15
10
13.943045530687959
20
-2.8024649117371543
30
1.1102230246251565e-15
10
13.903250402559792
20
-2.7816484920517488
30
1.1102230246251565e-15
10
13.86292834333511
20
-2.7612475755288317
30
1.1102230246251565e-15
10
13.821842174465605
20
-2.7412170841288095
30
1.1102230246251565e-15
10
13.779941054822425
20
-2.7215671063990383
30
1.1102230246251565e-15
10
13.737511592354195
20
-2.702405172939033
30
1.1102230246251565e-15
10
13.695207951831867
20
-2.6839465053020675
30
1.1102230246251565e-15
10
13.653738111486287
20
-2.6664328744063854
30
1.1102230246251565e-15
10
13.613595138691132
20
-2.6500637916296417
30
1.1102230246251565e-15
10
13.574803807623521
20
-2.6349309057063977
30
1.1102230246251565e-15
10
13.53657835098765
20
-2.6209309874778115
30
1.1102230246251565e-15
10
13.49734225952789
20
-2.6077669872501472
30
1.1102230246251565e-15
10
13.45509303149705
20
-2.5950332300020982
30
1.1102230246251565e-15
10
13.407678673737131
20
-2.5822789095935317
30
1.1102230246251565e-15
10
13.35309265473645
20
-2.5690764311338068
30
1.1102230246251565e-15
10
13.289805507821681
20
-2.5550976849607565
30
1.1102230246251565e-15
10
13.216755365623602
20
-2.5401134598594703
30
1.1102230246251565e-15
10
13.133245633019296
20
-2.5239718176972543
30
1.1102230246251565e-15
10
13.038875465776654
20
-2.506583870733273
30
1.1102230246251565e-15
10
12.954541001630007
20
-2.4916420726996673
30
1.1102230246251565e-15
10
12.886296019526569
20
-2.4798497572276252
30
1.1102230246251565e-15
10
12.838580927825515
20
-2.4717279202848847
30
1.1102230246251565e-15
10
12.814168773658999
20
-2.4676019287014328
30
1.1102230246251565e-15
0
ARC
5
153
100
AcDbEntity
8
0
100
AcDbCircle
10
-6.210090062310217e-05
20
-0.00088825386754807036
30
1.1102230246251565e-15
40
13.049490000001128
210
-0
220
0
230
1
100
AcDbArc
50
349.10395895971186
51
354.89604026811696
0
SPLINE
5
154
100
AcDbEntity
8
0
100
AcDbSpline
70
4
71
5
72
66
73
60
74
0
42
0.000000001
43
0.0000000001
44
0.0000000001
40
0
40
0
40
0
40
0
40
0
40
0
40
0.018181818181818181
40
0.036363636363636362
40
0.054545454545454543
40
0.072727272727272724
40
0.090909090909090912
40
0.1090909090909091
40
0.12727272727272729
40
0.14545454545454548
40
0.16363636363636366
40
0.18181818181818185
40
0.20000000000000004
40
0.21818181818181823
40
0.23636363636363641
40
0.25454545454545457
40
0.27272727272727276
40
0.29090909090909095
40
0.30909090909090914
40
0.32727272727272733
40
0.34545454545454551
40
0.3636363636363637
40
0.38181818181818189
40
0.40000000000000008
40
0.41818181818181827
40
0.43636363636363645
40
0.45454545454545464
40
0.47272727272727283
40
0.49090909090909102
40
0.50909090909090915
40
0.52727272727272734
40
0.54545454545454553
40
0.56363636363636371
40
0.5818181818181819
40
0.60000000000000009
40
0.61818181818181828
40
0.63636363636363646
40
0.65454545454545465
40
0.67272727272727284
40
0.69090909090909103
40
0.70909090909090922
40
0.7272727272727274
40
0.74545454545454559
40
0.76363636363636378
40
0.78181818181818197
40
0.80000000000000016
40
0.81818181818181834
40
0.83636363636363653
40
0.85454545454545472
40
0.87272727272727291
40
0.89090909090909109
40
0.90909090909090928
40
0.92727272727272747
40
0.94545454545454566
40
0.96363636363636385
40
0.98181818181818203
40
1
40
1
40
1
40
1
40
1
40
1
41
1
41
1
41
1
41
1
41
1
41
1
41
1
41
1
41
1
41
1
41
1
41
1
41
1
41
1
41
1
41
1
41
1
41
1
41
1
41
1
41
1
41
1
41
1
41
1
41
1
41
1
41
1
41
1
41
1
41
1
41
1
41
1
41
1
41
1
41
1
41
1
41
1
41
1
41
1
41
1
41
1
41
1
41
1
41
1
41
1
41
1
41
1
41
1
41
1
41
1
41
1
41
1
41
1
41
1
41
1
41
1
41
1
41
1
41
1
41
1
10
12.997685620966886
20
-1.1618117736643871
30
1.1102230246251565e-15
10
13.022289367056477
20
-1.1645745179533193
30
1.1102230246251565e-15
10
13.070394738615985
20
-1.1699193695570196
30
1.1102230246251565e-15
10
13.139246428409173
20
-1.1773947357300809
30
1.1102230246251565e-15
10
13.224432436024072
20
-1.1862774874616813
30
1.1102230246251565e-15
10
13.319939630633117
20
-1.1955750647281647
30
1.1102230246251565e-15
10
13.404663577285628
20
-1.2030771254299231
30
1.1102230246251565e-15
10
13.479014092969946
20
-1.2088087128362106
30
1.1102230246251565e-15
10
13.543702667720531
20
-1.212815782287286
30
1.1102230246251565e-15
10
13.599813213138619
20
-1.2151706921505108
30
1.1102230246251565e-15
10
13.648906386231319
20
-1.2159796213462926
30
1.1102230246251565e-15
10
13.693028850005655
20
-1.2153846143527163
30
1.1102230246251565e-15
10
13.734373492064389
20
-1.2135454982283314
30
1.1102230246251565e-15
10
13.774977059820706
20
-1.2106242774282021
30
1.1102230246251565e-15
10
13.816436869224995
20
-1.2067699543240864
30
1.1102230246251565e-15
10
13.859536702091155
20
-1.202099885509931
30
1.1102230246251565e-15
10
13.904227482135674
20
-1.1966953407144125
30
1.1102230246251565e-15
10
13.949980249789542
20
-1.1906121947885326
30
1.1102230246251565e-15
10
13.996047811600974
20
-1.1838877075976109
30
1.1102230246251565e-15
10
14.041742020932791
20
-1.1765484511199544
30
1.1102230246251565e-15
10
14.086757733091851
20
-1.1686187905407963
30
1.1102230246251565e-15
10
14.131141038927046
20
-1.1601224373092216
30
1.1102230246251565e-15
10
14.175132354283287
20
-1.1510814349035927
30
1.1102230246251565e-15
10
14.219051048533418
20
-1.1415160105413096
30
1.1102230246251565e-15
10
14.263164456827893
20
-1.1314440780780828
30
1.1102230246251565e-15
10
14.307559488898036
20
-1.1208808766068596
30
1.1102230246251565e-15
10
14.352191995578611
20
-1.1098394251202606
30
1.1102230246251565e-15
10
14.396943683009987
20
-1.0983310427564643
30
1.1102230246251565e-15
10
14.441674134367318
20
-1.086365833889396
30
1.1102230246251565e-15
10
14.486279074328179
20
-1.0739532272081238
30
1.1102230246251565e-15
10
14.530733281602865
20
-1.061102400024692
30
1.1102230246251565e-15
10
14.575060671488721
20
-1.0478221394030889
30
1.1102230246251565e-15
10
14.619313151637307
20
-1.0341207785770146
30
1.1102230246251565e-15
10
14.663547707696974
20
-1.0200061189622085
30
1.1102230246251565e-15
10
14.707800569483711
20
-1.005485347345803
30
1.1102230246251565e-15
10
14.752075240714987
20
-0.9905650232826404
30
1.1102230246251565e-15
10
14.796356472298491
20
-0.97525119603819099
30
1.1102230246251565e-15
10
14.840618726697674
20
-0.95954950221018731
30
1.1102230246251565e-15
10
14.884836009495995
20
-0.9434652682793907
30
1.1102230246251565e-15
10
14.928993115300948
20
-0.9270036409547886
30
1.1102230246251565e-15
10
14.973088021104008
20
-0.91016961758070813
30
1.1102230246251565e-15
10
15.017126107629892
20
-0.89296798894532925
30
1.1102230246251565e-15
10
15.061116574948866
20
-0.87540331058438847
30
1.1102230246251565e-15
10
15.105068293923479
20
-0.85747987421130967
30
1.1102230246251565e-15
10
15.148985082440987
20
-0.83920167246157706
30
1.1102230246251565e-15
10
15.192865634554185
20
-0.82057244285797748
30
1.1102230246251565e-15
10
15.236705688978585
20
-0.80159574941286915
30
1.1102230246251565e-15
10
15.280499510017997
20
-0.78227506227234644
30
1.1102230246251565e-15
10
15.324241560548337
20
-0.76261383527736593
30
1.1102230246251565e-15
10
15.367928328675443
20
-0.7426156154261212
30
1.1102230246251565e-15
10
15.411558190000715
20
-0.72228394914081329
30
1.1102230246251565e-15
10
15.455130797414611
20
-0.70162224635871651
30
1.1102230246251565e-15
10
15.498646634386883
20
-0.68063366411341486
30
1.1102230246251565e-15
10
15.542106513878524
20
-0.65932098996118205
30
1.1102230246251565e-15
10
15.585511073239228
20
-0.63768652546109184
30
1.1102230246251565e-15
10
15.62886075975638
20
-0.61573206801672176
30
1.1102230246251565e-15
10
15.663496844736027
20
-0.59791353776185141
30
1.1102230246251565e-15
10
15.689449417239793
20
-0.58440657019935405
30
1.1102230246251565e-15
10
15.706740253158163
20
-0.57533837277306055
30
1.1102230246251565e-15
10
15.715382951343317
20
-0.57078838596269688
30
1.1102230246251565e-15
0
ARC
5
155
100
AcDbEntity
8
0
100
AcDbCircle
10
-5.5708414966877743e-05
20
-0.00088830965412673227
30
1.1102230246251565e-15
40
15.725768609692876
210
-0
220
0
230
1
100
AcDbArc
50
-2.0768473378628927
51
1.0768465656917119
0
SPLINE
5
156
100
AcDbEntity
8
0
100
AcDbSpline
70
4
71
5
72
66
73
60
74
0
42
0.000000001
43
0.0000000001
44
0.0000000001
40
-1
40
-1
40
-1
40
-1
40
-1
40
-1
40
-0.98181818181818203
40
-0.96363636363636385
40
-0.94545454545454566
40
-0.92727272727272747
40
-0.90909090909090928
40
-0.89090909090909109
40
-0.87272727272727291
40
-0.85454545454545472
40
-0.83636363636363653
40
-0.81818181818181834
40
-0.80000000000000016
40
-0.78181818181818197
40
-0.76363636363636378
40
-0.74545454545454559
40
-0.7272727272727274
40
-0.70909090909090922
40
-0.69090909090909103
40
-0.67272727272727284
40
-0.65454545454545465
40
-0.63636363636363646
40
-0.61818181818181828
40
-0.60000000000000009
40
-0.5818181818181819
40
-0.56363636363636371
40
-0.54545454545454553
40
-0.52727272727272734
40
-0.50909090909090915
40
-0.49090909090909102
40
-0.47272727272727283
40
-0.45454545454545464
40
-0.43636363636363645
40
-0.41818181818181827
40
-0.40000000000000008
40
-0.38181818181818189
40
-0.3636363636363637
40
-0.34545454545454551
40
-0.32727272727272733
40
-0.30909090909090914
40
-0.29090909090909095
40
-0.27272727272727276
40
-0.25454545454545457
40
-0.23636363636363641
40
-0.21818181818181823
40
-0.20000000000000004
40
-0.18181818181818185
40
-0.16363636363636366
40
-0.14545454545454548
40
-0.12727272727272729
40
-0.1090909090909091
40
-0.090909090909090912
40
-0.072727272727272724
40
-0.054545454545454543
40
-0.036363636363636362
40
-0.018181818181818181
40
0
40
0
40
0
40
0
40
0
40
0
41
1
41
1
41
1
41
1
41
1
41
1
41
1
41
1
41
1
41
1
41
1
41
1
41
1
41
1
41
1
41
1
41
1
41
1
41
1
41
1
41
1
41
1
41
1
41
1
41
1
41
1
41
1
41
1
41
1
41
1
41
1
41
1
41
1
41
1
41
1
41
1
41
1
41
1
41
1
41
1
41
1
41
1
41
1
41
1
41
1
41
1
41
1
41
1
41
1
41
1
41
1
41
1
41
1
41
1
41
1
41
1
41
1
41
1
41
1
41
1
10
15.722935545659361
20
0.29465253338452574
30
1.1102230246251565e-15
10
15.714373572081632
20
0.29935266320662313
30
1.1102230246251565e-15
10
15.697243631635052
20
0.308721246429358
30
1.1102230246251565e-15
10
15.671530741109851
20
0.32267909200512501
30
1.1102230246251565e-15
10
15.637210907854209
20
0.34109939190648297
30
1.1102230246251565e-15
10
15.594250982124516
20
0.36380706250771955
30
1.1102230246251565e-15
10
15.551230607257271
20
0.38619574656519051
30
1.1102230246251565e-15
10
15.50814930466437
20
0.40826365475525811
30
1.1102230246251565e-15
10
15.46500639692548
20
0.43000849699263349
30
1.1102230246251565e-15
10
15.42180102255392
20
0.45142750033373502
30
1.1102230246251565e-15
10
15.378532643055717
20
0.47251751666353747
30
1.1102230246251565e-15
10
15.335201545975803
20
0.493275130506241
30
1.1102230246251565e-15
10
15.291809293571708
20
0.51369676763011174
30
1.1102230246251565e-15
10
15.248359335298755
20
0.53377882028616142
30
1.1102230246251565e-15
10
15.204857147159888
20
0.55351773852326236
30
1.1102230246251565e-15
10
15.161308403415269
20
0.57290995262204925
30
1.1102230246251565e-15
10
15.117717302499759
20
0.5919518247432487
30
1.1102230246251565e-15
10
15.074085084932884
20
0.6106395951413669
30
1.1102230246251565e-15
10
15.030407863727834
20
0.62896933842037928
30
1.1102230246251565e-15
10
14.986676694472328
20
0.64693691833853073
30
1.1102230246251565e-15
10
14.942882298992135
20
0.66453794061740634
30
1.1102230246251565e-15
10
14.899019213771203
20
0.68176770910516549
30
1.1102230246251565e-15
10
14.855089374294181
20
0.69862119191221494
30
1.1102230246251565e-15
10
14.811107893815194
20
0.71509297774254199
30
1.1102230246251565e-15
10
14.767100669831702
20
0.7311772872611545
30
1.1102230246251565e-15
10
14.723093137618473
20
0.74686803903698662
30
1.1102230246251565e-15
10
14.67910043837098
20
0.76215891859233342
30
1.1102230246251565e-15
10
14.635118954425383
20
0.77704342851977293
30
1.1102230246251565e-15
10
14.591112336056828
20
0.7915150154247117
30
1.1102230246251565e-15
10
14.547023470142534
20
0.80556687361707535
30
1.1102230246251565e-15
10
14.502800311501634
20
0.81919157704648482
30
1.1102230246251565e-15
10
14.458418795123604
20
0.8323807573670684
30
1.1102230246251565e-15
10
14.413903978290545
20
0.84512479849200872
30
1.1102230246251565e-15
10
14.369359955889845
20
0.85741245331154414
30
1.1102230246251565e-15
10
14.324926947014466
20
0.86923116837732561
30
1.1102230246251565e-15
10
14.280723029960949
20
0.88056756176101958
30
1.1102230246251565e-15
10
14.236792119957464
20
0.8914078459430973
30
1.1102230246251565e-15
10
14.193047054550345
20
0.90173830093672136
30
1.1102230246251565e-15
10
14.149220226665435
20
0.91154568125985935
30
1.1102230246251565e-15
10
14.104991962557442
20
0.92081533654421355
30
1.1102230246251565e-15
10
14.060121498286
20
0.92952942250703008
30
1.1102230246251565e-15
10
14.014562336199948
20
0.93766503570745219
30
1.1102230246251565e-15
10
13.968619149286013
20
0.94519248915787002
30
1.1102230246251565e-15
10
13.922979515627913
20
0.95207320510295523
30
1.1102230246251565e-15
10
13.878389864601361
20
0.95825688901837947
30
1.1102230246251565e-15
10
13.83537810006089
20
0.96367844293867333
30
1.1102230246251565e-15
10
13.793991872461966
20
0.96825575301305888
30
1.1102230246251565e-15
10
13.753445471207943
20
0.97188515941091891
30
1.1102230246251565e-15
10
13.712139223175388
20
0.97444555948297162
30
1.1102230246251565e-15
10
13.66803386378816
20
0.97581051961930032
30
1.1102230246251565e-15
10
13.618934050062331
20
0.97585850829907461
30
1.1102230246251565e-15
10
13.562790951688136
20
0.97448322190052172
30
1.1102230246251565e-15
10
13.49804229627556
20
0.97160573491630486
30
1.1102230246251565e-15
10
13.423603074480512
20
0.96717261688009859
30
1.1102230246251565e-15
10
13.33876110260065
20
0.96115033667377825
30
1.1102230246251565e-15
10
13.243106188999743
20
0.9535210071405309
30
1.1102230246251565e-15
10
13.157778130134503
20
0.94612631027283323
30
1.1102230246251565e-15
10
13.088806463575743
20
0.93985371123814199
30
1.1102230246251565e-15
10
13.04061513811572
20
0.93534922882714433
30
1.1102230246251565e-15
10
13.015966922729101
20
0.93301630022645821
30
1.1102230246251565e-15
0
ARC
5
157
100
AcDbEntity
8
0
100
AcDbCircle
10
-6.210090062310217e-05
20
-0.00088825386754807036
30
1.1102230246251565e-15
40
13.049490000001107
210
0
220
-0
230
1
100
AcDbArc
50
4.1039589597104857
51
9.8960402681156676
0
SPLINE
5
158
100
AcDbEntity
8
0
100
AcDbSpline
70
4
71
5
72
66
73
60
74
0
42
0.000000001
43
0.0000000001
44
0.0000000001
40
0
40
0
40
0
40
0
40
0
40
0
40
0.018181818181818181
40
0.036363636363636362
40
0.054545454545454543
40
0.072727272727272724
40
0.090909090909090912
40
0.1090909090909091
40
0.12727272727272729
40
0.14545454545454548
40
0.16363636363636366
40
0.18181818181818185
40
0.20000000000000004
40
0.21818181818181823
40
0.23636363636363641
40
0.25454545454545457
40
0.27272727272727276
40
0.29090909090909095
40
0.30909090909090914
40
0.32727272727272733
40
0.34545454545454551
40
0.3636363636363637
40
0.38181818181818189
40
0.40000000000000008
40
0.41818181818181827
40
0.43636363636363645
40
0.45454545454545464
40
0.47272727272727283
40
0.49090909090909102
40
0.50909090909090915
40
0.52727272727272734
40
0.54545454545454553
40
0.56363636363636371
40
0.5818181818181819
40
0.60000000000000009
40
0.61818181818181828
40
0.63636363636363646
40
0.65454545454545465
40
0.67272727272727284
40
0.69090909090909103
40
0.70909090909090922
40
0.7272727272727274
40
0.74545454545454559
40
0.76363636363636378
40
0.78181818181818197
40
0.80000000000000016
40
0.81818181818181834
40
0.83636363636363653
40
0.85454545454545472
40
0.87272727272727291
40
0.89090909090909109
40
0.90909090909090928
40
0.92727272727272747
40
0.94545454545454566
40
0.96363636363636385
40
0.98181818181818203
40
1
40
1
40
1
40
1
40
1
40
1
41
1
41
1
41
1
41
1
41
1
41
1
41
1
41
1
41
1
41
1
41
1
41
1
41
1
41
1
41
1
41
1
41
1
41
1
41
1
41
1
41
1
41
1
41
1
41
1
41
1
41
1
41
1
41
1
41
1
41
1
41
1
41
1
41
1
41
1
41
1
41
1
41
1
41
1
41
1
41
1
41
1
41
1
41
1
41
1
41
1
41
1
41
1
41
1
41
1
41
1
41
1
41
1
41
1
41
1
41
1
41
1
41
1
41
1
41
1
41
1
10
12.855267224071977
20
2.2418103898712003
30
1.1102230246251565e-15
10
12.879747668682644
20
2.2455097018785946
30
1.1102230246251565e-15
10
12.927597238844468
20
2.2527975580058306
30
1.1102230246251565e-15
10
12.99603763133516
20
2.2633970373615644
30
1.1102230246251565e-15
10
13.080620021450695
20
2.2768647192006077
30
1.1102230246251565e-15
10
13.175279277389862
20
2.2926030301061719
30
1.1102230246251565e-15
10
13.259058001753077
20
2.3072847668956022
30
1.1102230246251565e-15
10
13.332358529028806
20
2.3209918080690972
30
1.1102230246251565e-15
10
13.395879999934145
20
2.3338639113471658
30
1.1102230246251565e-15
10
13.450688120401967
20
2.3461117208789486
30
1.1102230246251565e-15
10
13.498317850468259
20
2.3580366034589848
30
1.1102230246251565e-15
10
13.540782878605492
20
2.3700310700226073
30
1.1102230246251565e-15
10
13.580242737869758
20
2.3825083005618883
30
1.1102230246251565e-15
10
13.61870670502733
20
2.3958389598106993
30
1.1102230246251565e-15
10
13.657756233458947
20
2.4102925383193528
30
1.1102230246251565e-15
10
13.698178772382271
20
2.4259585359837104
30
1.1102230246251565e-15
10
13.73994795190116
20
2.4427457503971008
30
1.1102230246251565e-15
10
13.782567297782354
20
2.4604633057872105
30
1.1102230246251565e-15
10
13.825324720136372
20
2.4788818239919892
30
1.1102230246251565e-15
10
13.867562397688296
20
2.4977975329956803
30
1.1102230246251565e-15
10
13.908991889472254
20
2.5171079205784763
30
1.1102230246251565e-15
10
13.949663852804314
20
2.5368020124288408
30
1.1102230246251565e-15
10
13.989816216830064
20
2.5569207403811878
30
1.1102230246251565e-15
10
14.029762703863947
20
2.5775272253200212
30
1.1102230246251565e-15
10
14.069766176278918
20
2.598673355217842
30
1.1102230246251565e-15
10
14.109914526596476
20
2.6203669041348867
30
1.1102230246251565e-15
10
14.150168479560897
20
2.6425838700451281
30
1.1102230246251565e-15
10
14.190416701686699
20
2.6652827027968673
30
1.1102230246251565e-15
10
14.23052617594076
20
2.6884172997658249
30
1.1102230246251565e-15
10
14.270398620420437
20
2.7119515650983557
30
1.1102230246251565e-15
10
14.3100120484938
20
2.7358701064416211
30
1.1102230246251565e-15
10
14.349391834823786
20
2.7601706258780223
30
1.1102230246251565e-15
10
14.388590275151131
20
2.7848585088107169
30
1.1102230246251565e-15
10
14.427664432540251
20
2.809940968621842
30
1.1102230246251565e-15
10
14.466651162383448
20
2.8354204403744809
30
1.1102230246251565e-15
10
14.50555554674958
20
2.8612914948539956
30
1.1102230246251565e-15
10
14.544364421811672
20
2.8875443421631348
30
1.1102230246251565e-15
10
14.583054579062484
20
2.9141669281657654
30
1.1102230246251565e-15
10
14.621602288418414
20
2.9411473800264925
30
1.1102230246251565e-15
10
14.659994194664455
20
2.9684767909610112
30
1.1102230246251565e-15
10
14.6982296371324
20
2.9961498103122288
30
1.1102230246251565e-15
10
14.736315053150479
20
3.0241632031681447
30
1.1102230246251565e-15
10
14.774260508363675
20
3.0525149503725362
30
1.1102230246251565e-15
10
14.812075682144382
20
3.0812032023967491
30
1.1102230246251565e-15
10
14.849765295658484
20
3.1102250907929974
30
1.1102230246251565e-15
10
14.887329054799693
20
3.139576667387487
30
1.1102230246251565e-15
10
14.92476376591738
20
3.1692533867070569
30
1.1102230246251565e-15
10
14.962064786894253
20
3.1992504123405707
30
1.1102230246251565e-15
10
14.999227663198972
20
3.2295629750206607
30
1.1102230246251565e-15
10
15.036249920633365
20
3.2601867396650714
30
1.1102230246251565e-15
10
15.073130908030983
20
3.2911178602677138
30
1.1102230246251565e-15
10
15.109871172666944
20
3.322352953243533
30
1.1102230246251565e-15
10
15.146471998637825
20
3.3538890942634381
30
1.1102230246251565e-15
10
15.182934892676014
20
3.3857238011646191
30
1.1102230246251565e-15
10
15.219261066100621
20
3.4178550157699799
30
1.1102230246251565e-15
10
15.255451416159062
20
3.450281117687493
30
1.1102230246251565e-15
10
15.284295530175989
20
3.4764569746877196
30
1.1102230246251565e-15
10
15.305867929767171
20
3.4962207235245946
30
1.1102230246251565e-15
10
15.320222572538068
20
3.5094551272579979
30
1.1102230246251565e-15
10
15.32739315468122
20
3.516086971918817
30
1.1102230246251565e-15
0
ARC
5
159
100
AcDbEntity
8
0
100
AcDbCircle
10
-5.9703487469834356e-05
20
-0.00088763385481397121
30
1.1102230246251565e-15
40
15.725772524650106
210
0
220
-0
230
1
100
AcDbArc
50
12.923153054794897
51
16.076846173033747
0
SPLINE
5
160
100
AcDbEntity
8
0
100
AcDbSpline
70
4
71
5
72
66
73
60
74
0
42
0.000000001
43
0.0000000001
44
0.0000000001
40
-1
40
-1
40
-1
40
-1
40
-1
40
-1
40
-0.98181818181818203
40
-0.96363636363636385
40
-0.94545454545454566
40
-0.92727272727272747
40
-0.90909090909090928
40
-0.89090909090909109
40
-0.87272727272727291
40
-0.85454545454545472
40
-0.83636363636363653
40
-0.81818181818181834
40
-0.80000000000000016
40
-0.78181818181818197
40
-0.76363636363636378
40
-0.74545454545454559
40
-0.7272727272727274
40
-0.70909090909090922
40
-0.69090909090909103
40
-0.67272727272727284
40
-0.65454545454545465
40
-0.63636363636363646
40
-0.61818181818181828
40
-0.60000000000000009
40
-0.5818181818181819
40
-0.56363636363636371
40
-0.54545454545454553
40
-0.52727272727272734
40
-0.50909090909090915
40
-0.49090909090909102
40
-0.47272727272727283
40
-0.45454545454545464
40
-0.43636363636363645
40
-0.41818181818181827
40
-0.40000000000000008
40
-0.38181818181818189
40
-0.3636363636363637
40
-0.34545454545454551
40
-0.32727272727272733
40
-0.30909090909090914
40
-0.29090909090909095
40
-0.27272727272727276
40
-0.25454545454545457
40
-0.23636363636363641
40
-0.21818181818181823
40
-0.20000000000000004
40
-0.18181818181818185
40
-0.16363636363636366
40
-0.14545454545454548
40
-0.12727272727272729
40
-0.1090909090909091
40
-0.090909090909090912
40
-0.072727272727272724
40
-0.054545454545454543
40
-0.036363636363636362
40
-0.018181818181818181
40
0
40
0
40
0
40
0
40
0
40
0
41
1
41
1
41
1
41
1
41
1
41
1
41
1
41
1
41
1
41
1
41
1
41
1
41
1
41
1
41
1
41
1
41
1
41
1
41
1
41
1
41
1
41
1
41
1
41
1
41
1
41
1
41
1
41
1
41
1
41
1
41
1
41
1
41
1
41
1
41
1
41
1
41
1
41
1
41
1
41
1
41
1
41
1
41
1
41
1
41
1
41
1
41
1
41
1
41
1
41
1
41
1
41
1
41
1
41
1
41
1
41
1
41
1
41
1
41
1
41
1
10
15.110695808248471
20
4.3539934622925802
30
1.1102230246251565e-15
10
15.101209093732573
20
4.3563174372492073
30
1.1102230246251565e-15
10
15.082238074087471
20
4.3609332389109658
30
1.1102230246251565e-15
10
15.053788772795766
20
4.3677604966596233
30
1.1102230246251565e-15
10
15.015870835068771
20
4.3766705135911108
30
1.1102230246251565e-15
10
14.968497555690373
20
4.3874855921245146
30
1.1102230246251565e-15
10
14.921148446722199
20
4.3979769079288733
30
1.1102230246251565e-15
10
14.873823508993905
20
4.4081426087827031
30
1.1102230246251565e-15
10
14.826522680884892
20
4.4179803073042914
30
1.1102230246251565e-15
10
14.779245847953371
20
4.427487102066662
30
1.1102230246251565e-15
10
14.731993304846359
20
4.4366598128516817
30
1.1102230246251565e-15
10
14.684766213301433
20
4.4454952149851188
30
1.1102230246251565e-15
10
14.63756700742297
20
4.4539902603661723
30
1.1102230246251565e-15
10
14.590399952883429
20
4.4621423569616274
30
1.1102230246251565e-15
10
14.543271257890471
20
4.4699494930758767
30
1.1102230246251565e-15
10
14.496187327269794
20
4.4774096892313979
30
1.1102230246251565e-15
10
14.449153157940016
20
4.4845205181802053
30
1.1102230246251565e-15
10
14.402170921244648
20
4.491278669357154
30
1.1102230246251565e-15
10
14.355237878609891
20
4.497679345094598
30
1.1102230246251565e-15
10
14.308346460935027
20
4.50371623510555
30
1.1102230246251565e-15
10
14.261488843514876
20
4.5093826934747856
30
1.1102230246251565e-15
10
14.214660964451756
20
4.5146727700059417
30
1.1102230246251565e-15
10
14.167865995629171
20
4.5195821052071894
30
1.1102230246251565e-15
10
14.121119935876177
20
4.5241093837659827
30
1.1102230246251565e-15
10
14.074449296056429
20
4.5282557260389842
30
1.1102230246251565e-15
10
14.027880218748949
20
4.5320218409484188
30
1.1102230246251565e-15
10
13.981428963532538
20
4.5354055480069579
30
1.1102230246251565e-15
10
13.935093717664895
20
4.5383996348806059
30
1.1102230246251565e-15
10
13.888841066151254
20
4.5409883634751775
30
1.1102230246251565e-15
10
13.842617603393531
20
4.5431503780349285
30
1.1102230246251565e-15
10
13.796374979610741
20
4.5448650352620392
30
1.1102230246251565e-15
10
13.750092115675013
20
4.5461180234720713
30
1.1102230246251565e-15
10
13.703795703888717
20
4.5469065395402559
30
1.1102230246251565e-15
10
13.657589203158103
20
4.5472466613321778
30
1.1102230246251565e-15
10
13.611611303797979
20
4.5471625545196162
30
1.1102230246251565e-15
10
13.56597952418239
20
4.5466718540643329
30
1.1102230246251565e-15
10
13.520739851637025
20
4.5457726083425563
30
1.1102230246251565e-15
10
13.475811644690737
20
4.544429005561625
30
1.1102230246251565e-15
10
13.430939842942299
20
4.5425589897609751
30
1.1102230246251565e-15
10
13.385819457059451
20
4.5400656721179873
30
1.1102230246251565e-15
10
13.340222545374207
20
4.5368695020859109
30
1.1102230246251565e-15
10
13.294110122451023
20
4.5329363221620227
30
1.1102230246251565e-15
10
13.247784163354231
20
4.5283163120898005
30
1.1102230246251565e-15
10
13.20191880217048
20
4.5231501669221732
30
1.1102230246251565e-15
10
13.157248051492353
20
4.5175824960175168
30
1.1102230246251565e-15
10
13.114298675880319
20
4.5116870511413456
30
1.1102230246251565e-15
10
13.073137954768555
20
4.5053968492498955
30
1.1102230246251565e-15
10
13.033033779137785
20
4.4984084057691813
30
1.1102230246251565e-15
10
12.992472327075756
20
4.4901907186521521
30
1.1102230246251565e-15
10
12.949516543686766
20
4.4800938618991619
30
1.1102230246251565e-15
10
12.902077345156433
20
4.467432248500586
30
1.1102230246251565e-15
10
12.848203226776402
20
4.4515729207383075
30
1.1102230246251565e-15
10
12.786405576722791
20
4.432035296578432
30
1.1102230246251565e-15
10
12.715650185272334
20
4.408486945071628
30
1.1102230246251565e-15
10
12.635257814288002
20
4.3807111509396099
30
1.1102230246251565e-15
10
12.544836878613753
20
4.348584471108552
30
1.1102230246251565e-15
10
12.464330191235643
20
4.3193572157115705
30
1.1102230246251565e-15
10
12.399332145323879
20
4.295447169429691
30
1.1102230246251565e-15
10
12.353948745301526
20
4.2786233406984389
30
1.1102230246251565e-15
10
12.330744203843903
20
4.2699904771430806
30
1.1102230246251565e-15
0
ARC
5
161
100
AcDbEntity
8
0
100
AcDbCircle
10
-6.210090062310217e-05
20
-0.00088825386754807036
30
1.1102230246251565e-15
40
13.049490000001009
210
0
220
-0
230
1
100
AcDbArc
50
19.10395895970937
51
24.896040268114596
0
SPLINE
5
162
100
AcDbEntity
8
0
100
AcDbSpline
70
4
71
5
72
66
73
60
74
0
42
0.000000001
43
0.0000000001
44
0.0000000001
40
0
40
0
40
0
40
0
40
0
40
0
40
0.018181818181818181
40
0.036363636363636362
40
0.054545454545454543
40
0.072727272727272724
40
0.090909090909090912
40
0.1090909090909091
40
0.12727272727272729
40
0.14545454545454548
40
0.16363636363636366
40
0.18181818181818185
40
0.20000000000000004
40
0.21818181818181823
40
0.23636363636363641
40
0.25454545454545457
40
0.27272727272727276
40
0.29090909090909095
40
0.30909090909090914
40
0.32727272727272733
40
0.34545454545454551
40
0.3636363636363637
40
0.38181818181818189
40
0.40000000000000008
40
0.41818181818181827
40
0.43636363636363645
40
0.45454545454545464
40
0.47272727272727283
40
0.49090909090909102
40
0.50909090909090915
40
0.52727272727272734
40
0.54545454545454553
40
0.56363636363636371
40
0.5818181818181819
40
0.60000000000000009
40
0.61818181818181828
40
0.63636363636363646
40
0.65454545454545465
40
0.67272727272727284
40
0.69090909090909103
40
0.70909090909090922
40
0.7272727272727274
40
0.74545454545454559
40
0.76363636363636378
40
0.78181818181818197
40
0.80000000000000016
40
0.81818181818181834
40
0.83636363636363653
40
0.85454545454545472
40
0.87272727272727291
40
0.89090909090909109
40
0.90909090909090928
40
0.92727272727272747
40
0.94545454545454566
40
0.96363636363636385
40
0.98181818181818203
40
1
40
1
40
1
40
1
40
1
40
1
41
1
41
1
41
1
41
1
41
1
41
1
41
1
41
1
41
1
41
1
41
1
41
1
41
1
41
1
41
1
41
1
41
1
41
1
41
1
41
1
41
1
41
1
41
1
41
1
41
1
41
1
41
1
41
1
41
1
41
1
41
1
41
1
41
1
41
1
41
1
41
1
41
1
41
1
41
1
41
1
41
1
41
1
41
1
41
1
41
1
41
1
41
1
41
1
41
1
41
1
41
1
41
1
41
1
41
1
41
1
41
1
41
1
41
1
41
1
41
1
10
11.836779378116443
20
5.4925963470707266
30
1.1102230246251565e-15
10
11.859468219403979
20
5.5025056133767674
30
1.1102230246251565e-15
10
11.903801119037027
20
5.5219295218875768
30
1.1102230246251565e-15
10
11.967166114580374
20
5.5498815097749263
30
1.1102230246251565e-15
10
12.045380737089332
20
5.5847818249267336
30
1.1102230246251565e-15
10
12.132741182498112
20
5.6244834841247737
30
1.1102230246251565e-15
10
12.209865302957361
20
5.660348482303041
30
1.1102230246251565e-15
10
12.277120532025283
20
5.6925600398480842
30
1.1102230246251565e-15
10
12.335146015817147
20
5.7214341032848148
30
1.1102230246251565e-15
10
12.384916628499273
20
5.7474499642293395
30
1.1102230246251565e-15
10
12.427837028146932
20
5.7712959975426159
30
1.1102230246251565e-15
10
12.465750699156191
20
5.7938725206017105
30
1.1102230246251565e-15
10
12.500636651427719
20
5.8161375629151095
30
1.1102230246251565e-15
10
12.534339762189608
20
5.8389691982159588
30
1.1102230246251565e-15
10
12.568317848818367
20
5.8630370446404303
30
1.1102230246251565e-15
10
12.603308364572568
20
5.8886313593038757
30
1.1102230246251565e-15
10
12.639309443008315
20
5.9156572224149553
30
1.1102230246251565e-15
10
12.675890929126801
20
5.9438017651487183
30
1.1102230246251565e-15
10
12.712424364350106
20
5.9726591227893095
30
1.1102230246251565e-15
10
12.748327082198225
20
6.0018622100098558
30
1.1102230246251565e-15
10
12.783347002207744
20
6.0312373535943617
30
1.1102230246251565e-15
10
12.817535895949181
20
6.0607870642499941
30
1.1102230246251565e-15
10
12.85111299139087
20
6.0906124596870121
30
1.1102230246251565e-15
10
12.88436498413156
20
6.1208557073077605
30
1.1102230246251565e-15
10
12.917532350130623
20
6.1516349608333574
30
1.1102230246251565e-15
10
12.95069797496966
20
6.1829804776878294
30
1.1102230246251565e-15
10
12.98383013384627
20
6.2148589085101724
30
1.1102230246251565e-15
10
13.016832040842075
20
6.2472013037093586
30
1.1102230246251565e-15
10
13.049587143606612
20
6.2799287042284675
30
1.1102230246251565e-15
10
13.082009851406294
20
6.312980806922063
30
1.1102230246251565e-15
10
13.114082910619514
20
6.3463370533599122
30
1.1102230246251565e-15
10
13.145831426033352
20
6.3800017913700549
30
1.1102230246251565e-15
10
13.177304517609514
20
6.413993757986133
30
1.1102230246251565e-15
10
13.208555437074983
20
6.4483346898081342
30
1.1102230246251565e-15
10
13.239619153764359
20
6.4830364778038163
30
1.1102230246251565e-15
10
13.270501981763299
20
6.5180951930908213
30
1.1102230246251565e-15
10
13.301193739603217
20
6.5534979723054345
30
1.1102230246251565e-15
10
13.331675129427584
20
6.5892271652425682
30
1.1102230246251565e-15
10
13.361926302651776
20
6.6252651618262757
30
1.1102230246251565e-15
10
13.391936664374128
20
6.6615999021795655
30
1.1102230246251565e-15
10
13.421706961290036
20
6.6982260469709818
30
1.1102230246251565e-15
10
13.451244248637828
20
6.7351421376186096
30
1.1102230246251565e-15
10
13.480558771679972
20
6.7723488289478926
30
1.1102230246251565e-15
10
13.509660358665505
20
6.8098468396572853
30
1.1102230246251565e-15
10
13.538554312299457
20
6.8476346209666765
30
1.1102230246251565e-15
10
13.567241370359774
20
6.8857082831128489
30
1.1102230246251565e-15
10
13.595719624472009
20
6.9240626089283737
30
1.1102230246251565e-15
10
13.623985842450645
20
6.9626917253305232
30
1.1102230246251565e-15
10
13.652036955926
20
7.001589872643196
30
1.1102230246251565e-15
10
13.67987169700767
20
7.0407522231286945
30
1.1102230246251565e-15
10
13.707490432136314
20
7.0801748932958422
30
1.1102230246251565e-15
10
13.734894565674862
20
7.1198547564974293
30
1.1102230246251565e-15
10
13.762086094837155
20
7.1597893203969569
30
1.1102230246251565e-15
10
13.789067117446193
20
7.1999765773804647
30
1.1102230246251565e-15
10
13.815839336242565
20
7.2404148529144301
30
1.1102230246251565e-15
10
13.842404037290306
20
7.2811028140457399
30
1.1102230246251565e-15
10
13.863490501642877
20
7.3138521563946091
30
1.1102230246251565e-15
10
13.879212604943458
20
7.3385258196842873
30
1.1102230246251565e-15
10
13.889652809388311
20
7.3550245269817633
30
1.1102230246251565e-15
10
13.894862612168733
20
7.3632862802393433
30
1.1102230246251565e-15
0
ARC
5
163
100
AcDbEntity
8
0
100
AcDbCircle
10
-6.1717209777460721e-05
20
-0.00088803678648604798
30
1.1102230246251565e-15
40
15.725774559324497
210
0
220
-0
230
1
100
AcDbArc
50
27.923153258866183
51
31.076845968962566
0
SPLINE
5
164
100
AcDbEntity
8
0
100
AcDbSpline
70
4
71
5
72
66
73
60
74
0
42
0.000000001
43
0.0000000001
44
0.0000000001
40
-1
40
-1
40
-1
40
-1
40
-1
40
-1
40
-0.98181818181818203
40
-0.96363636363636385
40
-0.94545454545454566
40
-0.92727272727272747
40
-0.90909090909090928
40
-0.89090909090909109
40
-0.87272727272727291
40
-0.85454545454545472
40
-0.83636363636363653
40
-0.81818181818181834
40
-0.80000000000000016
40
-0.78181818181818197
40
-0.76363636363636378
40
-0.74545454545454559
40
-0.7272727272727274
40
-0.70909090909090922
40
-0.69090909090909103
40
-0.67272727272727284
40
-0.65454545454545465
40
-0.63636363636363646
40
-0.61818181818181828
40
-0.60000000000000009
40
-0.5818181818181819
40
-0.56363636363636371
40
-0.54545454545454553
40
-0.52727272727272734
40
-0.50909090909090915
40
-0.49090909090909102
40
-0.47272727272727283
40
-0.45454545454545464
40
-0.43636363636363645
40
-0.41818181818181827
40
-0.40000000000000008
40
-0.38181818181818189
40
-0.3636363636363637
40
-0.34545454545454551
40
-0.32727272727272733
40
-0.30909090909090914
40
-0.29090909090909095
40
-0.27272727272727276
40
-0.25454545454545457
40
-0.23636363636363641
40
-0.21818181818181823
40
-0.20000000000000004
40
-0.18181818181818185
40
-0.16363636363636366
40
-0.14545454545454548
40
-0.12727272727272729
40
-0.1090909090909091
40
-0.090909090909090912
40
-0.072727272727272724
40
-0.054545454545454543
40
-0.036363636363636362
40
-0.018181818181818181
40
0
40
0
40
0
40
0
40
0
40
0
41
1
41
1
41
1
41
1
41
1
41
1
41
1
41
1
41
1
41
1
41
1
41
1
41
1
41
1
41
1
41
1
41
1
41
1
41
1
41
1
41
1
41
1
41
1
41
1
41
1
41
1
41
1
41
1
41
1
41
1
41
1
41
1
41
1
41
1
41
1
41
1
41
1
41
1
41
1
41
1
41
1
41
1
41
1
41
1
41
1
41
1
41
1
41
1
41
1
41
1
41
1
41
1
41
1
41
1
41
1
41
1
41
1
41
1
41
1
41
1
10
13.468682891037298
20
8.1165563990266154
30
1.1102230246251565e-15
10
13.458917939501614
20
8.1163458440653216
30
1.1102230246251565e-15
10
13.439398684298546
20
8.1158943049113255
30
1.1102230246251565e-15
10
13.41015174511146
20
8.1151257085003543
30
1.1102230246251565e-15
10
13.371219747707869
20
8.1139182395327509
30
1.1102230246251565e-15
10
13.322661525380383
20
8.1121036962686883
30
1.1102230246251565e-15
10
13.274210445835861
20
8.1099826779850055
30
1.1102230246251565e-15
10
13.22586698926683
20
8.1075533957884254
30
1.1102230246251565e-15
10
13.177631714052914
20
8.1048135276971784
30
1.1102230246251565e-15
10
13.129505260596542
20
8.1017602415283658
30
1.1102230246251565e-15
10
13.08148873660571
20
8.0983905416873441
30
1.1102230246251565e-15
10
13.033584098839469
20
8.0947016140575716
30
1.1102230246251565e-15
10
12.985794487368247
20
8.0906911443920748
30
1.1102230246251565e-15
10
12.938124693382543
20
8.0863577330161718
30
1.1102230246251565e-15
10
12.890581234215546
20
8.0817010435833776
30
1.1102230246251565e-15
10
12.843170808780373
20
8.0767208217561333
30
1.1102230246251565e-15
10
12.795898871947937
20
8.0714160162907245
30
1.1102230246251565e-15
10
12.748768377912507
20
8.0657839914119265
30
1.1102230246251565e-15
10
12.701777923142723
20
8.0598194041337443
30
1.1102230246251565e-15
10
12.654921829671204
20
8.0535142001596132
30
1.1102230246251565e-15
10
12.608194259502563
20
8.0468599348456742
30
1.1102230246251565e-15
10
12.56159282916898
20
8.0398498094470412
30
1.1102230246251565e-15
10
12.515121730794121
20
8.032480433961787
30
1.1102230246251565e-15
10
12.468796758488045
20
8.024754678697084
30
1.1102230246251565e-15
10
12.422643229808978
20
8.0166804873507882
30
1.1102230246251565e-15
10
12.376686213066554
20
8.008265310886495
30
1.1102230246251565e-15
10
12.330941978159588
20
7.9995112514038693
30
1.1102230246251565e-15
10
12.285410640802905
20
7.9904108731510171
30
1.1102230246251565e-15
10
12.240063997908596
20
7.980940325859355
30
1.1102230246251565e-15
10
12.194855990906543
20
7.9710651590670665
30
1.1102230246251565e-15
10
12.149745260373219
20
7.9607529190355351
30
1.1102230246251565e-15
10
12.104715149571115
20
7.9499843260594378
30
1.1102230246251565e-15
10
12.05979216678643
20
7.9387635810042889
30
1.1102230246251565e-15
10
12.015072084390884
20
7.9271329910308364
30
1.1102230246251565e-15
10
11.970682612405261
20
7.9151517940802787
30
1.1102230246251565e-15
10
11.926732700598226
20
7.9028674402109065
30
1.1102230246251565e-15
10
11.883267274432905
20
7.8902899466947254
30
1.1102230246251565e-15
10
11.840217709003603
20
7.8773638504478409
30
1.1102230246251565e-15
10
11.797358872526772
20
7.8639438770094605
30
1.1102230246251565e-15
10
11.754421244602005
20
7.8498575019159933
30
1.1102230246251565e-15
10
11.711205239681737
20
7.8349688895951655
30
1.1102230246251565e-15
10
11.667682041339098
20
7.8192349562597112
30
1.1102230246251565e-15
10
11.624130347614381
20
7.8027823287173605
30
1.1102230246251565e-15
10
11.581164907473456
20
7.7859213866934818
30
1.1102230246251565e-15
10
11.539457294980679
20
7.7689817885399108
30
1.1102230246251565e-15
10
11.499497237268084
20
7.7521711096919468
30
1.1102230246251565e-15
10
11.461367057766029
20
7.7354420626966007
30
1.1102230246251565e-15
10
11.424438141052267
20
7.7183120202093134
30
1.1102230246251565e-15
10
11.387385680887359
20
7.6998762676983592
30
1.1102230246251565e-15
10
11.348506839146539
20
7.6790056781581848
30
1.1102230246251565e-15
10
11.305961158794922
20
7.6544973307128643
30
1.1102230246251565e-15
10
11.258027452546891
20
7.6252347485705441
30
1.1102230246251565e-15
10
11.20339221558017
20
7.5903684440412729
30
1.1102230246251565e-15
10
11.1411425174753
20
7.5493096403107005
30
1.1102230246251565e-15
10
11.070678354616252
20
7.5016732067262168
30
1.1102230246251565e-15
10
10.991653434207436
20
7.4472385567361421
30
1.1102230246251565e-15
10
10.921454516016047
20
7.3981705319596527
30
1.1102230246251565e-15
10
10.864859600163275
20
7.3582524685639559
30
1.1102230246251565e-15
10
10.825376929288229
20
7.3302558096311063
30
1.1102230246251565e-15
10
10.805197412911351
20
7.3159113265021283
30
1.1102230246251565e-15
0
ARC
5
165
100
AcDbEntity
8
0
100
AcDbCircle
10
-6.210090062310217e-05
20
-0.00088825386754807036
30
1.1102230246251565e-15
40
13.049490000000842
210
0
220
-0
230
1
100
AcDbArc
50
34.103958959708294
51
39.896040268113552
0
SPLINE
5
166
100
AcDbEntity
8
0
100
AcDbSpline
70
4
71
5
72
66
73
60
74
0
42
0.000000001
43
0.0000000001
44
0.0000000001
40
0
40
0
40
0
40
0
40
0
40
0
40
0.018181818181818181
40
0.036363636363636362
40
0.054545454545454543
40
0.072727272727272724
40
0.090909090909090912
40
0.1090909090909091
40
0.12727272727272729
40
0.14545454545454548
40
0.16363636363636366
40
0.18181818181818185
40
0.20000000000000004
40
0.21818181818181823
40
0.23636363636363641
40
0.25454545454545457
40
0.27272727272727276
40
0.29090909090909095
40
0.30909090909090914
40
0.32727272727272733
40
0.34545454545454551
40
0.3636363636363637
40
0.38181818181818189
40
0.40000000000000008
40
0.41818181818181827
40
0.43636363636363645
40
0.45454545454545464
40
0.47272727272727283
40
0.49090909090909102
40
0.50909090909090915
40
0.52727272727272734
40
0.54545454545454553
40
0.56363636363636371
40
0.5818181818181819
40
0.60000000000000009
40
0.61818181818181828
40
0.63636363636363646
40
0.65454545454545465
40
0.67272727272727284
40
0.69090909090909103
40
0.70909090909090922
40
0.7272727272727274
40
0.74545454545454559
40
0.76363636363636378
40
0.78181818181818197
40
0.80000000000000016
40
0.81818181818181834
40
0.83636363636363653
40
0.85454545454545472
40
0.87272727272727291
40
0.89090909090909109
40
0.90909090909090928
40
0.92727272727272747
40
0.94545454545454566
40
0.96363636363636385
40
0.98181818181818203
40
1
40
1
40
1
40
1
40
1
40
1
41
1
41
1
41
1
41
1
41
1
41
1
41
1
41
1
41
1
41
1
41
1
41
1
41
1
41
1
41
1
41
1
41
1
41
1
41
1
41
1
41
1
41
1
41
1
41
1
41
1
41
1
41
1
41
1
41
1
41
1
41
1
41
1
41
1
41
1
41
1
41
1
41
1
41
1
41
1
41
1
41
1
41
1
41
1
41
1
41
1
41
1
41
1
41
1
41
1
41
1
41
1
41
1
41
1
41
1
41
1
41
1
41
1
41
1
41
1
41
1
10
10.011630346671406
20
8.3690104071288403
30
1.1102230246251565e-15
10
10.030981377596893
20
8.3844543276095074
30
1.1102230246251565e-15
10
10.068776392854293
20
8.4146905812364476
30
1.1102230246251565e-15
10
10.122747771719142
20
8.4580901958715433
30
1.1102230246251565e-15
10
10.189264429353058
20
8.5120447455325383
30
1.1102230246251565e-15
10
10.263372594246986
20
8.5730041505589618
30
1.1102230246251565e-15
10
10.328586229447057
20
8.6276082697713949
30
1.1102230246251565e-15
10
10.38521282759115
20
8.6761291792754935
30
1.1102230246251565e-15
10
10.433787983441047
20
8.7190374831663622
30
1.1102230246251565e-15
10
10.475129303333198
20
8.7570484575948981
30
1.1102230246251565e-15
10
10.510415418255539
20
8.791190573879204
30
1.1102230246251565e-15
10
10.541193978112876
20
8.8228106006967071
30
1.1102230246251565e-15
10
10.569128603396088
20
8.8533461289449136
30
1.1102230246251565e-15
10
10.595774046460845
20
8.8841228020826239
30
1.1102230246251565e-15
10
10.622365140834432
20
8.9161647324627076
30
1.1102230246251565e-15
10
10.649539087595452
20
8.9499431538774115
30
1.1102230246251565e-15
10
10.677318650947317
20
8.9853658977775908
30
1.1102230246251565e-15
10
10.705369309477913
20
9.0220194237789126
30
1.1102230246251565e-15
10
10.733189064334315
20
9.0593490396212566
30
1.1102230246251565e-15
10
10.760310111589209
20
9.0968493629249672
30
1.1102230246251565e-15
10
10.786533910148652
20
9.1342873950206034
30
1.1102230246251565e-15
10
10.811909817690848
20
9.1716789605335229
30
1.1102230246251565e-15
10
10.836623420982981
20
9.2091784720449681
30
1.1102230246251565e-15
10
10.860914851076831
20
9.2469974550016172
30
1.1102230246251565e-15
10
10.884985809478875
20
9.2853122768923573
30
1.1102230246251565e-15
10
10.908908526315447
20
9.3241736165115654
30
1.1102230246251565e-15
10
10.932660989230287
20
9.3635410498670719
30
1.1102230246251565e-15
10
10.956167555672502
20
9.4033229267292029
30
1.1102230246251565e-15
10
10.979336080824405
20
9.4434128125376375
30
1.1102230246251565e-15
10
11.002099497988475
20
9.4837303064148202
30
1.1102230246251565e-15
10
11.024446462359377
20
9.5242510848762478
30
1.1102230246251565e-15
10
11.046400097998566
20
9.5649858451983292
30
1.1102230246251565e-15
10
11.068003001644458
20
9.6059653991473848
30
1.1102230246251565e-15
10
11.089300984669354
20
9.6472245252277897
30
1.1102230246251565e-15
10
11.110324747247704
20
9.68878375996219
30
1.1102230246251565e-15
10
11.131081405187604
20
9.730640942547236
30
1.1102230246251565e-15
10
11.151564453229089
20
9.7727810127696753
30
1.1102230246251565e-15
10
11.171759819283416
20
9.8151819271877834
30
1.1102230246251565e-15
10
11.191652888913007
20
9.8578215385826642
30
1.1102230246251565e-15
10
11.211236549554588
20
9.9006854558453501
30
1.1102230246251565e-15
10
11.230512904381191
20
9.9437687148368141
30
1.1102230246251565e-15
10
11.249489145738602
20
9.9870717327052798
30
1.1102230246251565e-15
10
11.268175000309132
20
10.030597793632669
30
1.1102230246251565e-15
10
11.28657977543951
20
10.074350135566368
30
1.1102230246251565e-15
10
11.304708994003223
20
10.118328634940564
30
1.1102230246251565e-15
10
11.322564375383777
20
10.162529725483214
30
1.1102230246251565e-15
10
11.340145426535246
20
10.206947873873695
30
1.1102230246251565e-15
10
11.357450545471819
20
10.251576570598488
30
1.1102230246251565e-15
10
11.374478259089871
20
10.296409458085252
30
1.1102230246251565e-15
10
11.391228592211874
20
10.341441544943686
30
1.1102230246251565e-15
10
11.407702903913883
20
10.386669174851741
30
1.1102230246251565e-15
10
11.423903359942301
20
10.432089691176504
30
1.1102230246251565e-15
10
11.439832534521734
20
10.477701203423006
30
1.1102230246251565e-15
10
11.455492973602311
20
10.523502315341336
30
1.1102230246251565e-15
10
11.470886755306068
20
10.569491850157096
30
1.1102230246251565e-15
10
11.486015466868896
20
10.615668853193007
30
1.1102230246251565e-15
10
11.497907273857528
20
10.652759867329266
30
1.1102230246251565e-15
10
11.506707645506859
20
10.680661975690986
30
1.1102230246251565e-15
10
11.512521928943242
20
10.699300626912871
30
1.1102230246251565e-15
10
11.515415912909448
20
10.708629263934304
30
1.1102230246251565e-15
0
ARC
5
167
100
AcDbEntity
8
0
100
AcDbCircle
10
-6.8881532532271528e-05
20
-0.00089491717705909878
30
1.1102230246251565e-15
40
15.725784503064817
210
0
220
-0
230
1
100
AcDbArc
50
42.923154256190557
51
46.076844971637925
0
SPLINE
5
168
100
AcDbEntity
8
0
100
AcDbSpline
70
4
71
5
72
66
73
60
74
0
42
0.000000001
43
0.0000000001
44
0.0000000001
40
-1
40
-1
40
-1
40
-1
40
-1
40
-1
40
-0.98181818181818203
40
-0.96363636363636385
40
-0.94545454545454566
40
-0.92727272727272747
40
-0.90909090909090928
40
-0.89090909090909109
40
-0.87272727272727291
40
-0.85454545454545472
40
-0.83636363636363653
40
-0.81818181818181834
40
-0.80000000000000016
40
-0.78181818181818197
40
-0.76363636363636378
40
-0.74545454545454559
40
-0.7272727272727274
40
-0.70909090909090922
40
-0.69090909090909103
40
-0.67272727272727284
40
-0.65454545454545465
40
-0.63636363636363646
40
-0.61818181818181828
40
-0.60000000000000009
40
-0.5818181818181819
40
-0.56363636363636371
40
-0.54545454545454553
40
-0.52727272727272734
40
-0.50909090909090915
40
-0.49090909090909102
40
-0.47272727272727283
40
-0.45454545454545464
40
-0.43636363636363645
40
-0.41818181818181827
40
-0.40000000000000008
40
-0.38181818181818189
40
-0.3636363636363637
40
-0.34545454545454551
40
-0.32727272727272733
40
-0.30909090909090914
40
-0.29090909090909095
40
-0.27272727272727276
40
-0.25454545454545457
40
-0.23636363636363641
40
-0.21818181818181823
40
-0.20000000000000004
40
-0.18181818181818185
40
-0.16363636363636366
40
-0.14545454545454548
40
-0.12727272727272729
40
-0.1090909090909091
40
-0.090909090909090912
40
-0.072727272727272724
40
-0.054545454545454543
40
-0.036363636363636362
40
-0.018181818181818181
40
0
40
0
40
0
40
0
40
0
40
0
41
1
41
1
41
1
41
1
41
1
41
1
41
1
41
1
41
1
41
1
41
1
41
1
41
1
41
1
41
1
41
1
41
1
41
1
41
1
41
1
41
1
41
1
41
1
41
1
41
1
41
1
41
1
41
1
41
1
41
1
41
1
41
1
41
1
41
1
41
1
41
1
41
1
41
1
41
1
41
1
41
1
41
1
41
1
41
1
41
1
41
1
41
1
41
1
41
1
41
1
41
1
41
1
41
1
41
1
41
1
41
1
41
1
41
1
41
1
41
1
10
10.908797260779131
20
11.325928897377471
30
1.1102230246251565e-15
10
10.89941953753158
20
11.323198161469698
30
1.1102230246251565e-15
10
10.880682251752315
20
11.317710053145023
30
1.1102230246251565e-15
10
10.852630805239427
20
11.309397981147644
30
1.1102230246251565e-15
10
10.81533789944298
20
11.298155313294941
30
1.1102230246251565e-15
10
10.768903896774024
20
11.283834806359634
30
1.1102230246251565e-15
10
10.722652707658879
20
11.269245997881312
30
1.1102230246251565e-15
10
10.676585258926785
20
11.254387284203881
30
1.1102230246251565e-15
10
10.6307026909036
20
11.239256566983851
30
1.1102230246251565e-15
10
10.585006355193292
20
11.223851276290882
30
1.1102230246251565e-15
10
10.539498097076702
20
11.208168805298776
30
1.1102230246251565e-15
10
10.494180534985176
20
11.192206942226504
30
1.1102230246251565e-15
10
10.44905730096537
20
11.175964264393548
30
1.1102230246251565e-15
10
10.40413338521464
20
11.159440659869535
30
1.1102230246251565e-15
10
10.359415170046372
20
11.142637490578801
30
1.1102230246251565e-15
10
10.314909191941091
20
11.125556244656362
30
1.1102230246251565e-15
10
10.270620991981261
20
11.10819731850313
30
1.1102230246251565e-15
10
10.226554105888059
20
11.090558930757286
30
1.1102230246251565e-15
10
10.182708560820776
20
11.072635557229889
30
1.1102230246251565e-15
10
10.139080956889376
20
11.054417948501744
30
1.1102230246251565e-15
10
10.095667840658065
20
11.035896436688898
30
1.1102230246251565e-15
10
10.052468669518451
20
11.017063837821308
30
1.1102230246251565e-15
10
10.009488370148198
20
10.997917962410115
30
1.1102230246251565e-15
10
9.9667414555959333
20
10.978465670775659
30
1.1102230246251565e-15
10
9.9242503247647083
20
10.958721188607081
30
1.1102230246251565e-15
10
9.8820372633309042
20
10.938698201138466
30
1.1102230246251565e-15
10
9.8401174427464699
20
10.918402949801749
30
1.1102230246251565e-15
10
9.7984928992975977
20
10.897828282161443
30
1.1102230246251565e-15
10
9.757142563797025
20
10.876943861130817
30
1.1102230246251565e-15
10
9.7160308635180677
20
10.855704489284005
30
1.1102230246251565e-15
10
9.6751262479710132
20
10.834068114110165
30
1.1102230246251565e-15
10
9.6344176179378547
20
10.812011801763076
30
1.1102230246251565e-15
10
9.5939294911928226
20
10.789546470816514
30
1.1102230246251565e-15
10
9.5537434268442087
20
10.766737774563591
30
1.1102230246251565e-15
10
9.5139674513919648
20
10.743675986247256
30
1.1102230246251565e-15
10
9.4746945212525606
20
10.720435137379397
30
1.1102230246251565e-15
10
9.4359654384302445
20
10.697036531467134
30
1.1102230246251565e-15
10
9.3977282712587034
20
10.673408833852706
30
1.1102230246251565e-15
10
9.3598031589312587
20
10.649353451789271
30
1.1102230246251565e-15
10
9.3219744173496082
20
10.624633982429167
30
1.1102230246251565e-15
10
9.2840844185121298
20
10.599067562144239
30
1.1102230246251565e-15
10
9.2461164787926702
20
10.572605116951689
30
1.1102230246251565e-15
10
9.2083070263964295
20
10.545441091316018
30
1.1102230246251565e-15
10
9.1711695310415013
20
10.518034397770142
30
1.1102230246251565e-15
10
9.1352673616005013
20
10.490877277987829
30
1.1102230246251565e-15
10
9.1010198336817574
20
10.46429698515148
30
1.1102230246251565e-15
10
9.068518704506193
20
10.438269149960584
30
1.1102230246251565e-15
10
9.0372816913518665
20
10.412164892555458
30
1.1102230246251565e-15
10
9.0062632870097286
20
10.384767440718903
30
1.1102230246251565e-15
10
8.9741109157318331
20
10.354545414578153
30
1.1102230246251565e-15
10
8.939358171369479
20
10.319860536460126
30
1.1102230246251565e-15
10
8.9006314801289612
20
10.279188896547563
30
1.1102230246251565e-15
10
8.8568819573711615
20
10.231369992677468
30
1.1102230246251565e-15
10
8.8073801666768521
20
10.175598826338884
30
1.1102230246251565e-15
10
8.751646228202226
20
10.111348097524068
30
1.1102230246251565e-15
10
8.6894027407901788
20
10.038315108814205
30
1.1102230246251565e-15
10
8.6342955320425947
20
9.9727502194621263
30
1.1102230246251565e-15
10
8.589960596224385
20
9.9195444890112778
30
1.1102230246251565e-15
10
8.5590693332576446
20
9.8822829259217428
30
1.1102230246251565e-15
10
8.5432900426482163
20
9.8632043760419918
30
1.1102230246251565e-15
0
ARC
5
169
100
AcDbEntity
8
0
100
AcDbCircle
10
-6.210090062310217e-05
20
-0.00088825386754807036
30
1.1102230246251565e-15
40
13.049490000000624
210
0
220
-0
230
1
100
AcDbArc
50
49.103958959707484
51
54.896040268112813
0
SPLINE
5
170
100
AcDbEntity
8
0
100
AcDbSpline
70
4
71
5
72
66
73
60
74
0
42
0.000000001
43
0.0000000001
44
0.0000000001
40
0
40
0
40
0
40
0
40
0
40
0
40
0.018181818181818181
40
0.036363636363636362
40
0.054545454545454543
40
0.072727272727272724
40
0.090909090909090912
40
0.1090909090909091
40
0.12727272727272729
40
0.14545454545454548
40
0.16363636363636366
40
0.18181818181818185
40
0.20000000000000004
40
0.21818181818181823
40
0.23636363636363641
40
0.25454545454545457
40
0.27272727272727276
40
0.29090909090909095
40
0.30909090909090914
40
0.32727272727272733
40
0.34545454545454551
40
0.3636363636363637
40
0.38181818181818189
40
0.40000000000000008
40
0.41818181818181827
40
0.43636363636363645
40
0.45454545454545464
40
0.47272727272727283
40
0.49090909090909102
40
0.50909090909090915
40
0.52727272727272734
40
0.54545454545454553
40
0.56363636363636371
40
0.5818181818181819
40
0.60000000000000009
40
0.61818181818181828
40
0.63636363636363646
40
0.65454545454545465
40
0.67272727272727284
40
0.69090909090909103
40
0.70909090909090922
40
0.7272727272727274
40
0.74545454545454559
40
0.76363636363636378
40
0.78181818181818197
40
0.80000000000000016
40
0.81818181818181834
40
0.83636363636363653
40
0.85454545454545472
40
0.87272727272727291
40
0.89090909090909109
40
0.90909090909090928
40
0.92727272727272747
40
0.94545454545454566
40
0.96363636363636385
40
0.98181818181818203
40
1
40
1
40
1
40
1
40
1
40
1
41
1
41
1
41
1
41
1
41
1
41
1
41
1
41
1
41
1
41
1
41
1
41
1
41
1
41
1
41
1
41
1
41
1
41
1
41
1
41
1
41
1
41
1
41
1
41
1
41
1
41
1
41
1
41
1
41
1
41
1
41
1
41
1
41
1
41
1
41
1
41
1
41
1
41
1
41
1
41
1
41
1
41
1
41
1
41
1
41
1
41
1
41
1
41
1
41
1
41
1
41
1
41
1
41
1
41
1
41
1
41
1
41
1
41
1
41
1
41
1
10
7.5042010200284581
20
10.675029705351577
30
1.1102230246251565e-15
10
7.5188954998101432
20
10.694955802348378
30
1.1102230246251565e-15
10
7.5475769628555192
20
10.733943850374519
30
1.1102230246251565e-15
10
7.5884766647576205
20
10.78983347974126
30
1.1102230246251565e-15
10
7.6387623572181553
20
10.859165350516285
30
1.1102230246251565e-15
10
7.6945678926292356
20
10.937228218658868
30
1.1102230246251565e-15
10
7.7434268411058538
20
11.006850278418714
30
1.1102230246251565e-15
10
7.7855657992486336
20
11.068373920083639
30
1.1102230246251565e-15
10
7.8213803105660791
20
11.122392334427655
30
1.1102230246251565e-15
10
7.8514749950423894
20
11.169808037249002
30
1.1102230246251565e-15
10
7.8767221348231997
20
11.211919507702126
30
1.1102230246251565e-15
10
7.8982680755385726
20
11.250428185705065
30
1.1102230246251565e-15
10
7.9173476752831098
20
11.287153254100282
30
1.1102230246251565e-15
10
7.9351196077374464
20
11.323777585661309
30
1.1102230246251565e-15
10
7.9525115707163945
20
11.361609995393373
30
1.1102230246251565e-15
10
7.9700170889187181
20
11.401270579961349
30
1.1102230246251565e-15
10
7.987682005852248
20
11.442676203192676
30
1.1102230246251565e-15
10
8.0052902307726868
20
11.48534083523738
30
1.1102230246251565e-15
10
8.0225004349439093
20
11.52859875765197
30
1.1102230246251565e-15
10
8.0389915570554464
20
11.571840731977991
30
1.1102230246251565e-15
10
8.0546321256300875
20
11.614790312566734
30
1.1102230246251565e-15
10
8.069465720809589
20
11.657475559539755
30
1.1102230246251565e-15
10
8.0836316407286688
20
11.700093657386969
30
1.1102230246251565e-15
10
8.0973070873579402
20
11.742911074489779
30
1.1102230246251565e-15
10
8.1106412421267731
20
11.786150372951925
30
1.1102230246251565e-15
10
8.1236907573424535
20
11.82987919926209
30
1.1102230246251565e-15
10
8.1364448332007004
20
11.874052809625333
30
1.1102230246251565e-15
10
8.1488541254329121
20
11.918563098985027
30
1.1102230246251565e-15
10
8.1608571762711453
20
11.963283410616775
30
1.1102230246251565e-15
10
8.172410013538439
20
12.008118725097813
30
1.1102230246251565e-15
10
8.1835079743752743
20
12.05304261149449
30
1.1102230246251565e-15
10
8.1941706262510081
20
12.098071387529892
30
1.1102230246251565e-15
10
8.2044311397834839
20
12.143245839932055
30
1.1102230246251565e-15
10
8.2143247640211232
20
12.188611419012279
30
1.1102230246251565e-15
10
8.2238758378121659
20
12.234195907318028
30
1.1102230246251565e-15
10
8.2330917937564312
20
12.279999059380142
30
1.1102230246251565e-15
10
8.2419702461253213
20
12.326004644464533
30
1.1102230246251565e-15
10
8.2505033075873868
20
12.372187728116932
30
1.1102230246251565e-15
10
8.2586825938020283
20
12.418523135271911
30
1.1102230246251565e-15
10
8.2665049592537336
20
12.464995124318856
30
1.1102230246251565e-15
10
8.273973720265392
20
12.511599444608816
30
1.1102230246251565e-15
10
8.2810957161436392
20
12.558338360592
30
1.1102230246251565e-15
10
8.287879492133289
20
12.605217561995094
30
1.1102230246251565e-15
10
8.2943332003984551
20
12.652242585353742
30
1.1102230246251565e-15
10
8.3004622076065093
20
12.699414740737451
30
1.1102230246251565e-15
10
8.306269097573491
20
12.746731028401372
30
1.1102230246251565e-15
10
8.3117548261823657
20
12.79418597595869
30
1.1102230246251565e-15
10
8.3169195308197352
20
12.841772881077819
30
1.1102230246251565e-15
10
8.3217634340375461
20
12.889485221548149
30
1.1102230246251565e-15
10
8.3262878516793233
20
12.937318182481031
30
1.1102230246251565e-15
10
8.3304950428375548
20
12.985268583894955
30
1.1102230246251565e-15
10
8.3343877870498257
20
13.033334420215601
30
1.1102230246251565e-15
10
8.3379690601223047
20
13.081514531623256
30
1.1102230246251565e-15
10
8.3412416826299776
20
13.129808228384594
30
1.1102230246251565e-15
10
8.3442079664562581
20
13.178214911681117
30
1.1102230246251565e-15
10
8.3468696918418601
20
13.226734070173267
30
1.1102230246251565e-15
10
8.3487564344727812
20
13.265639064780686
30
1.1102230246251565e-15
10
8.350035343687221
20
13.294868135643714
30
1.1102230246251565e-15
10
8.3508274723084774
20
13.3143765375148
30
1.1102230246251565e-15
10
8.3512084172362684
20
13.324136327105563
30
1.1102230246251565e-15
0
ARC
5
171
100
AcDbEntity
8
0
100
AcDbCircle
10
-6.1961428428776842e-05
20
-0.00088801709274787324
30
1.1102230246251565e-15
40
15.725774725304952
210
0
220
-0
230
1
100
AcDbArc
50
57.923153275513457
51
61.076845952315225
0
SPLINE
5
172
100
AcDbEntity
8
0
100
AcDbSpline
70
4
71
5
72
66
73
60
74
0
42
0.000000001
43
0.0000000001
44
0.0000000001
40
-1
40
-1
40
-1
40
-1
40
-1
40
-1
40
-0.98181818181818203
40
-0.96363636363636385
40
-0.94545454545454566
40
-0.92727272727272747
40
-0.90909090909090928
40
-0.89090909090909109
40
-0.87272727272727291
40
-0.85454545454545472
40
-0.83636363636363653
40
-0.81818181818181834
40
-0.80000000000000016
40
-0.78181818181818197
40
-0.76363636363636378
40
-0.74545454545454559
40
-0.7272727272727274
40
-0.70909090909090922
40
-0.69090909090909103
40
-0.67272727272727284
40
-0.65454545454545465
40
-0.63636363636363646
40
-0.61818181818181828
40
-0.60000000000000009
40
-0.5818181818181819
40
-0.56363636363636371
40
-0.54545454545454553
40
-0.52727272727272734
40
-0.50909090909090915
40
-0.49090909090909102
40
-0.47272727272727283
40
-0.45454545454545464
40
-0.43636363636363645
40
-0.41818181818181827
40
-0.40000000000000008
40
-0.38181818181818189
40
-0.3636363636363637
40
-0.34545454545454551
40
-0.32727272727272733
40
-0.30909090909090914
40
-0.29090909090909095
40
-0.27272727272727276
40
-0.25454545454545457
40
-0.23636363636363641
40
-0.21818181818181823
40
-0.20000000000000004
40
-0.18181818181818185
40
-0.16363636363636366
40
-0.14545454545454548
40
-0.12727272727272729
40
-0.1090909090909091
40
-0.090909090909090912
40
-0.072727272727272724
40
-0.054545454545454543
40
-0.036363636363636362
40
-0.018181818181818181
40
0
40
0
40
0
40
0
40
0
40
0
41
1
41
1
41
1
41
1
41
1
41
1
41
1
41
1
41
1
41
1
41
1
41
1
41
1
41
1
41
1
41
1
41
1
41
1
41
1
41
1
41
1
41
1
41
1
41
1
41
1
41
1
41
1
41
1
41
1
41
1
41
1
41
1
41
1
41
1
41
1
41
1
41
1
41
1
41
1
41
1
41
1
41
1
41
1
41
1
41
1
41
1
41
1
41
1
41
1
41
1
41
1
41
1
41
1
41
1
41
1
41
1
41
1
41
1
41
1
41
1
10
7.6054908927650402
20
13.76339752532134
30
1.1102230246251565e-15
10
7.5971394741492286
20
13.758332703608659
30
1.1102230246251565e-15
10
7.5804610728577062
20
13.748182031629877
30
1.1102230246251565e-15
10
7.5555167787445345
20
13.7328929380201
30
1.1102230246251565e-15
10
7.5224044144568749
20
13.71238124051844
30
1.1102230246251565e-15
10
7.4812590319905041
20
13.686530688791123
30
1.1102230246251565e-15
10
7.4403596754056274
20
13.660468293302122
30
1.1102230246251565e-15
10
7.3997076550080196
20
13.634192744921297
30
1.1102230246251565e-15
10
7.3593046153596386
20
13.607702311943616
30
1.1102230246251565e-15
10
7.3191525271567279
20
13.580994861828099
30
1.1102230246251565e-15
10
7.2792538474998389
20
13.554068354167502
30
1.1102230246251565e-15
10
7.2396116780502204
20
13.526921330244726
30
1.1102230246251565e-15
10
7.2002298953120274
20
13.499553355898053
30
1.1102230246251565e-15
10
7.1611133484152765
20
13.471965614568768
30
1.1102230246251565e-15
10
7.1222678497092895
20
13.444161073638931
30
1.1102230246251565e-15
10
7.0836993277917912
20
13.416142862302362
30
1.1102230246251565e-15
10
7.0454130323414539
20
13.387912797590847
30
1.1102230246251565e-15
10
7.0074128396531856
20
13.359470073953306
30
1.1102230246251565e-15
10
6.9697002057262143
20
13.330809362462412
30
1.1102230246251565e-15
10
6.9322742404448192
20
13.301920848909019
30
1.1102230246251565e-15
10
6.8951341102786321
20
13.272794301019296
30
1.1102230246251565e-15
10
6.8582811504564232
20
13.243422639173579
30
1.1102230246251565e-15
10
6.8217206864647393
20
13.213805023605921
30
1.1102230246251565e-15
10
6.7854649612504758
20
13.183951837130296
30
1.1102230246251565e-15
10
6.7495319286132682
20
13.153882617969879
30
1.1102230246251565e-15
10
6.7139395728643079
20
13.123616353003245
30
1.1102230246251565e-15
10
6.6787009330994493
20
13.0931629976515
30
1.1102230246251565e-15
10
6.6438198274066345
20
13.062516170222093
30
1.1102230246251565e-15
10
6.6092837563296127
20
13.031641114232627
30
1.1102230246251565e-15
10
6.575070057207494
20
13.000484965422904
30
1.1102230246251565e-15
10
6.541159138598128
20
12.968998938319015
30
1.1102230246251565e-15
10
6.5075462151963857
20
12.937158007837631
30
1.1102230246251565e-15
10
6.4742521434188021
20
12.904979066178143
30
1.1102230246251565e-15
10
6.4413387109917846
20
12.872546638602419
30
1.1102230246251565e-15
10
6.4088868990670198
20
12.839975881682742
30
1.1102230246251565e-15
10
6.3769673358826537
20
12.807362363259262
30
1.1102230246251565e-15
10
6.3456139193950349
20
12.774737221275558
30
1.1102230246251565e-15
10
6.31479495023446
20
12.742018110839176
30
1.1102230246251565e-15
10
6.2843880957877367
20
12.708966654684845
30
1.1102230246251565e-15
10
6.2542462067732432
20
12.675298682044211
30
1.1102230246251565e-15
10
6.2242643548228704
20
12.640796763087234
30
1.1102230246251565e-15
10
6.1944391260726261
20
12.605409177946322
30
1.1102230246251565e-15
10
6.1649485667013622
20
12.569384937673833
30
1.1102230246251565e-15
10
6.1361698750672762
20
12.53330021347945
30
1.1102230246251565e-15
10
6.1085198221941726
20
12.497776284902214
30
1.1102230246251565e-15
10
6.0823187365013958
20
12.463237781108177
30
1.1102230246251565e-15
10
6.0576615558974947
20
12.429684911676937
30
1.1102230246251565e-15
10
6.0342451971305238
20
12.396385401356811
30
1.1102230246251565e-15
10
6.0113747016089638
20
12.361893341261052
30
1.1102230246251565e-15
10
5.9881399317620687
20
12.32437945965702
30
1.1102230246251565e-15
10
5.963548465481753
20
12.281881767990479
30
1.1102230246251565e-15
10
5.936667949249995
20
12.232572775354258
30
1.1102230246251565e-15
10
5.9067855983667243
20
12.175060051416938
30
1.1102230246251565e-15
10
5.8734051803021874
20
12.108377235289238
30
1.1102230246251565e-15
10
5.8361996420067088
20
12.031890792232854
30
1.1102230246251565e-15
10
5.7949793783957961
20
11.945236542291063
30
1.1102230246251565e-15
10
5.7587193443070461
20
11.86764292722221
30
1.1102230246251565e-15
10
5.7296657411440304
20
11.804775412320584
30
1.1102230246251565e-15
10
5.7094710746169
20
11.760788259021957
30
1.1102230246251565e-15
10
5.6991673423592717
20
11.738275814037324
30
1.1102230246251565e-15
0
ARC
5
173
100
AcDbEntity
8
0
100
AcDbCircle
10
-6.210090062310217e-05
20
-0.00088825386754807036
30
1.1102230246251565e-15
40
13.049490000000358
210
0
220
-0
230
1
100
AcDbArc
50
64.103958959706915
51
69.89604026811233
0
SPLINE
5
174
100
AcDbEntity
8
0
100
AcDbSpline
70
4
71
5
72
66
73
60
74
0
42
0.000000001
43
0.0000000001
44
0.0000000001
40
0
40
0
40
0
40
0
40
0
40
0
40
0.018181818181818181
40
0.036363636363636362
40
0.054545454545454543
40
0.072727272727272724
40
0.090909090909090912
40
0.1090909090909091
40
0.12727272727272729
40
0.14545454545454548
40
0.16363636363636366
40
0.18181818181818185
40
0.20000000000000004
40
0.21818181818181823
40
0.23636363636363641
40
0.25454545454545457
40
0.27272727272727276
40
0.29090909090909095
40
0.30909090909090914
40
0.32727272727272733
40
0.34545454545454551
40
0.3636363636363637
40
0.38181818181818189
40
0.40000000000000008
40
0.41818181818181827
40
0.43636363636363645
40
0.45454545454545464
40
0.47272727272727283
40
0.49090909090909102
40
0.50909090909090915
40
0.52727272727272734
40
0.54545454545454553
40
0.56363636363636371
40
0.5818181818181819
40
0.60000000000000009
40
0.61818181818181828
40
0.63636363636363646
40
0.65454545454545465
40
0.67272727272727284
40
0.69090909090909103
40
0.70909090909090922
40
0.7272727272727274
40
0.74545454545454559
40
0.76363636363636378
40
0.78181818181818197
40
0.80000000000000016
40
0.81818181818181834
40
0.83636363636363653
40
0.85454545454545472
40
0.87272727272727291
40
0.89090909090909109
40
0.90909090909090928
40
0.92727272727272747
40
0.94545454545454566
40
0.96363636363636385
40
0.98181818181818203
40
1
40
1
40
1
40
1
40
1
40
1
41
1
41
1
41
1
41
1
41
1
41
1
41
1
41
1
41
1
41
1
41
1
41
1
41
1
41
1
41
1
41
1
41
1
41
1
41
1
41
1
41
1
41
1
41
1
41
1
41
1
41
1
41
1
41
1
41
1
41
1
41
1
41
1
41
1
41
1
41
1
41
1
41
1
41
1
41
1
41
1
41
1
41
1
41
1
41
1
41
1
41
1
41
1
41
1
41
1
41
1
41
1
41
1
41
1
41
1
41
1
41
1
41
1
41
1
41
1
41
1
10
4.4853685630754363
20
12.253502837442124
30
1.1102230246251565e-15
10
4.4944050872036954
20
12.276553180372026
30
1.1102230246251565e-15
10
4.5120184037354587
20
12.321636051751355
30
1.1102230246251565e-15
10
4.5370591815874919
20
12.386206909965855
30
1.1102230246251565e-15
10
4.5676870220394612
20
12.466191249434353
30
1.1102230246251565e-15
10
4.6013868729521121
20
12.556037725233516
30
1.1102230246251565e-15
10
4.6305614781051236
20
12.6359330972266
30
1.1102230246251565e-15
10
4.6553410958801953
20
12.706266736550011
30
1.1102230246251565e-15
10
4.675954262898216
20
12.767713995684195
30
1.1102230246251565e-15
10
4.6927514089401479
20
12.821303125113079
30
1.1102230246251565e-15
10
4.7062390227234898
20
12.868514122618119
30
1.1102230246251565e-15
10
4.7170840240432712
20
12.911287149039413
30
1.1102230246251565e-15
10
4.7260083550585925
20
12.951699004860499
30
1.1102230246251565e-15
10
4.7336956490774158
20
12.991675107171922
30
1.1102230246251565e-15
10
4.7407032471280699
20
13.032719780052322
30
1.1102230246251565e-15
10
4.7473473646362825
20
13.07555972447682
30
1.1102230246251565e-15
10
4.7536938002550118
20
13.120126502242117
30
1.1102230246251565e-15
10
4.759659620135225
20
13.16589471616355
30
1.1102230246251565e-15
10
4.7650874266473471
20
13.212132989225667
30
1.1102230246251565e-15
10
4.7698247808958936
20
13.258169745484986
30
1.1102230246251565e-15
10
4.77381624058442
20
13.303703931627464
30
1.1102230246251565e-15
10
4.7770966384034992
20
13.348773931019899
30
1.1102230246251565e-15
10
4.7797494909176104
20
13.393606262264024
30
1.1102230246251565e-15
10
4.7818769949946036
20
13.438504177296331
30
1.1102230246251565e-15
10
4.7835656455187339
20
13.483721265596012
30
1.1102230246251565e-15
10
4.7848526562171161
20
13.529337531349597
30
1.1102230246251565e-15
10
4.7857391758261105
20
13.575306960174785
30
1.1102230246251565e-15
10
4.7862055210898138
20
13.621512359368834
30
1.1102230246251565e-15
10
4.7862251095354216
20
13.667815481489775
30
1.1102230246251565e-15
10
4.7857800601378759
20
13.714113163986358
30
1.1102230246251565e-15
10
4.7848727097498021
20
13.760378669700478
30
1.1102230246251565e-15
10
4.7835177357577043
20
13.806632824776042
30
1.1102230246251565e-15
10
4.7817366221360249
20
13.852923611354642
30
1.1102230246251565e-15
10
4.7795516534447682
20
13.899304054190726
30
1.1102230246251565e-15
10
4.776979148553596
20
13.945807288521808
30
1.1102230246251565e-15
10
4.7740263503347107
20
13.992435000941265
30
1.1102230246251565e-15
10
4.7706951551743506
20
14.039170896291886
30
1.1102230246251565e-15
10
4.7669843980070246
20
14.085988848348734
30
1.1102230246251565e-15
10
4.7628924959680248
20
14.132862369838957
30
1.1102230246251565e-15
10
4.7584204849513307
20
14.179775441414943
30
1.1102230246251565e-15
10
4.7535726684277719
20
14.226724815592712
30
1.1102230246251565e-15
10
4.748355066577413
20
14.273714449806079
30
1.1102230246251565e-15
10
4.742774460863278
20
14.32075205158112
30
1.1102230246251565e-15
10
4.7368372927103728
20
14.367845078735888
30
1.1102230246251565e-15
10
4.7305484068503159
20
14.41499618569601
30
1.1102230246251565e-15
10
4.7239110754488642
20
14.462203143671143
30
1.1102230246251565e-15
10
4.7169276381759966
20
14.509460914142139
30
1.1102230246251565e-15
10
4.7095999624280545
20
14.556763058712001
30
1.1102230246251565e-15
10
4.7019299512460355
20
14.60410333500975
30
1.1102230246251565e-15
10
4.6939201218220807
20
14.651477432775783
30
1.1102230246251565e-15
10
4.6855734793117314
20
14.698882865080243
30
1.1102230246251565e-15
10
4.676893227622938
20
14.746318414084625
30
1.1102230246251565e-15
10
4.6678825413471685
20
14.793783729684558
30
1.1102230246251565e-15
10
4.6585443234667583
20
14.841278875667177
30
1.1102230246251565e-15
10
4.6488809620752471
20
14.888803871977212
30
1.1102230246251565e-15
10
4.638894309097549
20
14.936358685458044
30
1.1102230246251565e-15
10
4.6306474089783052
20
14.974426349446638
30
1.1102230246251565e-15
10
4.6243177002080396
20
15.00299046993214
30
1.1102230246251565e-15
10
4.6200336917573308
20
15.022039157101187
30
1.1102230246251565e-15
10
4.617875636879214
20
15.03156498572778
30
1.1102230246251565e-15
0
ARC
5
175
100
AcDbEntity
8
0
100
AcDbCircle
10
-6.2570007236705734e-05
20
-0.00088994541538760978
30
1.1102230246251565e-15
40
15.725776754725732
210
0
220
-0
230
1
100
AcDbArc
50
72.923153479057788
51
76.076845748770864
0
SPLINE
5
176
100
AcDbEntity
8
0
100
AcDbSpline
70
4
71
5
72
66
73
60
74
0
42
0.000000001
43
0.0000000001
44
0.0000000001
40
-1
40
-1
40
-1
40
-1
40
-1
40
-1
40
-0.98181818181818203
40
-0.96363636363636385
40
-0.94545454545454566
40
-0.92727272727272747
40
-0.90909090909090928
40
-0.89090909090909109
40
-0.87272727272727291
40
-0.85454545454545472
40
-0.83636363636363653
40
-0.81818181818181834
40
-0.80000000000000016
40
-0.78181818181818197
40
-0.76363636363636378
40
-0.74545454545454559
40
-0.7272727272727274
40
-0.70909090909090922
40
-0.69090909090909103
40
-0.67272727272727284
40
-0.65454545454545465
40
-0.63636363636363646
40
-0.61818181818181828
40
-0.60000000000000009
40
-0.5818181818181819
40
-0.56363636363636371
40
-0.54545454545454553
40
-0.52727272727272734
40
-0.50909090909090915
40
-0.49090909090909102
40
-0.47272727272727283
40
-0.45454545454545464
40
-0.43636363636363645
40
-0.41818181818181827
40
-0.40000000000000008
40
-0.38181818181818189
40
-0.3636363636363637
40
-0.34545454545454551
40
-0.32727272727272733
40
-0.30909090909090914
40
-0.29090909090909095
40
-0.27272727272727276
40
-0.25454545454545457
40
-0.23636363636363641
40
-0.21818181818181823
40
-0.20000000000000004
40
-0.18181818181818185
40
-0.16363636363636366
40
-0.14545454545454548
40
-0.12727272727272729
40
-0.1090909090909091
40
-0.090909090909090912
40
-0.072727272727272724
40
-0.054545454545454543
40
-0.036363636363636362
40
-0.018181818181818181
40
0
40
0
40
0
40
0
40
0
40
0
41
1
41
1
41
1
41
1
41
1
41
1
41
1
41
1
41
1
41
1
41
1
41
1
41
1
41
1
41
1
41
1
41
1
41
1
41
1
41
1
41
1
41
1
41
1
41
1
41
1
41
1
41
1
41
1
41
1
41
1
41
1
41
1
41
1
41
1
41
1
41
1
41
1
41
1
41
1
41
1
41
1
41
1
41
1
41
1
41
1
41
1
41
1
41
1
41
1
41
1
41
1
41
1
41
1
41
1
41
1
41
1
41
1
41
1
41
1
41
1
10
3.7838786570033101
20
15.26285282397123
30
1.1102230246251565e-15
10
3.7771226783955365
20
15.255799075680569
30
1.1102230246251565e-15
10
3.7636397670757087
20
15.241677591563512
30
1.1102230246251565e-15
10
3.743502537781966
20
15.220453402799691
30
1.1102230246251565e-15
10
3.716827267907878
20
15.192070513934857
30
1.1102230246251565e-15
10
3.6837744954643821
20
15.156451589798996
30
1.1102230246251565e-15
10
3.6510141949737984
20
15.120691716487686
30
1.1102230246251565e-15
10
3.6185479709222097
20
15.084789968608925
30
1.1102230246251565e-15
10
3.5863778600327807
20
15.048745099107011
30
1.1102230246251565e-15
10
3.5545063177941465
20
15.012555558158988
30
1.1102230246251565e-15
10
3.5229362456794231
20
14.976220010827511
30
1.1102230246251565e-15
10
3.4916710172070542
20
14.939737850869641
30
1.1102230246251565e-15
10
3.4607144891617936
20
14.903109662231099
30
1.1102230246251565e-15
10
3.4300710391463998
20
14.866337843076012
30
1.1102230246251565e-15
10
3.399745513444187
20
14.829426764022024
30
1.1102230246251565e-15
10
3.3697428287458715
20
14.792380982072208
30
1.1102230246251565e-15
10
3.340067585569245
20
14.755203611061072
30
1.1102230246251565e-15
10
3.3107237366196438
20
14.71789487614469
30
1.1102230246251565e-15
10
3.2817140675122074
20
14.680450006814736
30
1.1102230246251565e-15
10
3.2530402585654277
20
14.64285929289424
30
1.1102230246251565e-15
10
3.224704152958128
20
14.605112635032212
30
1.1102230246251565e-15
10
3.1967088727626609
20
14.567203540423858
30
1.1102230246251565e-15
10
3.1690597793514366
20
14.529132576254957
30
1.1102230246251565e-15
10
3.1417660112330421
20
14.490912940261556
30
1.1102230246251565e-15
10
3.1148398535819712
20
14.452568151703362
30
1.1102230246251565e-15
10
3.088293763743069
20
14.41412120517896
30
1.1102230246251565e-15
10
3.0621377598631749
20
14.375585091652985
30
1.1102230246251565e-15
10
3.0363771816356206
20
14.336954635077658
30
1.1102230246251565e-15
10
3.0110089511524114
20
14.298193028171674
30
1.1102230246251565e-15
10
2.9860248602414643
20
14.259243342452518
30
1.1102230246251565e-15
10
2.9614186116326104
20
14.220053384132584
30
1.1102230246251565e-15
10
2.9371920600442092
20
14.180597742309448
30
1.1102230246251565e-15
10
2.9133609792047004
20
14.140898131632589
30
1.1102230246251565e-15
10
2.8899631747272085
20
14.101052189075897
30
1.1102230246251565e-15
10
2.8670470636834615
20
14.061192106811101
30
1.1102230246251565e-15
10
2.844656132935599
20
14.021428476216451
30
1.1102230246251565e-15
10
2.8228150663022289
20
13.981800147672335
30
1.1102230246251565e-15
10
2.8015145569699418
20
13.942219377719763
30
1.1102230246251565e-15
10
2.7806981372845243
20
13.902424249591505
30
1.1102230246251565e-15
10
2.7602972207615957
20
13.862102190366762
30
1.1102230246251565e-15
10
2.7402667293615695
20
13.821016021497259
30
1.1102230246251565e-15
10
2.7206167516318267
20
13.779114901854273
30
1.1102230246251565e-15
10
2.701454818171876
20
13.736685439386383
30
1.1102230246251565e-15
10
2.6829961505349615
20
13.694381798864349
30
1.1102230246251565e-15
10
2.6654825196392884
20
13.652911958518798
30
1.1102230246251565e-15
10
2.6491134368624865
20
13.612768985723294
30
1.1102230246251565e-15
10
2.6339805509391261
20
13.573977654655016
30
1.1102230246251565e-15
10
2.6199806327104112
20
13.53575219801842
30
1.1102230246251565e-15
10
2.6068166324826603
20
13.496516106558209
30
1.1102230246251565e-15
10
2.5940828752346357
20
13.454266878527521
30
1.1102230246251565e-15
10
2.5813285548262304
20
13.406852520768492
30
1.1102230246251565e-15
10
2.5681260763668039
20
13.352266501769417
30
1.1102230246251565e-15
10
2.5541473301941098
20
13.288979354856549
30
1.1102230246251565e-15
10
2.5391631050931212
20
13.215929212660022
30
1.1102230246251565e-15
10
2.5230214629310384
20
13.132419480056374
30
1.1102230246251565e-15
10
2.50563351596697
20
13.038049312813232
30
1.1102230246251565e-15
10
2.4906917179331107
20
12.953714848665241
30
1.1102230246251565e-15
10
2.478899402460776
20
12.885469866560284
30
1.1102230246251565e-15
10
2.4707775655177993
20
12.837754774858006
30
1.1102230246251565e-15
10
2.4666515739342167
20
12.813342620690815
30
1.1102230246251565e-15
0
ARC
5
177
100
AcDbEntity
8
0
100
AcDbCircle
10
-6.210090062310217e-05
20
-0.00088825386754807036
30
1.1102230246251565e-15
40
13.049490000000075
210
0
220
-0
230
1
100
AcDbArc
50
79.103958959706674
51
84.896040268112301
0
SPLINE
5
178
100
AcDbEntity
8
0
100
AcDbSpline
70
4
71
5
72
66
73
60
74
0
42
0.000000001
43
0.0000000001
44
0.0000000001
40
0
40
0
40
0
40
0
40
0
40
0
40
0.018181818181818181
40
0.036363636363636362
40
0.054545454545454543
40
0.072727272727272724
40
0.090909090909090912
40
0.1090909090909091
40
0.12727272727272729
40
0.14545454545454548
40
0.16363636363636366
40
0.18181818181818185
40
0.20000000000000004
40
0.21818181818181823
40
0.23636363636363641
40
0.25454545454545457
40
0.27272727272727276
40
0.29090909090909095
40
0.30909090909090914
40
0.32727272727272733
40
0.34545454545454551
40
0.3636363636363637
40
0.38181818181818189
40
0.40000000000000008
40
0.41818181818181827
40
0.43636363636363645
40
0.45454545454545464
40
0.47272727272727283
40
0.49090909090909102
40
0.50909090909090915
40
0.52727272727272734
40
0.54545454545454553
40
0.56363636363636371
40
0.5818181818181819
40
0.60000000000000009
40
0.61818181818181828
40
0.63636363636363646
40
0.65454545454545465
40
0.67272727272727284
40
0.69090909090909103
40
0.70909090909090922
40
0.7272727272727274
40
0.74545454545454559
40
0.76363636363636378
40
0.78181818181818197
40
0.80000000000000016
40
0.81818181818181834
40
0.83636363636363653
40
0.85454545454545472
40
0.87272727272727291
40
0.89090909090909109
40
0.90909090909090928
40
0.92727272727272747
40
0.94545454545454566
40
0.96363636363636385
40
0.98181818181818203
40
1
40
1
40
1
40
1
40
1
40
1
41
1
41
1
41
1
41
1
41
1
41
1
41
1
41
1
41
1
41
1
41
1
41
1
41
1
41
1
41
1
41
1
41
1
41
1
41
1
41
1
41
1
41
1
41
1
41
1
41
1
41
1
41
1
41
1
41
1
41
1
41
1
41
1
41
1
41
1
41
1
41
1
41
1
41
1
41
1
41
1
41
1
41
1
41
1
41
1
41
1
41
1
41
1
41
1
41
1
41
1
41
1
41
1
41
1
41
1
41
1
41
1
41
1
41
1
41
1
41
1
10
1.1608614188971709
20
12.996859467998705
30
1.1102230246251565e-15
10
1.1636241631862045
20
13.021463214087541
30
1.1102230246251565e-15
10
1.1689690147900855
20
13.069568585645701
30
1.1102230246251565e-15
10
1.1764443809633471
20
13.138420275437333
30
1.1102230246251565e-15
10
1.1853271326950838
20
13.223606283051128
30
1.1102230246251565e-15
10
1.1946247099615599
20
13.319113477660151
30
1.1102230246251565e-15
10
1.2021267706631906
20
13.40383742431367
30
1.1102230246251565e-15
10
1.2078583580692894
20
13.478187939999478
30
1.1102230246251565e-15
10
1.2118654275201748
20
13.542876514751585
30
1.1102230246251565e-15
10
1.2142203373832519
20
13.598987060170771
30
1.1102230246251565e-15
10
1.2150292665789566
20
13.648080233263993
30
1.1102230246251565e-15
10
1.2144342595853777
20
13.692202697038358
30
1.1102230246251565e-15
10
1.2125951434610358
20
13.733547339096788
30
1.1102230246251565e-15
10
1.2096739226609636
20
13.774150906852681
30
1.1102230246251565e-15
10
1.2058195995568941
20
13.815610716256629
30
1.1102230246251565e-15
10
1.2011495307427611
20
13.858710549122616
30
1.1102230246251565e-15
10
1.1957449859472378
20
13.903401329167121
30
1.1102230246251565e-15
10
1.1896618400213375
20
13.949154096821093
30
1.1102230246251565e-15
10
1.1829373528303953
20
13.995221658632726
30
1.1102230246251565e-15
10
1.1755980963527284
20
14.040915867964774
30
1.1102230246251565e-15
10
1.1676684357735705
20
14.085931580124004
30
1.1102230246251565e-15
10
1.1591720825419995
20
14.130314885959221
30
1.1102230246251565e-15
10
1.1501310801363729
20
14.174306201315316
30
1.1102230246251565e-15
10
1.1405656557740924
20
14.21822489556523
30
1.1102230246251565e-15
10
1.1304937233108696
20
14.262338303859526
30
1.1102230246251565e-15
10
1.1199305218396509
20
14.306733335929586
30
1.1102230246251565e-15
10
1.1088890703530523
20
14.351365842610193
30
1.1102230246251565e-15
10
1.0973806879892534
20
14.396117530041701
30
1.1102230246251565e-15
10
1.085415479122178
20
14.440847981399154
30
1.1102230246251565e-15
10
1.0730028724409
20
14.485452921360128
30
1.1102230246251565e-15
10
1.0601520452574629
20
14.529907128634845
30
1.1102230246251565e-15
10
1.0468717846358624
20
14.574234518520692
30
1.1102230246251565e-15
10
1.0331704238097938
20
14.618486998669207
30
1.1102230246251565e-15
10
1.0190557641949947
20
14.662721554728744
30
1.1102230246251565e-15
10
1.0045349925785965
20
14.706974416515376
30
1.1102230246251565e-15
10
0.98961466851543478
20
14.751249087746574
30
1.1102230246251565e-15
10
0.97430084127098149
20
14.795530319330091
30
1.1102230246251565e-15
10
0.95859914744297448
20
14.839792573729406
30
1.1102230246251565e-15
10
0.94251491351217143
20
14.884009856527909
30
1.1102230246251565e-15
10
0.92605328618756089
20
14.928166962333005
30
1.1102230246251565e-15
10
0.90921926281347143
20
14.972261868136101
30
1.1102230246251565e-15
10
0.89201763417809099
20
15.016299954661903
30
1.1102230246251565e-15
10
0.87445295581716198
20
15.060290421980731
30
1.1102230246251565e-15
10
0.8565295194441096
20
15.104242140955193
30
1.1102230246251565e-15
10
0.8382513176944093
20
15.148158929472594
30
1.1102230246251565e-15
10
0.81962208809083137
20
15.192039481585764
30
1.1102230246251565e-15
10
0.80064539464571383
20
15.235879536010211
30
1.1102230246251565e-15
10
0.78132470750514982
20
15.279673357049772
30
1.1102230246251565e-15
10
0.76166348051009747
20
15.323415407580312
30
1.1102230246251565e-15
10
0.74166526065877392
20
15.367102175707615
30
1.1102230246251565e-15
10
0.72133359437342404
20
15.410732037032995
30
1.1102230246251565e-15
10
0.70067189159135213
20
15.454304644446806
30
1.1102230246251565e-15
10
0.67968330934616827
20
15.497820481418787
30
1.1102230246251565e-15
10
0.65837063519412486
20
15.541280360909935
30
1.1102230246251565e-15
10
0.63673617069423605
20
15.584684920270192
30
1.1102230246251565e-15
10
0.61478171324998432
20
15.628034606787146
30
1.1102230246251565e-15
10
0.5969631829950578
20
15.662670691766955
30
1.1102230246251565e-15
10
0.58345621543239901
20
15.688623264271078
30
1.1102230246251565e-15
10
0.5743880180059403
20
15.705914100189784
30
1.1102230246251565e-15
10
0.56983803119548115
20
15.714556798375135
30
1.1102230246251565e-15
0
ARC
5
179
100
AcDbEntity
8
0
100
AcDbCircle
10
-6.2043030206488991e-05
20
-0.00088162270809882901
30
1.1102230246251565e-15
40
15.725768371099122
210
0
220
-0
230
1
100
AcDbArc
50
87.923152638206901
51
91.076846589622136
0
SPLINE
5
180
100
AcDbEntity
8
0
100
AcDbSpline
70
4
71
5
72
66
73
60
74
0
42
0.000000001
43
0.0000000001
44
0.0000000001
40
-1
40
-1
40
-1
40
-1
40
-1
40
-1
40
-0.98181818181818203
40
-0.96363636363636385
40
-0.94545454545454566
40
-0.92727272727272747
40
-0.90909090909090928
40
-0.89090909090909109
40
-0.87272727272727291
40
-0.85454545454545472
40
-0.83636363636363653
40
-0.81818181818181834
40
-0.80000000000000016
40
-0.78181818181818197
40
-0.76363636363636378
40
-0.74545454545454559
40
-0.7272727272727274
40
-0.70909090909090922
40
-0.69090909090909103
40
-0.67272727272727284
40
-0.65454545454545465
40
-0.63636363636363646
40
-0.61818181818181828
40
-0.60000000000000009
40
-0.5818181818181819
40
-0.56363636363636371
40
-0.54545454545454553
40
-0.52727272727272734
40
-0.50909090909090915
40
-0.49090909090909102
40
-0.47272727272727283
40
-0.45454545454545464
40
-0.43636363636363645
40
-0.41818181818181827
40
-0.40000000000000008
40
-0.38181818181818189
40
-0.3636363636363637
40
-0.34545454545454551
40
-0.32727272727272733
40
-0.30909090909090914
40
-0.29090909090909095
40
-0.27272727272727276
40
-0.25454545454545457
40
-0.23636363636363641
40
-0.21818181818181823
40
-0.20000000000000004
40
-0.18181818181818185
40
-0.16363636363636366
40
-0.14545454545454548
40
-0.12727272727272729
40
-0.1090909090909091
40
-0.090909090909090912
40
-0.072727272727272724
40
-0.054545454545454543
40
-0.036363636363636362
40
-0.018181818181818181
40
0
40
0
40
0
40
0
40
0
40
0
41
1
41
1
41
1
41
1
41
1
41
1
41
1
41
1
41
1
41
1
41
1
41
1
41
1
41
1
41
1
41
1
41
1
41
1
41
1
41
1
41
1
41
1
41
1
41
1
41
1
41
1
41
1
41
1
41
1
41
1
41
1
41
1
41
1
41
1
41
1
41
1
41
1
41
1
41
1
41
1
41
1
41
1
41
1
41
1
41
1
41
1
41
1
41
1
41
1
41
1
41
1
41
1
41
1
41
1
41
1
41
1
41
1
41
1
41
1
41
1
10
-0.29560288815174596
20
15.722109392691175
30
1.1102230246251565e-15
10
-0.30030301797404541
20
15.713547419114084
30
1.1102230246251565e-15
10
-0.3096716011971275
20
15.696417478668589
30
1.1102230246251565e-15
10
-0.32362944677323141
20
15.670704588144467
30
1.1102230246251565e-15
10
-0.34204974667470844
20
15.636384754889214
30
1.1102230246251565e-15
10
-0.36475741727570743
20
15.593424829158767
30
1.1102230246251565e-15
10
-0.38714610133275623
20
15.550404454290156
30
1.1102230246251565e-15
10
-0.40921400952241049
20
15.507323151695962
30
1.1102230246251565e-15
10
-0.43095885175953169
20
15.46418024395633
30
1.1102230246251565e-15
10
-0.45237785510056522
20
15.420974869584638
30
1.1102230246251565e-15
10
-0.47346787143045588
20
15.377706490086744
30
1.1102230246251565e-15
10
-0.49422548527332738
20
15.334375393007345
30
1.1102230246251565e-15
10
-0.51464712239737764
20
15.290983140603629
30
1.1102230246251565e-15
10
-0.5347291750535359
20
15.247533182330887
30
1.1102230246251565e-15
10
-0.55446809329066105
20
15.204030994192033
30
1.1102230246251565e-15
10
-0.57386030738940674
20
15.160482250447291
30
1.1102230246251565e-15
10
-0.59290217951052271
20
15.116891149531622
30
1.1102230246251565e-15
10
-0.61158994990855653
20
15.073258931964666
30
1.1102230246251565e-15
10
-0.62991969318751828
20
15.02958171075962
30
1.1102230246251565e-15
10
-0.64788727310565941
20
14.985850541504163
30
1.1102230246251565e-15
10
-0.66548829538456211
20
14.942056146024008
30
1.1102230246251565e-15
10
-0.68271806387236533
20
14.898193060803059
30
1.1102230246251565e-15
10
-0.69957154667945654
20
14.854263221325969
30
1.1102230246251565e-15
10
-0.71604333250980801
20
14.810281740846882
30
1.1102230246251565e-15
10
-0.73212764202842462
20
14.766274516863326
30
1.1102230246251565e-15
10
-0.74781839380424542
20
14.722266984650132
30
1.1102230246251565e-15
10
-0.76310927335956691
20
14.678274285402754
30
1.1102230246251565e-15
10
-0.77799378328697211
20
14.634292801457283
30
1.1102230246251565e-15
10
-0.79246537019188135
20
14.590286183088777
30
1.1102230246251565e-15
10
-0.80651722838422968
20
14.546197317174467
30
1.1102230246251565e-15
10
-0.82014193181365158
20
14.501974158533496
30
1.1102230246251565e-15
10
-0.83333111213427702
20
14.457592642155419
30
1.1102230246251565e-15
10
-0.84607515325927463
20
14.413077825322336
30
1.1102230246251565e-15
10
-0.85836280807886478
20
14.368533802921643
30
1.1102230246251565e-15
10
-0.87018152314466946
20
14.324100794046277
30
1.1102230246251565e-15
10
-0.881517916528335
20
14.279896876992748
30
1.1102230246251565e-15
10
-0.89235820071032412
20
14.235965966989275
30
1.1102230246251565e-15
10
-0.90268865570381773
20
14.192220901582193
30
1.1102230246251565e-15
10
-0.91249603602683815
20
14.148394073697334
30
1.1102230246251565e-15
10
-0.92176569131115516
20
14.104165809589395
30
1.1102230246251565e-15
10
-0.93047977727406239
20
14.059295345317903
30
1.1102230246251565e-15
10
-0.93861539047472076
20
14.013736183231742
30
1.1102230246251565e-15
10
-0.94614284392545045
20
13.967792996317659
30
1.1102230246251565e-15
10
-0.95302355987078136
20
13.922153362659426
30
1.1102230246251565e-15
10
-0.9592072437862309
20
13.877563711632835
30
1.1102230246251565e-15
10
-0.96462879770622534
20
13.834551947092496
30
1.1102230246251565e-15
10
-0.96920610777998906
20
13.793165719493953
30
1.1102230246251565e-15
10
-0.97283551417709568
20
13.752619318240447
30
1.1102230246251565e-15
10
-0.97539591424861294
20
13.711313070208362
30
1.1102230246251565e-15
10
-0.97676087438501324
20
13.667207710821145
30
1.1102230246251565e-15
10
-0.97680886306574111
20
13.618107897094591
30
1.1102230246251565e-15
10
-0.97543357666907449
20
13.561964798718888
30
1.1102230246251565e-15
10
-0.97255608968735729
20
13.497216143304328
30
1.1102230246251565e-15
10
-0.96812297165363947
20
13.422776921507328
30
1.1102230246251565e-15
10
-0.96210069144901944
20
13.337934949626181
30
1.1102230246251565e-15
10
-0.95447136191586379
20
13.242280036025287
30
1.1102230246251565e-15
10
-0.94707666504637367
20
13.156951977161498
30
1.1102230246251565e-15
10
-0.94080406600904687
20
13.087980310604774
30
1.1102230246251565e-15
10
-0.93629958359569088
20
13.039788985146538
30
1.1102230246251565e-15
10
-0.93396665499367937
20
13.015140769760915
30
1.1102230246251565e-15
0
ARC
5
181
100
AcDbEntity
8
0
100
AcDbCircle
10
-6.210090062310217e-05
20
-0.00088825386754807036
30
1.1102230246251565e-15
40
13.049489999999782
210
0
220
0
230
1
100
AcDbArc
50
94.103958959706802
51
99.896040268112529
0
SPLINE
5
182
100
AcDbEntity
8
0
100
AcDbSpline
70
4
71
5
72
66
73
60
74
0
42
0.000000001
43
0.0000000001
44
0.0000000001
40
0
40
0
40
0
40
0
40
0
40
0
40
0.018181818181818181
40
0.036363636363636362
40
0.054545454545454543
40
0.072727272727272724
40
0.090909090909090912
40
0.1090909090909091
40
0.12727272727272729
40
0.14545454545454548
40
0.16363636363636366
40
0.18181818181818185
40
0.20000000000000004
40
0.21818181818181823
40
0.23636363636363641
40
0.25454545454545457
40
0.27272727272727276
40
0.29090909090909095
40
0.30909090909090914
40
0.32727272727272733
40
0.34545454545454551
40
0.3636363636363637
40
0.38181818181818189
40
0.40000000000000008
40
0.41818181818181827
40
0.43636363636363645
40
0.45454545454545464
40
0.47272727272727283
40
0.49090909090909102
40
0.50909090909090915
40
0.52727272727272734
40
0.54545454545454553
40
0.56363636363636371
40
0.5818181818181819
40
0.60000000000000009
40
0.61818181818181828
40
0.63636363636363646
40
0.65454545454545465
40
0.67272727272727284
40
0.69090909090909103
40
0.70909090909090922
40
0.7272727272727274
40
0.74545454545454559
40
0.76363636363636378
40
0.78181818181818197
40
0.80000000000000016
40
0.81818181818181834
40
0.83636363636363653
40
0.85454545454545472
40
0.87272727272727291
40
0.89090909090909109
40
0.90909090909090928
40
0.92727272727272747
40
0.94545454545454566
40
0.96363636363636385
40
0.98181818181818203
40
1
40
1
40
1
40
1
40
1
40
1
41
1
41
1
41
1
41
1
41
1
41
1
41
1
41
1
41
1
41
1
41
1
41
1
41
1
41
1
41
1
41
1
41
1
41
1
41
1
41
1
41
1
41
1
41
1
41
1
41
1
41
1
41
1
41
1
41
1
41
1
41
1
41
1
41
1
41
1
41
1
41
1
41
1
41
1
41
1
41
1
41
1
41
1
41
1
41
1
41
1
41
1
41
1
41
1
41
1
41
1
41
1
41
1
41
1
41
1
41
1
41
1
41
1
41
1
41
1
41
1
10
-2.2427607446384203
20
12.854441071103794
30
1.1102230246251565e-15
10
-2.246460056645422
20
12.878921515713721
30
1.1102230246251565e-15
10
-2.2537479127719591
20
12.92677108587421
30
1.1102230246251565e-15
10
-2.2643473921269077
20
12.995211478363354
30
1.1102230246251565e-15
10
-2.2778150739654199
20
13.079793868477728
30
1.1102230246251565e-15
10
-2.2935533848710228
20
13.174453124416786
30
1.1102230246251565e-15
10
-2.3082351216609687
20
13.258231848780932
30
1.1102230246251565e-15
10
-2.3219421628352088
20
13.331532376058155
30
1.1102230246251565e-15
10
-2.3348142661140074
20
13.395053846965073
30
1.1102230246251565e-15
10
-2.3470620756463263
20
13.44986196743414
30
1.1102230246251565e-15
10
-2.3589869582266303
20
13.497491697501101
30
1.1102230246251565e-15
10
-2.3709814247902732
20
13.539956725638401
30
1.1102230246251565e-15
10
-2.383458655329401
20
13.579416584902315
30
1.1102230246251565e-15
10
-2.3967893145779988
20
13.617880552059368
30
1.1102230246251565e-15
10
-2.4112428930864809
20
13.656930080490516
30
1.1102230246251565e-15
10
-2.4269088907507594
20
13.697352619413586
30
1.1102230246251565e-15
10
-2.4436961051641499
20
13.739121798932473
30
1.1102230246251565e-15
10
-2.4614136605543218
20
13.781741144813868
30
1.1102230246251565e-15
10
-2.4798321787591902
20
13.824498567168158
30
1.1102230246251565e-15
10
-2.4987478877629656
20
13.866736244720258
30
1.1102230246251565e-15
10
-2.5180582753457923
20
13.908165736504321
30
1.1102230246251565e-15
10
-2.5377523671961475
20
13.948837699836357
30
1.1102230246251565e-15
10
-2.5578710951484549
20
13.98899006386201
30
1.1102230246251565e-15
10
-2.578477580087239
20
14.028936550895754
30
1.1102230246251565e-15
10
-2.5996237099850248
20
14.068940023310635
30
1.1102230246251565e-15
10
-2.6213172589020575
20
14.109088373628163
30
1.1102230246251565e-15
10
-2.6435342248123064
20
14.149342326592611
30
1.1102230246251565e-15
10
-2.6662330575640669
20
14.189590548718476
30
1.1102230246251565e-15
10
-2.6893676545330498
20
14.22970002297259
30
1.1102230246251565e-15
10
-2.7129019198656037
20
14.269572467452289
30
1.1102230246251565e-15
10
-2.7368204612088762
20
14.309185895525642
30
1.1102230246251565e-15
10
-2.7611209806452686
20
14.348565681855609
30
1.1102230246251565e-15
10
-2.7858088635779428
20
14.38776412218294
30
1.1102230246251565e-15
10
-2.8108913233890598
20
14.426838279572067
30
1.1102230246251565e-15
10
-2.8363707951416894
20
14.465825009415305
30
1.1102230246251565e-15
10
-2.8622418496212099
20
14.504729393781478
30
1.1102230246251565e-15
10
-2.8884946969303558
20
14.543538268843555
30
1.1102230246251565e-15
10
-2.9151172829329921
20
14.58222842609433
30
1.1102230246251565e-15
10
-2.9420977347937081
20
14.620776135450203
30
1.1102230246251565e-15
10
-2.9694271457282007
20
14.6591680416962
30
1.1102230246251565e-15
10
-2.9971001650793876
20
14.697403484164134
30
1.1102230246251565e-15
10
-3.0251135579353012
20
14.735488900182235
30
1.1102230246251565e-15
10
-3.0534653051397251
20
14.773434355395468
30
1.1102230246251565e-15
10
-3.0821535571640153
20
14.811249529176237
30
1.1102230246251565e-15
10
-3.111175445560344
20
14.848939142690407
30
1.1102230246251565e-15
10
-3.140527022154886
20
14.886502901831655
30
1.1102230246251565e-15
10
-3.1702037414744395
20
14.923937612949302
30
1.1102230246251565e-15
10
-3.2002007671078347
20
14.961238633926099
30
1.1102230246251565e-15
10
-3.2305133297877453
20
14.998401510230696
30
1.1102230246251565e-15
10
-3.2611370944319544
20
15.035423767665002
30
1.1102230246251565e-15
10
-3.2920682150344867
20
15.0723047550626
30
1.1102230246251565e-15
10
-3.3233033080103787
20
15.109045019698611
30
1.1102230246251565e-15
10
-3.3548394490305808
20
15.145645845669613
30
1.1102230246251565e-15
10
-3.3866741559322393
20
15.182108739707987
30
1.1102230246251565e-15
10
-3.4188053705381027
20
15.218434913132729
30
1.1102230246251565e-15
10
-3.4512314724559068
20
15.254625263191222
30
1.1102230246251565e-15
10
-3.4774073294559935
20
15.283469377208094
30
1.1102230246251565e-15
10
-3.4971710782924674
20
15.305041776799165
30
1.1102230246251565e-15
10
-3.5104054820254582
20
15.319396419569944
30
1.1102230246251565e-15
10
-3.5170373266860375
20
15.326567001713034
30
1.1102230246251565e-15
0
ARC
5
183
100
AcDbEntity
8
0
100
AcDbCircle
10
-6.1337474807380383e-05
20
-0.0008912058121800687
30
1.1102230246251565e-15
40
15.725778047909758
210
0
220
0
230
1
100
AcDbArc
50
102.92315360875992
51
106.07684561906849
0
SPLINE
5
184
100
AcDbEntity
8
0
100
AcDbSpline
70
4
71
5
72
66
73
60
74
0
42
0.000000001
43
0.0000000001
44
0.0000000001
40
-1
40
-1
40
-1
40
-1
40
-1
40
-1
40
-0.98181818181818203
40
-0.96363636363636385
40
-0.94545454545454566
40
-0.92727272727272747
40
-0.90909090909090928
40
-0.89090909090909109
40
-0.87272727272727291
40
-0.85454545454545472
40
-0.83636363636363653
40
-0.81818181818181834
40
-0.80000000000000016
40
-0.78181818181818197
40
-0.76363636363636378
40
-0.74545454545454559
40
-0.7272727272727274
40
-0.70909090909090922
40
-0.69090909090909103
40
-0.67272727272727284
40
-0.65454545454545465
40
-0.63636363636363646
40
-0.61818181818181828
40
-0.60000000000000009
40
-0.5818181818181819
40
-0.56363636363636371
40
-0.54545454545454553
40
-0.52727272727272734
40
-0.50909090909090915
40
-0.49090909090909102
40
-0.47272727272727283
40
-0.45454545454545464
40
-0.43636363636363645
40
-0.41818181818181827
40
-0.40000000000000008
40
-0.38181818181818189
40
-0.3636363636363637
40
-0.34545454545454551
40
-0.32727272727272733
40
-0.30909090909090914
40
-0.29090909090909095
40
-0.27272727272727276
40
-0.25454545454545457
40
-0.23636363636363641
40
-0.21818181818181823
40
-0.20000000000000004
40
-0.18181818181818185
40
-0.16363636363636366
40
-0.14545454545454548
40
-0.12727272727272729
40
-0.1090909090909091
40
-0.090909090909090912
40
-0.072727272727272724
40
-0.054545454545454543
40
-0.036363636363636362
40
-0.018181818181818181
40
0
40
0
40
0
40
0
40
0
40
0
41
1
41
1
41
1
41
1
41
1
41
1
41
1
41
1
41
1
41
1
41
1
41
1
41
1
41
1
41
1
41
1
41
1
41
1
41
1
41
1
41
1
41
1
41
1
41
1
41
1
41
1
41
1
41
1
41
1
41
1
41
1
41
1
41
1
41
1
41
1
41
1
41
1
41
1
41
1
41
1
41
1
41
1
41
1
41
1
41
1
41
1
41
1
41
1
41
1
41
1
41
1
41
1
41
1
41
1
41
1
41
1
41
1
41
1
41
1
41
1
10
-4.3549438170597963
20
15.10986965528029
30
1.1102230246251565e-15
10
-4.3572677920166312
20
15.100382940764931
30
1.1102230246251565e-15
10
-4.3618835936787406
20
15.081411921120754
30
1.1102230246251565e-15
10
-4.3687108514277417
20
15.052962619829932
30
1.1102230246251565e-15
10
-4.3776208683593492
20
15.015044682103223
30
1.1102230246251565e-15
10
-4.3884359468925043
20
14.967671402724152
30
1.1102230246251565e-15
10
-4.3989272626964349
20
14.920322293754857
30
1.1102230246251565e-15
10
-4.4090929635498508
20
14.87299735602554
30
1.1102230246251565e-15
10
-4.4189306620711886
20
14.825696527915968
30
1.1102230246251565e-15
10
-4.4284374568334952
20
14.778419694984384
30
1.1102230246251565e-15
10
-4.4376101676186073
20
14.731167151877639
30
1.1102230246251565e-15
10
-4.4464455697522114
20
14.68394006033307
30
1.1102230246251565e-15
10
-4.454940615133431
20
14.636740854454862
30
1.1102230246251565e-15
10
-4.4630927117289954
20
14.589573799915422
30
1.1102230246251565e-15
10
-4.4708998478432687
20
14.542445104922443
30
1.1102230246251565e-15
10
-4.4783600439987445
20
14.495361174301667
30
1.1102230246251565e-15
10
-4.4854708729474781
20
14.44832700497183
30
1.1102230246251565e-15
10
-4.4922290241243408
20
14.401344768276466
30
1.1102230246251565e-15
10
-4.4986296998617306
20
14.354411725641709
30
1.1102230246251565e-15
10
-4.5046665898726621
20
14.307520307966819
30
1.1102230246251565e-15
10
-4.5103330482419217
20
14.260662690546646
30
1.1102230246251565e-15
10
-4.5156231247731267
20
14.213834811483519
30
1.1102230246251565e-15
10
-4.520532459974433
20
14.167039842661017
30
1.1102230246251565e-15
10
-4.5250597385332902
20
14.120293782908126
30
1.1102230246251565e-15
10
-4.5292060808063281
20
14.073623143088469
30
1.1102230246251565e-15
10
-4.5329721957157441
20
14.027054065780973
30
1.1102230246251565e-15
10
-4.5363559027742077
20
13.98060281056442
30
1.1102230246251565e-15
10
-4.5393499896477678
20
13.93426756469661
30
1.1102230246251565e-15
10
-4.5419387182422648
20
13.888014913182833
30
1.1102230246251565e-15
10
-4.5441007328020069
20
13.841791450425076
30
1.1102230246251565e-15
10
-4.5458153900291576
20
13.795548826642355
30
1.1102230246251565e-15
10
-4.547068378239274
20
13.749265962706797
30
1.1102230246251565e-15
10
-4.5478568943075404
20
13.702969550920685
30
1.1102230246251565e-15
10
-4.5481970160995182
20
13.656763050190222
30
1.1102230246251565e-15
10
-4.5481129092869468
20
13.6107851508301
30
1.1102230246251565e-15
10
-4.5476222088316085
20
13.565153371214361
30
1.1102230246251565e-15
10
-4.5467229631097617
20
13.519913698668823
30
1.1102230246251565e-15
10
-4.545379360328802
20
13.474985491722428
30
1.1102230246251565e-15
10
-4.5435093445281609
20
13.430113689973986
30
1.1102230246251565e-15
10
-4.5410160268852025
20
13.384993304091193
30
1.1102230246251565e-15
10
-4.537819856853142
20
13.339396392406027
30
1.1102230246251565e-15
10
-4.5338866769292512
20
13.293283969482868
30
1.1102230246251565e-15
10
-4.5292666668569463
20
13.246958010385988
30
1.1102230246251565e-15
10
-4.52410052168924
20
13.201092649202138
30
1.1102230246251565e-15
10
-4.5185328507845632
20
13.156421898523984
30
1.1102230246251565e-15
10
-4.5126374059084728
20
13.113472522912058
30
1.1102230246251565e-15
10
-4.5063472040171915
20
13.072311801800453
30
1.1102230246251565e-15
10
-4.4993587605366763
20
13.032207626169832
30
1.1102230246251565e-15
10
-4.4911410734197839
20
12.991646174107871
30
1.1102230246251565e-15
10
-4.4810442166667617
20
12.948690390718859
30
1.1102230246251565e-15
10
-4.4683826032679201
20
12.901251192188329
30
1.1102230246251565e-15
10
-4.4525232755052171
20
12.847377073808017
30
1.1102230246251565e-15
10
-4.4329856513448407
20
12.785579423754017
30
1.1102230246251565e-15
10
-4.4094372998375864
20
12.714824032303142
30
1.1102230246251565e-15
10
-4.3816615057052815
20
12.634431661318462
30
1.1102230246251565e-15
10
-4.3495348258742297
20
12.544010725644076
30
1.1102230246251565e-15
10
-4.3203075704776017
20
12.463504038266242
30
1.1102230246251565e-15
10
-4.2963975241962213
20
12.398505992354959
30
1.1102230246251565e-15
10
-4.2795736954654116
20
12.353122592333076
30
1.1102230246251565e-15
10
-4.2709408319102984
20
12.329918050875719
30
1.1102230246251565e-15
0
ARC
5
185
100
AcDbEntity
8
0
100
AcDbCircle
10
-6.210090062310217e-05
20
-0.00088825386754807036
30
1.1102230246251565e-15
40
13.049489999999508
210
0
220
0
230
1
100
AcDbArc
50
109.10395895970724
51
114.89604026811297
0
SPLINE
5
186
100
AcDbEntity
8
0
100
AcDbSpline
70
4
71
5
72
66
73
60
74
0
42
0.000000001
43
0.0000000001
44
0.0000000001
40
0
40
0
40
0
40
0
40
0
40
0
40
0.018181818181818181
40
0.036363636363636362
40
0.054545454545454543
40
0.072727272727272724
40
0.090909090909090912
40
0.1090909090909091
40
0.12727272727272729
40
0.14545454545454548
40
0.16363636363636366
40
0.18181818181818185
40
0.20000000000000004
40
0.21818181818181823
40
0.23636363636363641
40
0.25454545454545457
40
0.27272727272727276
40
0.29090909090909095
40
0.30909090909090914
40
0.32727272727272733
40
0.34545454545454551
40
0.3636363636363637
40
0.38181818181818189
40
0.40000000000000008
40
0.41818181818181827
40
0.43636363636363645
40
0.45454545454545464
40
0.47272727272727283
40
0.49090909090909102
40
0.50909090909090915
40
0.52727272727272734
40
0.54545454545454553
40
0.56363636363636371
40
0.5818181818181819
40
0.60000000000000009
40
0.61818181818181828
40
0.63636363636363646
40
0.65454545454545465
40
0.67272727272727284
40
0.69090909090909103
40
0.70909090909090922
40
0.7272727272727274
40
0.74545454545454559
40
0.76363636363636378
40
0.78181818181818197
40
0.80000000000000016
40
0.81818181818181834
40
0.83636363636363653
40
0.85454545454545472
40
0.87272727272727291
40
0.89090909090909109
40
0.90909090909090928
40
0.92727272727272747
40
0.94545454545454566
40
0.96363636363636385
40
0.98181818181818203
40
1
40
1
40
1
40
1
40
1
40
1
41
1
41
1
41
1
41
1
41
1
41
1
41
1
41
1
41
1
41
1
41
1
41
1
41
1
41
1
41
1
41
1
41
1
41
1
41
1
41
1
41
1
41
1
41
1
41
1
41
1
41
1
41
1
41
1
41
1
41
1
41
1
41
1
41
1
41
1
41
1
41
1
41
1
41
1
41
1
41
1
41
1
41
1
41
1
41
1
41
1
41
1
41
1
41
1
41
1
41
1
41
1
41
1
41
1
41
1
41
1
41
1
41
1
41
1
41
1
41
1
10
-5.4935467018379462
20
11.835953225148257
30
1.1102230246251565e-15
10
-5.5034559681432622
20
11.858642066435667
30
1.1102230246251565e-15
10
-5.5228798766527767
20
11.902974966068488
30
1.1102230246251565e-15
10
-5.5508318645386359
20
11.966339961611574
30
1.1102230246251565e-15
10
-5.5857321796893462
20
12.044554584120363
30
1.1102230246251565e-15
10
-5.6254338388873304
20
12.131915029529182
30
1.1102230246251565e-15
10
-5.6612988370664841
20
12.209039149988623
30
1.1102230246251565e-15
10
-5.6935103946129528
20
12.276294379056797
30
1.1102230246251565e-15
10
-5.7223844580511907
20
12.33431986284887
30
1.1102230246251565e-15
10
-5.7484003189969002
20
12.384090475531133
30
1.1102230246251565e-15
10
-5.7722463523108072
20
12.427010875178841
30
1.1102230246251565e-15
10
-5.7948228753699746
20
12.46492454618812
30
1.1102230246251565e-15
10
-5.8170879176830415
20
12.499810498459635
30
1.1102230246251565e-15
10
-5.8399195529833792
20
12.533513609221469
30
1.1102230246251565e-15
10
-5.8639873994074172
20
12.567491695850148
30
1.1102230246251565e-15
10
-5.8895817140706539
20
12.6024822116043
30
1.1102230246251565e-15
10
-5.916607577181753
20
12.638483290040007
30
1.1102230246251565e-15
10
-5.9447521199156705
20
12.675064776158507
30
1.1102230246251565e-15
10
-5.9736094775564821
20
12.711598211381876
30
1.1102230246251565e-15
10
-6.002812564777229
20
12.74750092923014
30
1.1102230246251565e-15
10
-6.0321877083618407
20
12.782520849239784
30
1.1102230246251565e-15
10
-6.0617374190174713
20
12.816709742981271
30
1.1102230246251565e-15
10
-6.0915628144543712
20
12.850286838422871
30
1.1102230246251565e-15
10
-6.1218060620749775
20
12.88353883116339
30
1.1102230246251565e-15
10
-6.1525853156004633
20
12.91670619716227
30
1.1102230246251565e-15
10
-6.1839308324549034
20
12.949871822001224
30
1.1102230246251565e-15
10
-6.2158092632772828
20
12.983003980877882
30
1.1102230246251565e-15
10
-6.2481516584765417
20
13.016005887873813
30
1.1102230246251565e-15
10
-6.2808790589957013
20
13.04876099063846
30
1.1102230246251565e-15
10
-6.3139311616893137
20
13.081183698438208
30
1.1102230246251565e-15
10
-6.3472874081271424
20
13.113256757651452
30
1.1102230246251565e-15
10
-6.3809521461372523
20
13.145005273065271
30
1.1102230246251565e-15
10
-6.4149441127533313
20
13.176478364641389
30
1.1102230246251565e-15
10
-6.4492850445753582
20
13.207729284106769
30
1.1102230246251565e-15
10
-6.4839868325710883
20
13.238793000796065
30
1.1102230246251565e-15
10
-6.5190455478581217
20
13.269675828794959
30
1.1102230246251565e-15
10
-6.5544483270727314
20
13.300367586634907
30
1.1102230246251565e-15
10
-6.5901775200098189
20
13.330848976459365
30
1.1102230246251565e-15
10
-6.6262155165934624
20
13.361100149683644
30
1.1102230246251565e-15
10
-6.6625502569466768
20
13.391110511406026
30
1.1102230246251565e-15
10
-6.6991764017380468
20
13.420880808321911
30
1.1102230246251565e-15
10
-6.7360924923856791
20
13.450418095669669
30
1.1102230246251565e-15
10
-6.7732991837150536
20
13.479732618711788
30
1.1102230246251565e-15
10
-6.8107971944246035
20
13.508834205697315
30
1.1102230246251565e-15
10
-6.8485849757341484
20
13.537728159331262
30
1.1102230246251565e-15
10
-6.8866586378803998
20
13.566415217391564
30
1.1102230246251565e-15
10
-6.9250129636958677
20
13.594893471503786
30
1.1102230246251565e-15
10
-6.9636420800978165
20
13.623159689482451
30
1.1102230246251565e-15
10
-7.002540227410182
20
13.651210802957856
30
1.1102230246251565e-15
10
-7.0417025778953724
20
13.679045544039576
30
1.1102230246251565e-15
10
-7.0811252480623645
20
13.70666427916823
30
1.1102230246251565e-15
10
-7.120805111264076
20
13.734068412706755
30
1.1102230246251565e-15
10
-7.160739675164062
20
13.761259941868991
30
1.1102230246251565e-15
10
-7.2009269321482838
20
13.788240964477925
30
1.1102230246251565e-15
10
-7.2413652076829917
20
13.815013183274189
30
1.1102230246251565e-15
10
-7.2820531688147119
20
13.841577884321872
30
1.1102230246251565e-15
10
-7.3148025111633652
20
13.862664348674471
30
1.1102230246251565e-15
10
-7.3394761744524528
20
13.878386451975139
30
1.1102230246251565e-15
10
-7.355974881749332
20
13.888826656420077
30
1.1102230246251565e-15
10
-7.3642366350065647
20
13.894036459200551
30
1.1102230246251565e-15
0
ARC
5
187
100
AcDbEntity
8
0
100
AcDbCircle
10
-6.2317981150913831e-05
20
-0.00088787017726860346
30
1.1102230246251565e-15
40
15.725774559323693
210
0
220
0
230
1
100
AcDbArc
50
117.92315325886602
51
121.07684596896256
0
SPLINE
5
188
100
AcDbEntity
8
0
100
AcDbSpline
70
4
71
5
72
66
73
60
74
0
42
0.000000001
43
0.0000000001
44
0.0000000001
40
-1
40
-1
40
-1
40
-1
40
-1
40
-1
40
-0.98181818181818203
40
-0.96363636363636385
40
-0.94545454545454566
40
-0.92727272727272747
40
-0.90909090909090928
40
-0.89090909090909109
40
-0.87272727272727291
40
-0.85454545454545472
40
-0.83636363636363653
40
-0.81818181818181834
40
-0.80000000000000016
40
-0.78181818181818197
40
-0.76363636363636378
40
-0.74545454545454559
40
-0.7272727272727274
40
-0.70909090909090922
40
-0.69090909090909103
40
-0.67272727272727284
40
-0.65454545454545465
40
-0.63636363636363646
40
-0.61818181818181828
40
-0.60000000000000009
40
-0.5818181818181819
40
-0.56363636363636371
40
-0.54545454545454553
40
-0.52727272727272734
40
-0.50909090909090915
40
-0.49090909090909102
40
-0.47272727272727283
40
-0.45454545454545464
40
-0.43636363636363645
40
-0.41818181818181827
40
-0.40000000000000008
40
-0.38181818181818189
40
-0.3636363636363637
40
-0.34545454545454551
40
-0.32727272727272733
40
-0.30909090909090914
40
-0.29090909090909095
40
-0.27272727272727276
40
-0.25454545454545457
40
-0.23636363636363641
40
-0.21818181818181823
40
-0.20000000000000004
40
-0.18181818181818185
40
-0.16363636363636366
40
-0.14545454545454548
40
-0.12727272727272729
40
-0.1090909090909091
40
-0.090909090909090912
40
-0.072727272727272724
40
-0.054545454545454543
40
-0.036363636363636362
40
-0.018181818181818181
40
0
40
0
40
0
40
0
40
0
40
0
41
1
41
1
41
1
41
1
41
1
41
1
41
1
41
1
41
1
41
1
41
1
41
1
41
1
41
1
41
1
41
1
41
1
41
1
41
1
41
1
41
1
41
1
41
1
41
1
41
1
41
1
41
1
41
1
41
1
41
1
41
1
41
1
41
1
41
1
41
1
41
1
41
1
41
1
41
1
41
1
41
1
41
1
41
1
41
1
41
1
41
1
41
1
41
1
41
1
41
1
41
1
41
1
41
1
41
1
41
1
41
1
41
1
41
1
41
1
41
1
10
-8.1175067537938368
20
13.467856738069113
30
1.1102230246251565e-15
10
-8.117296198831955
20
13.45809178653391
30
1.1102230246251565e-15
10
-8.1168446596769588
20
13.438572531331666
30
1.1102230246251565e-15
10
-8.1160760632650106
20
13.409325592145393
30
1.1102230246251565e-15
10
-8.1148685942970822
20
13.370393594742104
30
1.1102230246251565e-15
10
-8.1130540510337177
20
13.321835372414048
30
1.1102230246251565e-15
10
-8.1109330327512428
20
13.273384292868482
30
1.1102230246251565e-15
10
-8.1085037505558351
20
13.225040836298485
30
1.1102230246251565e-15
10
-8.1057638824653111
20
13.176805561083984
30
1.1102230246251565e-15
10
-8.1027105962966868
20
13.128679107627484
30
1.1102230246251565e-15
10
-8.0993408964554057
20
13.080662583636883
30
1.1102230246251565e-15
10
-8.0956519688251447
20
13.032757945871033
30
1.1102230246251565e-15
10
-8.0916414991591772
20
12.984968334400156
30
1.1102230246251565e-15
10
-8.0873080877829686
20
12.937298540414623
30
1.1102230246251565e-15
10
-8.0826513983500892
20
12.889755081247626
30
1.1102230246251565e-15
10
-8.0776711765229727
20
12.842344655812358
30
1.1102230246251565e-15
10
-8.0723663710578073
20
12.795072718979812
30
1.1102230246251565e-15
10
-8.0667343461792278
20
12.747942224944298
30
1.1102230246251565e-15
10
-8.0607697589011522
20
12.700951770174452
30
1.1102230246251565e-15
10
-8.054464554927014
20
12.654095676702903
30
1.1102230246251565e-15
10
-8.0478102896130004
20
12.607368106534285
30
1.1102230246251565e-15
10
-8.0408001642142821
20
12.560766676200753
30
1.1102230246251565e-15
10
-8.0334307887289729
20
12.514295577825973
30
1.1102230246251565e-15
10
-8.0257050334642717
20
12.467970605519955
30
1.1102230246251565e-15
10
-8.017630842118006
20
12.42181707684092
30
1.1102230246251565e-15
10
-8.0092156656537252
20
12.375860060098473
30
1.1102230246251565e-15
10
-8.0004616061710863
20
12.330115825191436
30
1.1102230246251565e-15
10
-7.9913612279182331
20
12.284584487834669
30
1.1102230246251565e-15
10
-7.9818906806265861
20
12.239237844940302
30
1.1102230246251565e-15
10
-7.9720155138343074
20
12.194029837938219
30
1.1102230246251565e-15
10
-7.9617032738027778
20
12.148919107404927
30
1.1102230246251565e-15
10
-7.9509346808266663
20
12.103888996602898
30
1.1102230246251565e-15
10
-7.9397139357714845
20
12.058966013818335
30
1.1102230246251565e-15
10
-7.9280833457980115
20
12.014245931422952
30
1.1102230246251565e-15
10
-7.9161021488474548
20
11.969856459437423
30
1.1102230246251565e-15
10
-7.9038177949781083
20
11.925906547630333
30
1.1102230246251565e-15
10
-7.8912403014619459
20
11.882441121464741
30
1.1102230246251565e-15
10
-7.8783142052150721
20
11.839391556035038
30
1.1102230246251565e-15
10
-7.8648942317766917
20
11.796532719557863
30
1.1102230246251565e-15
10
-7.8508078566832262
20
11.753595091633029
30
1.1102230246251565e-15
10
-7.835919244362394
20
11.710379086713045
30
1.1102230246251565e-15
10
-7.8201853110269228
20
11.666855888371048
30
1.1102230246251565e-15
10
-7.8037326834845766
20
11.623304194647178
30
1.1102230246251565e-15
10
-7.7868717414607405
20
11.58033875450691
30
1.1102230246251565e-15
10
-7.7699321433072051
20
11.5386311420142
30
1.1102230246251565e-15
10
-7.7531214644592295
20
11.498671084300794
30
1.1102230246251565e-15
10
-7.7363924174637768
20
11.460540904797067
30
1.1102230246251565e-15
10
-7.7192623749763296
20
11.423611988081328
30
1.1102230246251565e-15
10
-7.700826622465212
20
11.386559527915063
30
1.1102230246251565e-15
10
-7.6799560329250083
20
11.347680686174444
30
1.1102230246251565e-15
10
-7.6554476854799294
20
11.305135005825315
30
1.1102230246251565e-15
10
-7.6261851033381234
20
11.257201299582144
30
1.1102230246251565e-15
10
-7.5913187988095494
20
11.202566062621791
30
1.1102230246251565e-15
10
-7.5502599950796707
20
11.140316364523152
30
1.1102230246251565e-15
10
-7.5026235614956533
20
11.06985220166824
30
1.1102230246251565e-15
10
-7.4481889115055786
20
10.990827281259488
30
1.1102230246251565e-15
10
-7.3991208867285874
20
10.920628363063514
30
1.1102230246251565e-15
10
-7.359202823332172
20
10.864033447204168
30
1.1102230246251565e-15
10
-7.3312061643986839
20
10.824550776323305
30
1.1102230246251565e-15
10
-7.3168616812693461
20
10.804371259943167
30
1.1102230246251565e-15
0
ARC
5
189
100
AcDbEntity
8
0
100
AcDbCircle
10
-6.210090062310217e-05
20
-0.00088825386754807036
30
1.1102230246251565e-15
40
13.049489999999267
210
0
220
0
230
1
100
AcDbArc
50
124.10395895970795
51
129.89604026811398
0
SPLINE
5
190
100
AcDbEntity
8
0
100
AcDbSpline
70
4
71
5
72
66
73
60
74
0
42
0.000000001
43
0.0000000001
44
0.0000000001
40
0
40
0
40
0
40
0
40
0
40
0
40
0.018181818181818181
40
0.036363636363636362
40
0.054545454545454543
40
0.072727272727272724
40
0.090909090909090912
40
0.1090909090909091
40
0.12727272727272729
40
0.14545454545454548
40
0.16363636363636366
40
0.18181818181818185
40
0.20000000000000004
40
0.21818181818181823
40
0.23636363636363641
40
0.25454545454545457
40
0.27272727272727276
40
0.29090909090909095
40
0.30909090909090914
40
0.32727272727272733
40
0.34545454545454551
40
0.3636363636363637
40
0.38181818181818189
40
0.40000000000000008
40
0.41818181818181827
40
0.43636363636363645
40
0.45454545454545464
40
0.47272727272727283
40
0.49090909090909102
40
0.50909090909090915
40
0.52727272727272734
40
0.54545454545454553
40
0.56363636363636371
40
0.5818181818181819
40
0.60000000000000009
40
0.61818181818181828
40
0.63636363636363646
40
0.65454545454545465
40
0.67272727272727284
40
0.69090909090909103
40
0.70909090909090922
40
0.7272727272727274
40
0.74545454545454559
40
0.76363636363636378
40
0.78181818181818197
40
0.80000000000000016
40
0.81818181818181834
40
0.83636363636363653
40
0.85454545454545472
40
0.87272727272727291
40
0.89090909090909109
40
0.90909090909090928
40
0.92727272727272747
40
0.94545454545454566
40
0.96363636363636385
40
0.98181818181818203
40
1
40
1
40
1
40
1
40
1
40
1
41
1
41
1
41
1
41
1
41
1
41
1
41
1
41
1
41
1
41
1
41
1
41
1
41
1
41
1
41
1
41
1
41
1
41
1
41
1
41
1
41
1
41
1
41
1
41
1
41
1
41
1
41
1
41
1
41
1
41
1
41
1
41
1
41
1
41
1
41
1
41
1
41
1
41
1
41
1
41
1
41
1
41
1
41
1
41
1
41
1
41
1
41
1
41
1
41
1
41
1
41
1
41
1
41
1
41
1
41
1
41
1
41
1
41
1
41
1
41
1
10
-8.3699607618960599
20
10.010804193703223
30
1.1102230246251565e-15
10
-8.385404682371405
20
10.030155224623895
30
1.1102230246251565e-15
10
-8.415640935988888
20
10.067950239872745
30
1.1102230246251565e-15
10
-8.4590405506133983
20
10.121921618728003
30
1.1102230246251565e-15
10
-8.512995100267208
20
10.188438276355342
30
1.1102230246251565e-15
10
-8.5739545052940613
20
10.262546441249496
30
1.1102230246251565e-15
10
-8.6285586245133175
20
10.327760076455625
30
1.1102230246251565e-15
10
-8.677079534027353
20
10.384386674608724
30
1.1102230246251565e-15
10
-8.7199878379282101
20
10.432961830467827
30
1.1102230246251565e-15
10
-8.7579988123643417
20
10.474303150367078
30
1.1102230246251565e-15
10
-8.7921409286525236
20
10.509589265293117
30
1.1102230246251565e-15
10
-8.8237609554703393
20
10.540367825150792
30
1.1102230246251565e-15
10
-8.8542964837163787
20
10.568302450431947
30
1.1102230246251565e-15
10
-8.8850731568510071
20
10.594947893493782
30
1.1102230246251565e-15
10
-8.9171150872285843
20
10.621538987864948
30
1.1102230246251565e-15
10
-8.9508935086421122
20
10.648712934624889
30
1.1102230246251565e-15
10
-8.9863162525424265
20
10.676492497976911
30
1.1102230246251565e-15
10
-9.0229697785447378
20
10.704543156508457
30
1.1102230246251565e-15
10
-9.0602993943883074
20
10.732362911365982
30
1.1102230246251565e-15
10
-9.0977997176928813
20
10.759483958621658
30
1.1102230246251565e-15
10
-9.1352377497888213
20
10.785707757181346
30
1.1102230246251565e-15
10
-9.1726293153015597
20
10.811083664723364
30
1.1102230246251565e-15
10
-9.2101288268125856
20
10.835797268015138
30
1.1102230246251565e-15
10
-9.2479478097688137
20
10.860088698108628
30
1.1102230246251565e-15
10
-9.286262631659282
20
10.884159656510439
30
1.1102230246251565e-15
10
-9.3251239712783853
20
10.908082373346929
30
1.1102230246251565e-15
10
-9.36449140463397
20
10.931834836261826
30
1.1102230246251565e-15
10
-9.4042732814962715
20
10.95534140270418
30
1.1102230246251565e-15
10
-9.4443631673049033
20
10.978509927856264
30
1.1102230246251565e-15
10
-9.4846806611822352
20
11.001273345020465
30
1.1102230246251565e-15
10
-9.5252014396437339
20
11.023620309391422
30
1.1102230246251565e-15
10
-9.5659361999657921
20
11.045573945030585
30
1.1102230246251565e-15
10
-9.6069157539147145
20
11.067176848676365
30
1.1102230246251565e-15
10
-9.6481748799949472
20
11.088474831701108
30
1.1102230246251565e-15
10
-9.6897341147291876
20
11.109498594279383
30
1.1102230246251565e-15
10
-9.7315912973141465
20
11.130255252219261
30
1.1102230246251565e-15
10
-9.7737313675366284
20
11.150738300260802
30
1.1102230246251565e-15
10
-9.8161322819548946
20
11.170933666315197
30
1.1102230246251565e-15
10
-9.8587718933499939
20
11.19082673594486
30
1.1102230246251565e-15
10
-9.901635810612909
20
11.210410396586459
30
1.1102230246251565e-15
10
-9.9447190696044689
20
11.229686751413009
30
1.1102230246251565e-15
10
-9.98802208747286
20
11.248662992770367
30
1.1102230246251565e-15
10
-10.031548148399995
20
11.267348847340896
30
1.1102230246251565e-15
10
-10.075300490333367
20
11.285753622471388
30
1.1102230246251565e-15
10
-10.119278989707274
20
11.30388284103531
30
1.1102230246251565e-15
10
-10.163480080249805
20
11.321738222416025
30
1.1102230246251565e-15
10
-10.207898228640406
20
11.339319273567476
30
1.1102230246251565e-15
10
-10.252526925365569
20
11.356624392503779
30
1.1102230246251565e-15
10
-10.297359812852891
20
11.373652106121302
30
1.1102230246251565e-15
10
-10.342391899711892
20
11.39040243924272
30
1.1102230246251565e-15
10
-10.387619529620242
20
11.406876750944409
30
1.1102230246251565e-15
10
-10.433040045944797
20
11.423077206973035
30
1.1102230246251565e-15
10
-10.47865155819045
20
11.439006381553332
30
1.1102230246251565e-15
10
-10.52445267010739
20
11.454666820635273
30
1.1102230246251565e-15
10
-10.570442204921708
20
11.470060602340457
30
1.1102230246251565e-15
10
-10.616619207956795
20
11.485189313904048
30
1.1102230246251565e-15
10
-10.653710222093455
20
11.497081120892254
30
1.1102230246251565e-15
10
-10.681612330456339
20
11.50588149254046
30
1.1102230246251565e-15
10
-10.700250981679403
20
11.511695775975713
30
1.1102230246251565e-15
10
-10.709579618701522
20
11.514589759941263
30
1.1102230246251565e-15
0
ARC
5
191
100
AcDbEntity
8
0
100
AcDbCircle
10
-5.8872631850180455e-05
20
-0.00089153897681450676
30
1.1102230246251565e-15
40
15.72577960408414
210
0
220
0
230
1
100
AcDbArc
50
132.92315376483913
51
136.0768454629893
0
SPLINE
5
192
100
AcDbEntity
8
0
100
AcDbSpline
70
4
71
5
72
66
73
60
74
0
42
0.000000001
43
0.0000000001
44
0.0000000001
40
-1
40
-1
40
-1
40
-1
40
-1
40
-1
40
-0.98181818181818203
40
-0.96363636363636385
40
-0.94545454545454566
40
-0.92727272727272747
40
-0.90909090909090928
40
-0.89090909090909109
40
-0.87272727272727291
40
-0.85454545454545472
40
-0.83636363636363653
40
-0.81818181818181834
40
-0.80000000000000016
40
-0.78181818181818197
40
-0.76363636363636378
40
-0.74545454545454559
40
-0.7272727272727274
40
-0.70909090909090922
40
-0.69090909090909103
40
-0.67272727272727284
40
-0.65454545454545465
40
-0.63636363636363646
40
-0.61818181818181828
40
-0.60000000000000009
40
-0.5818181818181819
40
-0.56363636363636371
40
-0.54545454545454553
40
-0.52727272727272734
40
-0.50909090909090915
40
-0.49090909090909102
40
-0.47272727272727283
40
-0.45454545454545464
40
-0.43636363636363645
40
-0.41818181818181827
40
-0.40000000000000008
40
-0.38181818181818189
40
-0.3636363636363637
40
-0.34545454545454551
40
-0.32727272727272733
40
-0.30909090909090914
40
-0.29090909090909095
40
-0.27272727272727276
40
-0.25454545454545457
40
-0.23636363636363641
40
-0.21818181818181823
40
-0.20000000000000004
40
-0.18181818181818185
40
-0.16363636363636366
40
-0.14545454545454548
40
-0.12727272727272729
40
-0.1090909090909091
40
-0.090909090909090912
40
-0.072727272727272724
40
-0.054545454545454543
40
-0.036363636363636362
40
-0.018181818181818181
40
0
40
0
40
0
40
0
40
0
40
0
41
1
41
1
41
1
41
1
41
1
41
1
41
1
41
1
41
1
41
1
41
1
41
1
41
1
41
1
41
1
41
1
41
1
41
1
41
1
41
1
41
1
41
1
41
1
41
1
41
1
41
1
41
1
41
1
41
1
41
1
41
1
41
1
41
1
41
1
41
1
41
1
41
1
41
1
41
1
41
1
41
1
41
1
41
1
41
1
41
1
41
1
41
1
41
1
41
1
41
1
41
1
41
1
41
1
41
1
41
1
41
1
41
1
41
1
41
1
41
1
10
-11.326879252144689
20
10.907971107810948
30
1.1102230246251565e-15
10
-11.324148516237045
20
10.8985933845636
30
1.1102230246251565e-15
10
-11.318660407912585
20
10.879856098784677
30
1.1102230246251565e-15
10
-11.310348335915432
20
10.851804652272124
30
1.1102230246251565e-15
10
-11.299105668062822
20
10.814511746475803
30
1.1102230246251565e-15
10
-11.284785161127367
20
10.768077743806611
30
1.1102230246251565e-15
10
-11.270196352648764
20
10.721826554691045
30
1.1102230246251565e-15
10
-11.255337638971055
20
10.675759105958534
30
1.1102230246251565e-15
10
-11.24020692175085
20
10.629876537935088
30
1.1102230246251565e-15
10
-11.224801631057833
20
10.584180202224719
30
1.1102230246251565e-15
10
-11.209119160065779
20
10.53867194410822
30
1.1102230246251565e-15
10
-11.193157296993627
20
10.493354382016872
30
1.1102230246251565e-15
10
-11.176914619160792
20
10.448231147997225
30
1.1102230246251565e-15
10
-11.160391014636879
20
10.403307232246588
30
1.1102230246251565e-15
10
-11.143587845346186
20
10.358589017078339
30
1.1102230246251565e-15
10
-11.126506599423724
20
10.314083038973013
30
1.1102230246251565e-15
10
-11.109147673270417
20
10.26979483901312
30
1.1102230246251565e-15
10
-11.09150928552447
20
10.225727952919856
30
1.1102230246251565e-15
10
-11.073585911996986
20
10.181882407852516
30
1.1102230246251565e-15
10
-11.055368303268818
20
10.138254803921104
30
1.1102230246251565e-15
10
-11.036846791456012
20
10.094841687689811
30
1.1102230246251565e-15
10
-11.018014192588499
20
10.051642516550245
30
1.1102230246251565e-15
10
-10.99886831717736
20
10.008662217180035
30
1.1102230246251565e-15
10
-10.979416025542916
20
9.9659153026277849
30
1.1102230246251565e-15
10
-10.95967154337429
20
9.9234241717965279
30
1.1102230246251565e-15
10
-10.939648555905643
20
9.8812111103626972
30
1.1102230246251565e-15
10
-10.919353304568942
20
9.8392912897782772
30
1.1102230246251565e-15
10
-10.898778636928695
20
9.7976667463294316
30
1.1102230246251565e-15
10
-10.877894215898188
20
9.7563164108289619
30
1.1102230246251565e-15
10
-10.856654844051427
20
9.7152047105500454
30
1.1102230246251565e-15
10
-10.835018468877538
20
9.6743000950029554
30
1.1102230246251565e-15
10
-10.812962156530308
20
9.6335914649696832
30
1.1102230246251565e-15
10
-10.79049682558364
20
9.5931033382245587
30
1.1102230246251565e-15
10
-10.767688129330628
20
9.5529172738758881
30
1.1102230246251565e-15
10
-10.744626341014307
20
9.5131412984236494
30
1.1102230246251565e-15
10
-10.721385492146521
20
9.4738683682842968
30
1.1102230246251565e-15
10
-10.697986886234347
20
9.4351392854620606
30
1.1102230246251565e-15
10
-10.674359188620041
20
9.3969021182906136
30
1.1102230246251565e-15
10
-10.650303806556671
20
9.3589770059632453
30
1.1102230246251565e-15
10
-10.625584337196551
20
9.3211482643816002
30
1.1102230246251565e-15
10
-10.600017916911533
20
9.2832582655440312
30
1.1102230246251565e-15
10
-10.573555471718866
20
9.2452903258244543
30
1.1102230246251565e-15
10
-10.546391446083154
20
9.2074808734281248
30
1.1102230246251565e-15
10
-10.518984752537285
20
9.1703433780731753
30
1.1102230246251565e-15
10
-10.491827632755005
20
9.1344412086321842
30
1.1102230246251565e-15
10
-10.465247339918688
20
9.1001936807135078
30
1.1102230246251565e-15
10
-10.439219504727816
20
9.0676925515380695
30
1.1102230246251565e-15
10
-10.413115247322686
20
9.0364555383839011
30
1.1102230246251565e-15
10
-10.385717795486162
20
9.0054371340419053
30
1.1102230246251565e-15
10
-10.355495769345433
20
8.9732847627640222
30
1.1102230246251565e-15
10
-10.320810891227399
20
8.9385320184014585
30
1.1102230246251565e-15
10
-10.280139251314681
20
8.8998053271604167
30
1.1102230246251565e-15
10
-10.232320347444286
20
8.8560558044018229
30
1.1102230246251565e-15
10
-10.176549181105276
20
8.8065540137066272
30
1.1102230246251565e-15
10
-10.112298452290142
20
8.7508200752313705
30
1.1102230246251565e-15
10
-10.039265463580254
20
8.688576587819286
30
1.1102230246251565e-15
10
-9.9737005742284381
20
8.6334693790723112
30
1.1102230246251565e-15
10
-9.9204948437779699
20
8.589134443254979
30
1.1102230246251565e-15
10
-9.8832332806887742
20
8.558243180289022
30
1.1102230246251565e-15
10
-9.8641547308092132
20
8.5424638896800325
30
1.1102230246251565e-15
0
ARC
5
193
100
AcDbEntity
8
0
100
AcDbCircle
10
-6.210090062310217e-05
20
-0.00088825386754807036
30
1.1102230246251565e-15
40
13.04948999999908
210
0
220
0
230
1
100
AcDbArc
50
139.10395895970893
51
144.89604026811494
0
SPLINE
5
194
100
AcDbEntity
8
0
100
AcDbSpline
70
4
71
5
72
66
73
60
74
0
42
0.000000001
43
0.0000000001
44
0.0000000001
40
0
40
0
40
0
40
0
40
0
40
0
40
0.018181818181818181
40
0.036363636363636362
40
0.054545454545454543
40
0.072727272727272724
40
0.090909090909090912
40
0.1090909090909091
40
0.12727272727272729
40
0.14545454545454548
40
0.16363636363636366
40
0.18181818181818185
40
0.20000000000000004
40
0.21818181818181823
40
0.23636363636363641
40
0.25454545454545457
40
0.27272727272727276
40
0.29090909090909095
40
0.30909090909090914
40
0.32727272727272733
40
0.34545454545454551
40
0.3636363636363637
40
0.38181818181818189
40
0.40000000000000008
40
0.41818181818181827
40
0.43636363636363645
40
0.45454545454545464
40
0.47272727272727283
40
0.49090909090909102
40
0.50909090909090915
40
0.52727272727272734
40
0.54545454545454553
40
0.56363636363636371
40
0.5818181818181819
40
0.60000000000000009
40
0.61818181818181828
40
0.63636363636363646
40
0.65454545454545465
40
0.67272727272727284
40
0.69090909090909103
40
0.70909090909090922
40
0.7272727272727274
40
0.74545454545454559
40
0.76363636363636378
40
0.78181818181818197
40
0.80000000000000016
40
0.81818181818181834
40
0.83636363636363653
40
0.85454545454545472
40
0.87272727272727291
40
0.89090909090909109
40
0.90909090909090928
40
0.92727272727272747
40
0.94545454545454566
40
0.96363636363636385
40
0.98181818181818203
40
1
40
1
40
1
40
1
40
1
40
1
41
1
41
1
41
1
41
1
41
1
41
1
41
1
41
1
41
1
41
1
41
1
41
1
41
1
41
1
41
1
41
1
41
1
41
1
41
1
41
1
41
1
41
1
41
1
41
1
41
1
41
1
41
1
41
1
41
1
41
1
41
1
41
1
41
1
41
1
41
1
41
1
41
1
41
1
41
1
41
1
41
1
41
1
41
1
41
1
41
1
41
1
41
1
41
1
41
1
41
1
41
1
41
1
41
1
41
1
41
1
41
1
41
1
41
1
41
1
41
1
10
-10.675980060118796
20
7.5033748670602751
30
1.1102230246251565e-15
10
-10.695906157114688
20
7.5180693468416502
30
1.1102230246251565e-15
10
-10.7348942051392
20
7.5467508098864649
30
1.1102230246251565e-15
10
-10.790783834504097
20
7.5876505117879152
30
1.1102230246251565e-15
10
-10.860115705277822
20
7.6379362042479571
30
1.1102230246251565e-15
10
-10.938178573420407
20
7.6937417396589769
30
1.1102230246251565e-15
10
-11.007800633181454
20
7.7426006881359841
30
1.1102230246251565e-15
10
-11.069324274848151
20
7.7847396462793927
30
1.1102230246251565e-15
10
-11.123342689193954
20
7.8205541575975097
30
1.1102230246251565e-15
10
-11.170758392016609
20
7.8506488420743619
30
1.1102230246251565e-15
10
-11.212869862470354
20
7.8758959818554564
30
1.1102230246251565e-15
10
-11.251378540473318
20
7.8974419225708639
30
1.1102230246251565e-15
10
-11.288103608868173
20
7.916521522315251
30
1.1102230246251565e-15
10
-11.324727940428712
20
7.9342934547693638
30
1.1102230246251565e-15
10
-11.362560350160376
20
7.9516854177481022
30
1.1102230246251565e-15
10
-11.402220934728167
20
7.9691909359503157
30
1.1102230246251565e-15
10
-11.443626557959538
20
7.9868558528838562
30
1.1102230246251565e-15
10
-11.486291190004401
20
8.0044640778043856
30
1.1102230246251565e-15
10
-11.529549112419168
20
8.0216742819757165
30
1.1102230246251565e-15
10
-11.572791086745307
20
8.0381654040873212
30
1.1102230246251565e-15
10
-11.615740667334066
20
8.0538059726619817
30
1.1102230246251565e-15
10
-11.658425914307024
20
8.0686395678414495
30
1.1102230246251565e-15
10
-11.701044012154187
20
8.0828054877605009
30
1.1102230246251565e-15
10
-11.743861429256983
20
8.0964809343897581
30
1.1102230246251565e-15
10
-11.78710072771916
20
8.1098150891585803
30
1.1102230246251565e-15
10
-11.830829554029368
20
8.1228646043742803
30
1.1102230246251565e-15
10
-11.875003164392638
20
8.1356186802325521
30
1.1102230246251565e-15
10
-11.91951345375233
20
8.1480279724647708
30
1.1102230246251565e-15
10
-11.964233765383982
20
8.1600310233029649
30
1.1102230246251565e-15
10
-12.009069079864897
20
8.1715838605701805
30
1.1102230246251565e-15
10
-12.053992966261497
20
8.1826818214069803
30
1.1102230246251565e-15
10
-12.099021742296937
20
8.1933444732827372
30
1.1102230246251565e-15
10
-12.144196194699218
20
8.2036049868152769
30
1.1102230246251565e-15
10
-12.189561773779534
20
8.2134986110529606
30
1.1102230246251565e-15
10
-12.235146262085335
20
8.2230496848440069
30
1.1102230246251565e-15
10
-12.280949414147431
20
8.2322656407882437
30
1.1102230246251565e-15
10
-12.326954999231779
20
8.2411440931571072
30
1.1102230246251565e-15
10
-12.373138082884154
20
8.2496771546191816
30
1.1102230246251565e-15
10
-12.41947349003912
20
8.2578564408338657
30
1.1102230246251565e-15
10
-12.465945479086034
20
8.2656788062856208
30
1.1102230246251565e-15
10
-12.512549799375947
20
8.2731475672972934
30
1.1102230246251565e-15
10
-12.559288715359108
20
8.2802695631755157
30
1.1102230246251565e-15
10
-12.606167916762258
20
8.2870533391651175
30
1.1102230246251565e-15
10
-12.653192940121041
20
8.2935070474302393
30
1.1102230246251565e-15
10
-12.700365095504933
20
8.2996360546382704
30
1.1102230246251565e-15
10
-12.747681383168977
20
8.3054429446052485
30
1.1102230246251565e-15
10
-12.795136330726258
20
8.3109286732141445
30
1.1102230246251565e-15
10
-12.842723235845169
20
8.3160933778515549
30
1.1102230246251565e-15
10
-12.890435576315035
20
8.3209372810693853
30
1.1102230246251565e-15
10
-12.938268537247426
20
8.3254616987111643
30
1.1102230246251565e-15
10
-12.986218938661057
20
8.3296688898693745
30
1.1102230246251565e-15
10
-13.034284774981874
20
8.333561634081633
30
1.1102230246251565e-15
10
-13.082464886390255
20
8.3371429071541066
30
1.1102230246251565e-15
10
-13.130758583152865
20
8.3404155296618327
30
1.1102230246251565e-15
10
-13.179165266450717
20
8.343381813488179
30
1.1102230246251565e-15
10
-13.227684424943646
20
8.3460435388738325
30
1.1102230246251565e-15
10
-13.266589419550696
20
8.3479302815047358
30
1.1102230246251565e-15
10
-13.29581849041266
20
8.3492091907191242
30
1.1102230246251565e-15
10
-13.315326892282659
20
8.3500013193403255
30
1.1102230246251565e-15
10
-13.325086681872779
20
8.3503822642680863
30
1.1102230246251565e-15
0
ARC
5
195
100
AcDbEntity
8
0
100
AcDbCircle
10
-6.233767447623903e-05
20
-0.00088811439661427925
30
1.1102230246251565e-15
40
15.725774725304944
210
0
220
0
230
1
100
AcDbArc
50
147.92315327551344
51
151.07684595231521
0
SPLINE
5
196
100
AcDbEntity
8
0
100
AcDbSpline
70
4
71
5
72
66
73
60
74
0
42
0.000000001
43
0.0000000001
44
0.0000000001
40
-1
40
-1
40
-1
40
-1
40
-1
40
-1
40
-0.98181818181818203
40
-0.96363636363636385
40
-0.94545454545454566
40
-0.92727272727272747
40
-0.90909090909090928
40
-0.89090909090909109
40
-0.87272727272727291
40
-0.85454545454545472
40
-0.83636363636363653
40
-0.81818181818181834
40
-0.80000000000000016
40
-0.78181818181818197
40
-0.76363636363636378
40
-0.74545454545454559
40
-0.7272727272727274
40
-0.70909090909090922
40
-0.69090909090909103
40
-0.67272727272727284
40
-0.65454545454545465
40
-0.63636363636363646
40
-0.61818181818181828
40
-0.60000000000000009
40
-0.5818181818181819
40
-0.56363636363636371
40
-0.54545454545454553
40
-0.52727272727272734
40
-0.50909090909090915
40
-0.49090909090909102
40
-0.47272727272727283
40
-0.45454545454545464
40
-0.43636363636363645
40
-0.41818181818181827
40
-0.40000000000000008
40
-0.38181818181818189
40
-0.3636363636363637
40
-0.34545454545454551
40
-0.32727272727272733
40
-0.30909090909090914
40
-0.29090909090909095
40
-0.27272727272727276
40
-0.25454545454545457
40
-0.23636363636363641
40
-0.21818181818181823
40
-0.20000000000000004
40
-0.18181818181818185
40
-0.16363636363636366
40
-0.14545454545454548
40
-0.12727272727272729
40
-0.1090909090909091
40
-0.090909090909090912
40
-0.072727272727272724
40
-0.054545454545454543
40
-0.036363636363636362
40
-0.018181818181818181
40
0
40
0
40
0
40
0
40
0
40
0
41
1
41
1
41
1
41
1
41
1
41
1
41
1
41
1
41
1
41
1
41
1
41
1
41
1
41
1
41
1
41
1
41
1
41
1
41
1
41
1
41
1
41
1
41
1
41
1
41
1
41
1
41
1
41
1
41
1
41
1
41
1
41
1
41
1
41
1
41
1
41
1
41
1
41
1
41
1
41
1
41
1
41
1
41
1
41
1
41
1
41
1
41
1
41
1
41
1
41
1
41
1
41
1
41
1
41
1
41
1
41
1
41
1
41
1
41
1
41
1
10
-13.764347880088559
20
7.6046647397968545
30
1.1102230246251565e-15
10
-13.759283058375878
20
7.596313321181043
30
1.1102230246251565e-15
10
-13.749132386397097
20
7.5796349198895205
30
1.1102230246251565e-15
10
-13.73384329278732
20
7.5546906257763489
30
1.1102230246251565e-15
10
-13.713331595285659
20
7.5215782614886892
30
1.1102230246251565e-15
10
-13.687481043558344
20
7.4804328790223185
30
1.1102230246251565e-15
10
-13.661418648069342
20
7.4395335224374426
30
1.1102230246251565e-15
10
-13.635143099688516
20
7.3988815020398357
30
1.1102230246251565e-15
10
-13.608652666710835
20
7.358478462391453
30
1.1102230246251565e-15
10
-13.581945216595319
20
7.318326374188544
30
1.1102230246251565e-15
10
-13.555018708934721
20
7.2784276945316542
30
1.1102230246251565e-15
10
-13.527871685011945
20
7.2387855250820357
30
1.1102230246251565e-15
10
-13.500503710665273
20
7.1994037423438417
30
1.1102230246251565e-15
10
-13.472915969335988
20
7.1602871954470917
30
1.1102230246251565e-15
10
-13.445111428406154
20
7.1214416967411047
30
1.1102230246251565e-15
10
-13.417093217069581
20
7.0828731748236065
30
1.1102230246251565e-15
10
-13.388863152358068
20
7.0445868793732691
30
1.1102230246251565e-15
10
-13.360420428720525
20
7.0065866866850008
30
1.1102230246251565e-15
10
-13.331759717229632
20
6.9688740527580295
30
1.1102230246251565e-15
10
-13.302871203676238
20
6.9314480874766335
30
1.1102230246251565e-15
10
-13.273744655786516
20
6.8943079573104482
30
1.1102230246251565e-15
10
-13.244372993940798
20
6.8574549974882384
30
1.1102230246251565e-15
10
-13.214755378373145
20
6.8208945334965545
30
1.1102230246251565e-15
10
-13.184902191897516
20
6.7846388082822902
30
1.1102230246251565e-15
10
-13.154832972737099
20
6.7487057756450834
30
1.1102230246251565e-15
10
-13.124566707770464
20
6.713113419896124
30
1.1102230246251565e-15
10
-13.094113352418722
20
6.6778747801312646
30
1.1102230246251565e-15
10
-13.063466524989316
20
6.6429936744384488
30
1.1102230246251565e-15
10
-13.032591468999847
20
6.608457603361428
30
1.1102230246251565e-15
10
-13.001435320190124
20
6.5742439042393084
30
1.1102230246251565e-15
10
-12.969949293086234
20
6.5403329856299433
30
1.1102230246251565e-15
10
-12.938108362604851
20
6.5067200622282009
30
1.1102230246251565e-15
10
-12.905929420945363
20
6.4734259904506164
30
1.1102230246251565e-15
10
-12.873496993369638
20
6.4405125580235989
30
1.1102230246251565e-15
10
-12.840926236449961
20
6.408060746098835
30
1.1102230246251565e-15
10
-12.808312718026482
20
6.376141182914469
30
1.1102230246251565e-15
10
-12.775687576042777
20
6.3447877664268493
30
1.1102230246251565e-15
10
-12.742968465606396
20
6.3139687972662761
30
1.1102230246251565e-15
10
-12.709917009452067
20
6.283561942819551
30
1.1102230246251565e-15
10
-12.676249036811431
20
6.2534200538050575
30
1.1102230246251565e-15
10
-12.641747117854454
20
6.2234382018546865
30
1.1102230246251565e-15
10
-12.606359532713542
20
6.1936129731044414
30
1.1102230246251565e-15
10
-12.570335292441053
20
6.1641224137331774
30
1.1102230246251565e-15
10
-12.534250568246673
20
6.1353437220990923
30
1.1102230246251565e-15
10
-12.498726639669433
20
6.1076936692259878
30
1.1102230246251565e-15
10
-12.464188135875396
20
6.0814925835332101
30
1.1102230246251565e-15
10
-12.430635266444156
20
6.0568354029293108
30
1.1102230246251565e-15
10
-12.397335756124031
20
6.0334190441623381
30
1.1102230246251565e-15
10
-12.362843696028271
20
6.0105485486407781
30
1.1102230246251565e-15
10
-12.32532981442424
20
5.987313778793883
30
1.1102230246251565e-15
10
-12.282832122757698
20
5.9627223125135673
30
1.1102230246251565e-15
10
-12.233523130121478
20
5.9358417962818102
30
1.1102230246251565e-15
10
-12.176010406184158
20
5.9059594453985387
30
1.1102230246251565e-15
10
-12.109327590056457
20
5.8725790273340017
30
1.1102230246251565e-15
10
-12.032841147000074
20
5.8353734890385232
30
1.1102230246251565e-15
10
-11.946186897058283
20
5.7941532254276105
30
1.1102230246251565e-15
10
-11.86859328198943
20
5.7578931913388605
30
1.1102230246251565e-15
10
-11.805725767087804
20
5.7288395881758447
30
1.1102230246251565e-15
10
-11.761738613789177
20
5.7086449216487161
30
1.1102230246251565e-15
10
-11.739226168804544
20
5.698341189391086
30
1.1102230246251565e-15
0
ARC
5
197
100
AcDbEntity
8
0
100
AcDbCircle
10
-6.210090062310217e-05
20
-0.00088825386754807036
30
1.1102230246251565e-15
40
13.049489999998949
210
0
220
0
230
1
100
AcDbArc
50
154.1039589597101
51
159.89604026811608
0
SPLINE
5
198
100
AcDbEntity
8
0
100
AcDbSpline
70
4
71
5
72
66
73
60
74
0
42
0.000000001
43
0.0000000001
44
0.0000000001
40
0
40
0
40
0
40
0
40
0
40
0
40
0.018181818181818181
40
0.036363636363636362
40
0.054545454545454543
40
0.072727272727272724
40
0.090909090909090912
40
0.1090909090909091
40
0.12727272727272729
40
0.14545454545454548
40
0.16363636363636366
40
0.18181818181818185
40
0.20000000000000004
40
0.21818181818181823
40
0.23636363636363641
40
0.25454545454545457
40
0.27272727272727276
40
0.29090909090909095
40
0.30909090909090914
40
0.32727272727272733
40
0.34545454545454551
40
0.3636363636363637
40
0.38181818181818189
40
0.40000000000000008
40
0.41818181818181827
40
0.43636363636363645
40
0.45454545454545464
40
0.47272727272727283
40
0.49090909090909102
40
0.50909090909090915
40
0.52727272727272734
40
0.54545454545454553
40
0.56363636363636371
40
0.5818181818181819
40
0.60000000000000009
40
0.61818181818181828
40
0.63636363636363646
40
0.65454545454545465
40
0.67272727272727284
40
0.69090909090909103
40
0.70909090909090922
40
0.7272727272727274
40
0.74545454545454559
40
0.76363636363636378
40
0.78181818181818197
40
0.80000000000000016
40
0.81818181818181834
40
0.83636363636363653
40
0.85454545454545472
40
0.87272727272727291
40
0.89090909090909109
40
0.90909090909090928
40
0.92727272727272747
40
0.94545454545454566
40
0.96363636363636385
40
0.98181818181818203
40
1
40
1
40
1
40
1
40
1
40
1
41
1
41
1
41
1
41
1
41
1
41
1
41
1
41
1
41
1
41
1
41
1
41
1
41
1
41
1
41
1
41
1
41
1
41
1
41
1
41
1
41
1
41
1
41
1
41
1
41
1
41
1
41
1
41
1
41
1
41
1
41
1
41
1
41
1
41
1
41
1
41
1
41
1
41
1
41
1
41
1
41
1
41
1
41
1
41
1
41
1
41
1
41
1
41
1
41
1
41
1
41
1
41
1
41
1
41
1
41
1
41
1
41
1
41
1
41
1
41
1
10
-12.254453192209343
20
4.4845424101072506
30
1.1102230246251565e-15
10
-12.277503535139246
20
4.4935789342355097
30
1.1102230246251565e-15
10
-12.322586406518575
20
4.5111922507672739
30
1.1102230246251565e-15
10
-12.387157264733077
20
4.5362330286193062
30
1.1102230246251565e-15
10
-12.467141604201572
20
4.5668608690712755
30
1.1102230246251565e-15
10
-12.556988080000735
20
4.6005607199839265
30
1.1102230246251565e-15
10
-12.636883451993819
20
4.629735325136938
30
1.1102230246251565e-15
10
-12.707217091317231
20
4.6545149429120105
30
1.1102230246251565e-15
10
-12.768664350451415
20
4.6751281099300321
30
1.1102230246251565e-15
10
-12.822253479880299
20
4.6919252559719631
30
1.1102230246251565e-15
10
-12.869464477385343
20
4.705412869755305
30
1.1102230246251565e-15
10
-12.912237503806633
20
4.7162578710750864
30
1.1102230246251565e-15
10
-12.952649359627719
20
4.7251822020904077
30
1.1102230246251565e-15
10
-12.992625461939141
20
4.7328694961092301
30
1.1102230246251565e-15
10
-13.033670134819541
20
4.7398770941598842
30
1.1102230246251565e-15
10
-13.07651007924404
20
4.7465212116680968
30
1.1102230246251565e-15
10
-13.121076857009337
20
4.7528676472868261
30
1.1102230246251565e-15
10
-13.166845070930769
20
4.7588334671670394
30
1.1102230246251565e-15
10
-13.213083343992887
20
4.7642612736791614
30
1.1102230246251565e-15
10
-13.259120100252206
20
4.7689986279277079
30
1.1102230246251565e-15
10
-13.304654286394683
20
4.7729900876162343
30
1.1102230246251565e-15
10
-13.349724285787122
20
4.7762704854353135
30
1.1102230246251565e-15
10
-13.394556617031244
20
4.7789233379494247
30
1.1102230246251565e-15
10
-13.43945453206355
20
4.7810508420264188
30
1.1102230246251565e-15
10
-13.484671620363232
20
4.7827394925505491
30
1.1102230246251565e-15
10
-13.530287886116817
20
4.7840265032489313
30
1.1102230246251565e-15
10
-13.576257314942005
20
4.7849130228579257
30
1.1102230246251565e-15
10
-13.622462714136056
20
4.785379368121629
30
1.1102230246251565e-15
10
-13.668765836256995
20
4.7853989565672359
30
1.1102230246251565e-15
10
-13.715063518753578
20
4.7849539071696903
30
1.1102230246251565e-15
10
-13.761329024467697
20
4.7840465567816164
30
1.1102230246251565e-15
10
-13.807583179543261
20
4.7826915827895196
30
1.1102230246251565e-15
10
-13.853873966121862
20
4.7809104691678401
30
1.1102230246251565e-15
10
-13.900254408957945
20
4.7787255004765834
30
1.1102230246251565e-15
10
-13.946757643289027
20
4.7761529955854112
30
1.1102230246251565e-15
10
-13.993385355708485
20
4.7732001973665259
30
1.1102230246251565e-15
10
-14.040121251059105
20
4.7698690022061658
30
1.1102230246251565e-15
10
-14.086939203115955
20
4.7661582450388398
30
1.1102230246251565e-15
10
-14.133812724606177
20
4.76206634299984
30
1.1102230246251565e-15
10
-14.180725796182163
20
4.7575943319831451
30
1.1102230246251565e-15
10
-14.227675170359934
20
4.7527465154595863
30
1.1102230246251565e-15
10
-14.2746648045733
20
4.7475289136092274
30
1.1102230246251565e-15
10
-14.32170240634834
20
4.7419483078950933
30
1.1102230246251565e-15
10
-14.368795433503108
20
4.7360111397421871
30
1.1102230246251565e-15
10
-14.41594654046323
20
4.729722253882132
30
1.1102230246251565e-15
10
-14.463153498438366
20
4.7230849224806795
30
1.1102230246251565e-15
10
-14.51041126890936
20
4.7161014852078118
30
1.1102230246251565e-15
10
-14.55771341347922
20
4.7087738094598697
30
1.1102230246251565e-15
10
-14.605053689776973
20
4.7011037982778507
30
1.1102230246251565e-15
10
-14.652427787543003
20
4.693093968853896
30
1.1102230246251565e-15
10
-14.699833219847463
20
4.6847473263435457
30
1.1102230246251565e-15
10
-14.747268768851844
20
4.6760670746547532
30
1.1102230246251565e-15
10
-14.794734084451777
20
4.6670563883789828
30
1.1102230246251565e-15
10
-14.842229230434397
20
4.6577181704985735
30
1.1102230246251565e-15
10
-14.889754226744431
20
4.6480548091070624
30
1.1102230246251565e-15
10
-14.937309040225264
20
4.6380681561293642
30
1.1102230246251565e-15
10
-14.975376704213858
20
4.6298212560101213
30
1.1102230246251565e-15
10
-15.00394082469936
20
4.6234915472398548
30
1.1102230246251565e-15
10
-15.022989511868406
20
4.619207538789146
30
1.1102230246251565e-15
10
-15.032515340494999
20
4.6170494839110283
30
1.1102230246251565e-15
0
ARC
5
199
100
AcDbEntity
8
0
100
AcDbCircle
10
-6.0409351818152218e-05
20
-0.0008887229754289673
30
1.1102230246251565e-15
40
15.725776754725748
210
0
220
0
230
1
100
AcDbArc
50
162.92315347905779
51
166.07684574877064
0
SPLINE
5
200
100
AcDbEntity
8
0
100
AcDbSpline
70
4
71
5
72
66
73
60
74
0
42
0.000000001
43
0.0000000001
44
0.0000000001
40
-1
40
-1
40
-1
40
-1
40
-1
40
-1
40
-0.98181818181818203
40
-0.96363636363636385
40
-0.94545454545454566
40
-0.92727272727272747
40
-0.90909090909090928
40
-0.89090909090909109
40
-0.87272727272727291
40
-0.85454545454545472
40
-0.83636363636363653
40
-0.81818181818181834
40
-0.80000000000000016
40
-0.78181818181818197
40
-0.76363636363636378
40
-0.74545454545454559
40
-0.7272727272727274
40
-0.70909090909090922
40
-0.69090909090909103
40
-0.67272727272727284
40
-0.65454545454545465
40
-0.63636363636363646
40
-0.61818181818181828
40
-0.60000000000000009
40
-0.5818181818181819
40
-0.56363636363636371
40
-0.54545454545454553
40
-0.52727272727272734
40
-0.50909090909090915
40
-0.49090909090909102
40
-0.47272727272727283
40
-0.45454545454545464
40
-0.43636363636363645
40
-0.41818181818181827
40
-0.40000000000000008
40
-0.38181818181818189
40
-0.3636363636363637
40
-0.34545454545454551
40
-0.32727272727272733
40
-0.30909090909090914
40
-0.29090909090909095
40
-0.27272727272727276
40
-0.25454545454545457
40
-0.23636363636363641
40
-0.21818181818181823
40
-0.20000000000000004
40
-0.18181818181818185
40
-0.16363636363636366
40
-0.14545454545454548
40
-0.12727272727272729
40
-0.1090909090909091
40
-0.090909090909090912
40
-0.072727272727272724
40
-0.054545454545454543
40
-0.036363636363636362
40
-0.018181818181818181
40
0
40
0
40
0
40
0
40
0
40
0
41
1
41
1
41
1
41
1
41
1
41
1
41
1
41
1
41
1
41
1
41
1
41
1
41
1
41
1
41
1
41
1
41
1
41
1
41
1
41
1
41
1
41
1
41
1
41
1
41
1
41
1
41
1
41
1
41
1
41
1
41
1
41
1
41
1
41
1
41
1
41
1
41
1
41
1
41
1
41
1
41
1
41
1
41
1
41
1
41
1
41
1
41
1
41
1
41
1
41
1
41
1
41
1
41
1
41
1
41
1
41
1
41
1
41
1
41
1
41
1
10
-15.263803178738444
20
3.7830525040351204
30
1.1102230246251565e-15
10
-15.256749430447996
20
3.7762965254273988
30
1.1102230246251565e-15
10
-15.242627946331302
20
3.7628136141076611
30
1.1102230246251565e-15
10
-15.221403757567861
20
3.7426763848140103
30
1.1102230246251565e-15
10
-15.19302086870319
20
3.7160011149399597
30
1.1102230246251565e-15
10
-15.157401944567084
20
3.6829483424964033
30
1.1102230246251565e-15
10
-15.121642071255323
20
3.6501880420057109
30
1.1102230246251565e-15
10
-15.085740323376069
20
3.6177218179540023
30
1.1102230246251565e-15
10
-15.049695453873815
20
3.5855517070644916
30
1.1102230246251565e-15
10
-15.013505912925694
20
3.553680164825832
30
1.1102230246251565e-15
10
-14.977170365594322
20
3.5221100927111335
30
1.1102230246251565e-15
10
-14.940688205636679
20
3.4908448642388192
30
1.1102230246251565e-15
10
-14.904060016998372
20
3.4598883361936199
30
1.1102230246251565e-15
10
-14.867288197843438
20
3.4292448861782656
30
1.1102230246251565e-15
10
-14.830377118789503
20
3.398919360476067
30
1.1102230246251565e-15
10
-14.793331336839632
20
3.3689166757777378
30
1.1102230246251565e-15
10
-14.756153965828378
20
3.3392414326010798
30
1.1102230246251565e-15
10
-14.71884523091186
20
3.309897583651443
30
1.1102230246251565e-15
10
-14.681400361581829
20
3.2808879145439858
30
1.1102230246251565e-15
10
-14.64380964766133
20
3.2522141055972016
30
1.1102230246251565e-15
10
-14.606062989799327
20
3.2238779999899108
30
1.1102230246251565e-15
10
-14.568153895191054
20
3.1958827197944633
30
1.1102230246251565e-15
10
-14.530082931022189
20
3.1682336263832549
30
1.1102230246251565e-15
10
-14.491863295028839
20
3.1409398582648729
30
1.1102230246251565e-15
10
-14.453518506470616
20
3.1140137006137976
30
1.1102230246251565e-15
10
-14.415071559946176
20
3.087467610774886
30
1.1102230246251565e-15
10
-14.376535446420192
20
3.061311606894987
30
1.1102230246251565e-15
10
-14.337904989844894
20
3.0355510286674301
30
1.1102230246251565e-15
10
-14.299143382938908
20
3.0101827981842169
30
1.1102230246251565e-15
10
-14.260193697219743
20
2.9851987072732666
30
1.1102230246251565e-15
10
-14.221003738899809
20
2.9605924586644168
30
1.1102230246251565e-15
10
-14.181548097076661
20
2.9363659070760173
30
1.1102230246251565e-15
10
-14.141848486399804
20
2.9125348262365174
30
1.1102230246251565e-15
10
-14.102002543843128
20
2.889137021759034
30
1.1102230246251565e-15
10
-14.062142461578361
20
2.8662209107152945
30
1.1102230246251565e-15
10
-14.022378830983683
20
2.8438299799674227
30
1.1102230246251565e-15
10
-13.982750502439538
20
2.821988913334037
30
1.1102230246251565e-15
10
-13.943169732486993
20
2.8006884040017437
30
1.1102230246251565e-15
10
-13.903374604358827
20
2.7798719843163355
30
1.1102230246251565e-15
10
-13.863052545134147
20
2.759471067793418
30
1.1102230246251565e-15
10
-13.821966376264641
20
2.7394405763933993
30
1.1102230246251565e-15
10
-13.780065256621457
20
2.7197905986636348
30
1.1102230246251565e-15
10
-13.737635794153229
20
2.7006286652036411
30
1.1102230246251565e-15
10
-13.695332153630897
20
2.6821699975666844
30
1.1102230246251565e-15
10
-13.65386231328532
20
2.6646563666710064
30
1.1102230246251565e-15
10
-13.613719340490164
20
2.6482872838942524
30
1.1102230246251565e-15
10
-13.57492800942256
20
2.6331543979709808
30
1.1102230246251565e-15
10
-13.536702552786689
20
2.6191544797423583
30
1.1102230246251565e-15
10
-13.497466461326937
20
2.6059904795146664
30
1.1102230246251565e-15
10
-13.455217233296095
20
2.593256722266621
30
1.1102230246251565e-15
10
-13.40780287553617
20
2.5805024018580998
30
1.1102230246251565e-15
10
-13.353216856535477
20
2.5672999233984677
30
1.1102230246251565e-15
10
-13.28992970962069
20
2.5533211772255369
30
1.1102230246251565e-15
10
-13.216879567422597
20
2.5383369521243719
30
1.1102230246251565e-15
10
-13.133369834818279
20
2.5221953099622367
30
1.1102230246251565e-15
10
-13.038999667575633
20
2.5048073629982612
30
1.1102230246251565e-15
10
-12.954665203428998
20
2.4898655649645676
30
1.1102230246251565e-15
10
-12.886420221325579
20
2.4780732494923976
30
1.1102230246251565e-15
10
-12.838705129624541
20
2.4699514125495439
30
1.1102230246251565e-15
10
-12.814292975458033
20
2.4658254209660275
30
1.1102230246251565e-15
0
ENDSEC
0
SECTION
2
OBJECTS
0
DICTIONARY
5
C
100
AcDbDictionary
3
ACAD_GROUP
350
D
3
ACAD_MLINESTYLE
350
17
0
DICTIONARY
5
D
100
AcDbDictionary
0
DICTIONARY
5
1A
330
C
100
AcDbDictionary
0
DICTIONARY
5
17
100
AcDbDictionary
0
ENDSEC
0
EOF
