0
SECTION
2
HEADER
9
$INSUNITS
70
1
9
$ACADVER
1
AC1014
9
$HANDSEED
5
FFFF
0
ENDSEC
0
SECTION
2
TABLES
0
TABLE
2
VPORT
5
8
100
AcDbSymbolTable
0
ENDTAB
0
TABLE
2
LTYPE
5
5
100
AcDbSymbolTable
0
LTYPE
5
14
100
AcDbSymbolTableRecord
100
AcDbLinetypeTableRecord
2
BYBLOCK
70
0
0
LTYPE
5
15
100
AcDbSymbolTableRecord
100
AcDbLinetypeTableRecord
2
BYLAYER
70
0
0
ENDTAB
0
TABLE
2
LAYER
5
2
100
AcDbSymbolTable
70
2
0
LAYER
5
50
100
AcDbSymbolTableRecord
100
AcDbLayerTableRecord
2
0
70
0
6
CONTINUOUS
0
ENDTAB
0
TABLE
2
STYLE
5
3
100
AcDbSymbolTable
70
1
0
STYLE
5
11
100
AcDbSymbolTableRecord
100
AcDbTextStyleTableRecord
2
STANDARD
70
0
0
ENDTAB
0
TABLE
2
VIEW
5
6
100
AcDbSymbolTable
70
0
0
ENDTAB
0
TABLE
2
UCS
5
7
100
AcDbSymbolTable
70
0
0
ENDTAB
0
TABLE
2
APPID
5
9
100
AcDbSymbolTable
70
2
0
APPID
5
12
100
AcDbSymbolTableRecord
100
AcDbRegAppTableRecord
2
ACAD
70
0
0
ENDTAB
0
TABLE
2
DIMSTYLE
5
A
100
AcDbSymbolTable
70
1
0
ENDTAB
0
TABLE
2
BLOCK_RECORD
5
1
100
AcDbSymbolTable
70
1
0
BLOCK_RECORD
5
1F
100
AcDbSymbolTableRecord
100
AcDbBlockTableRecord
2
*MODEL_SPACE
0
BLOCK_RECORD
5
1B
100
AcDbSymbolTableRecord
100
AcDbBlockTableRecord
2
*PAPER_SPACE
0
ENDTAB
0
ENDSEC
0
SECTION
2
BLOCKS
0
BLOCK
5
20
100
AcDbEntity
100
AcDbBlockBegin
2
*MODEL_SPACE
0
ENDBLK
5
21
100
AcDbEntity
100
AcDbBlockEnd
0
BLOCK
5
1C
100
AcDbEntity
100
AcDbBlockBegin
2
*PAPER_SPACE
0
ENDBLK
5
1D
100
AcDbEntity
100
AcDbBlockEnd
0
ENDSEC
0
SECTION
2
ENTITIES
0
LWPOLYLINE
5
100
100
AcDbEntity
8
0
100
AcDbPolyline
90
4
70
1
43
0.0
10
-0.092519685039369845
20
-0.99465125763782436
10
0.092519685039369845
20
-0.99465125763782436
10
0.092519685039370192
20
-0.80961188755908431
10
-0.092519685039369845
20
-0.80961188755908431
0
LWPOLYLINE
5
101
100
AcDbEntity
8
0
100
AcDbPolyline
90
4
70
1
43
0.0
10
0.81513341450081178
20
0.57745002641314147
10
0.65488461931235231
20
0.48493034137377161
10
0.74740430435172245
20
0.32468154618531259
10
0.90765309954018158
20
0.41720123122468261
0
LWPOLYLINE
5
102
100
AcDbEntity
8
0
100
AcDbPolyline
90
4
70
1
43
0.0
10
-1.1750514608013582
20
-2.7945716603563495
10
-1.1750514608013585
20
-2.9796110304350898
10
-0.99001209072261831
20
-2.9796110304350898
10
-0.99001209072261798
20
-2.7945716603563495
0
LWPOLYLINE
5
103
100
AcDbEntity
8
0
100
AcDbPolyline
90
4
70
1
43
0.0
10
-0.90765309954018136
20
0.41720123122468311
10
-0.74740430435172256
20
0.32468154618531292
10
-0.6548846193123522
20
0.48493034137377161
10
-0.81513341450081178
20
0.5774500264131418
0
LWPOLYLINE
5
104
100
AcDbEntity
8
0
100
AcDbPolyline
90
4
70
1
43
0.0
10
-1.8250950979693499
20
-2.2964443961229755
10
-2.0101344680480899
20
-2.2964443961229755
10
-2.0101344680480899
20
-2.4814837662017157
10
-1.8250950979693499
20
-2.4814837662017157
0
ARC
5
105
100
AcDbEntity
8
0
100
AcDbCircle
10
0
20
0
30
0
40
3.3068103340376247
210
0
220
0
230
1
100
AcDbArc
50
-196.02903100858529
51
152.40669420674371
0
LINE
5
106
100
AcDbEntity
8
0
100
AcDbLine
10
-2.9306861302863196
20
1.5316897176143187
30
0
11
-1.9091342295258573
21
2.140638833392515
31
0
0
LINE
5
107
100
AcDbEntity
8
0
100
AcDbLine
10
-1.9091342295258573
20
2.140638833392515
30
0
11
-1.8131282903529933
21
1.9795826020832721
31
0
0
LINE
5
108
100
AcDbEntity
8
0
100
AcDbLine
10
-1.8131282903529933
20
1.9795826020832721
30
0
11
-2.8180774981967391
21
1.3805303845083337
31
0
0
ARC
5
109
100
AcDbEntity
8
0
100
AcDbCircle
10
-2.4074280943746746
20
0.69163919778826355
30
0
40
0.80200000000000216
210
0
220
0
230
1
100
AcDbArc
50
120.79925363670009
51
163.97096899141465
0
CIRCLE
5
110
100
AcDbEntity
8
0
100
AcDbCircle
10
0
20
0
30
0
40
0.12499999999999997
210
0
220
-0
230
1
0
ENDSEC
0
SECTION
2
OBJECTS
0
DICTIONARY
5
C
100
AcDbDictionary
3
ACAD_GROUP
350
D
3
ACAD_MLINESTYLE
350
17
0
DICTIONARY
5
D
100
AcDbDictionary
0
DICTIONARY
5
1A
330
C
100
AcDbDictionary
0
DICTIONARY
5
17
100
AcDbDictionary
0
ENDSEC
0
EOF
