0
SECTION
2
HEADER
9
$INSUNITS
70
4
9
$ACADVER
1
AC1014
9
$HANDSEED
5
FFFF
0
ENDSEC
0
SECTION
2
TABLES
0
TABLE
2
VPORT
5
8
100
AcDbSymbolTable
0
ENDTAB
0
TABLE
2
LTYPE
5
5
100
AcDbSymbolTable
0
LTYPE
5
14
100
AcDbSymbolTableRecord
100
AcDbLinetypeTableRecord
2
BYBLOCK
70
0
0
LTYPE
5
15
100
AcDbSymbolTableRecord
100
AcDbLinetypeTableRecord
2
BYLAYER
70
0
0
ENDTAB
0
TABLE
2
LAYER
5
2
100
AcDbSymbolTable
70
2
0
LAYER
5
50
100
AcDbSymbolTableRecord
100
AcDbLayerTableRecord
2
0
70
0
6
CONTINUOUS
0
ENDTAB
0
TABLE
2
STYLE
5
3
100
AcDbSymbolTable
70
1
0
STYLE
5
11
100
AcDbSymbolTableRecord
100
AcDbTextStyleTableRecord
2
STANDARD
70
0
0
ENDTAB
0
TABLE
2
VIEW
5
6
100
AcDbSymbolTable
70
0
0
ENDTAB
0
TABLE
2
UCS
5
7
100
AcDbSymbolTable
70
0
0
ENDTAB
0
TABLE
2
APPID
5
9
100
AcDbSymbolTable
70
2
0
APPID
5
12
100
AcDbSymbolTableRecord
100
AcDbRegAppTableRecord
2
ACAD
70
0
0
ENDTAB
0
TABLE
2
DIMSTYLE
5
A
100
AcDbSymbolTable
70
1
0
ENDTAB
0
TABLE
2
BLOCK_RECORD
5
1
100
AcDbSymbolTable
70
1
0
BLOCK_RECORD
5
1F
100
AcDbSymbolTableRecord
100
AcDbBlockTableRecord
2
*MODEL_SPACE
0
BLOCK_RECORD
5
1B
100
AcDbSymbolTableRecord
100
AcDbBlockTableRecord
2
*PAPER_SPACE
0
ENDTAB
0
ENDSEC
0
SECTION
2
BLOCKS
0
BLOCK
5
20
100
AcDbEntity
100
AcDbBlockBegin
2
*MODEL_SPACE
0
ENDBLK
5
21
100
AcDbEntity
100
AcDbBlockEnd
0
BLOCK
5
1C
100
AcDbEntity
100
AcDbBlockBegin
2
*PAPER_SPACE
0
ENDBLK
5
1D
100
AcDbEntity
100
AcDbBlockEnd
0
ENDSEC
0
SECTION
2
ENTITIES
0
LWPOLYLINE
5
100
100
AcDbEntity
8
0
100
AcDbPolyline
90
64
70
1
43
0.0
10
-48.881262936920407
20
200.0915359000922
10
-76.200000000000017
20
200.0915359000922
10
-76.200000000000017
20
252.1805359000922
10
-33.381000000000007
20
252.1805359000922
10
-33.381000000000007
20
252.18015264336628
10
33.381000000000007
20
252.18015264336626
10
33.381000000000014
20
252.1805359000922
10
76.200000000000017
20
252.1805359000922
10
76.200000000000017
20
200.0915359000922
10
48.8812629369204
20
200.0915359000922
42
0.99999999999999989
10
48.8812629369204
20
180.0915359000922
10
76.200000000000017
20
180.0915359000922
10
76.200000000000017
20
130.0915359000922
10
48.8812629369204
20
130.0915359000922
42
0.99999999999999989
10
48.8812629369204
20
110.0915359000922
10
76.200000000000017
20
110.0915359000922
10
76.200000000000017
20
60.091535900092197
10
48.8812629369204
20
60.091535900092197
42
0.99999999999999989
10
48.8812629369204
20
40.091535900092197
10
76.200000000000017
20
40.091535900092197
10
76.200000000000017
20
-9.9084640999078033
10
48.8812629369204
20
-9.9084640999078033
42
0.99999999999999989
10
48.8812629369204
20
-29.908464099907803
10
76.200000000000017
20
-29.908464099907803
10
76.200000000000017
20
-79.908464099907803
10
48.8812629369204
20
-79.908464099907803
42
0.99999999999999989
10
48.8812629369204
20
-99.908464099907803
10
76.200000000000017
20
-99.908464099907803
10
76.200000000000017
20
-149.9084640999078
10
48.8812629369204
20
-149.9084640999078
42
0.99999999999999989
10
48.8812629369204
20
-169.9084640999078
10
76.200000000000017
20
-169.9084640999078
10
76.200000000000017
20
-219.9084640999078
10
48.881262936920407
20
-219.9084640999078
42
0.99999999999999989
10
48.8812629369204
20
-239.9084640999078
10
76.200000000000003
20
-239.9084640999078
42
-0.33437697927435461
10
57.484611780323569
20
-254.00000000000003
10
-57.484611780323547
20
-254.00000000000009
42
-0.33437697927435128
10
-76.200000000000017
20
-239.9084640999078
10
-48.881262936920407
20
-239.9084640999078
42
0.99999999999999989
10
-48.881262936920407
20
-219.9084640999078
10
-76.200000000000017
20
-219.9084640999078
10
-76.200000000000017
20
-169.9084640999078
10
-48.881262936920407
20
-169.9084640999078
42
0.99999999999999989
10
-48.881262936920407
20
-149.9084640999078
10
-76.200000000000017
20
-149.9084640999078
10
-76.200000000000017
20
-99.908464099907803
10
-48.881262936920407
20
-99.908464099907803
42
0.99999999999999989
10
-48.881262936920407
20
-79.908464099907803
10
-76.200000000000017
20
-79.908464099907803
10
-76.200000000000017
20
-29.908464099907803
10
-48.881262936920407
20
-29.908464099907803
42
0.99999999999999989
10
-48.881262936920407
20
-9.9084640999078033
10
-76.200000000000017
20
-9.9084640999078033
10
-76.200000000000017
20
40.091535900092197
10
-48.881262936920407
20
40.091535900092197
42
0.99999999999999989
10
-48.881262936920407
20
60.091535900092197
10
-76.200000000000017
20
60.091535900092197
10
-76.200000000000017
20
110.0915359000922
10
-48.881262936920407
20
110.0915359000922
42
0.99999999999999989
10
-48.881262936920407
20
130.0915359000922
10
-76.200000000000017
20
130.0915359000922
10
-76.200000000000017
20
180.0915359000922
10
-48.881262936920407
20
180.0915359000922
42
0.99999999999999989
0
LWPOLYLINE
5
101
100
AcDbEntity
8
0
100
AcDbPolyline
90
4
70
1
43
0.0
10
28.381262936920415
20
-184.9084640999078
10
33.381000000000007
20
-184.90846409990783
10
33.381000000000007
20
-174.90846409990783
10
28.381262936920415
20
-174.9084640999078
0
LWPOLYLINE
5
102
100
AcDbEntity
8
0
100
AcDbPolyline
90
4
70
1
43
0.0
10
33.381000000000007
20
115.0915359000922
10
33.381000000000007
20
125.0915359000922
10
28.381262936920415
20
125.0915359000922
10
28.381262936920415
20
115.0915359000922
0
LWPOLYLINE
5
103
100
AcDbEntity
8
0
100
AcDbPolyline
90
4
70
1
43
0.0
10
28.381262936920415
20
-134.9084640999078
10
33.381000000000007
20
-134.90846409990783
10
33.381000000000007
20
-124.90846409990783
10
28.381262936920415
20
-124.9084640999078
0
LWPOLYLINE
5
104
100
AcDbEntity
8
0
100
AcDbPolyline
90
4
70
1
43
0.0
10
33.381000000000007
20
65.091535900092197
10
33.381000000000007
20
75.091535900092197
10
28.381262936920415
20
75.091535900092197
10
28.381262936920415
20
65.091535900092197
0
LWPOLYLINE
5
105
100
AcDbEntity
8
0
100
AcDbPolyline
90
4
70
1
43
0.0
10
28.381262936920415
20
-84.908464099907803
10
33.381000000000007
20
-84.908464099907832
10
33.381000000000007
20
-74.908464099907832
10
28.381262936920415
20
-74.908464099907803
0
LWPOLYLINE
5
106
100
AcDbEntity
8
0
100
AcDbPolyline
90
4
70
1
43
0.0
10
33.381000000000007
20
15.091535900092197
10
33.381000000000007
20
25.091535900092197
10
28.381262936920415
20
25.091535900092197
10
28.381262936920415
20
15.091535900092197
0
LWPOLYLINE
5
107
100
AcDbEntity
8
0
100
AcDbPolyline
90
4
70
1
43
0.0
10
33.381000000000007
20
-34.908464099907803
10
33.381000000000007
20
-24.908464099907803
10
28.381262936920415
20
-24.908464099907803
10
28.381262936920415
20
-34.908464099907803
0
LWPOLYLINE
5
108
100
AcDbEntity
8
0
100
AcDbPolyline
90
4
70
1
43
0.0
10
-2.5
20
-234.9084640999078
10
2.5
20
-234.9084640999078
10
2.5
20
-224.9084640999078
10
-2.5
20
-224.9084640999078
0
LWPOLYLINE
5
109
100
AcDbEntity
8
0
100
AcDbPolyline
90
4
70
1
43
0.0
10
28.381262936920415
20
-224.9084640999078
10
28.381262936920415
20
-234.9084640999078
10
33.381262936920415
20
-234.9084640999078
10
33.381262936920415
20
-224.9084640999078
0
LWPOLYLINE
5
110
100
AcDbEntity
8
0
100
AcDbPolyline
90
4
70
1
43
0.0
10
-28.381262936920415
20
-224.9084640999078
10
-33.381262936920415
20
-224.9084640999078
10
-33.381262936920415
20
-234.9084640999078
10
-28.381262936920415
20
-234.9084640999078
0
LWPOLYLINE
5
111
100
AcDbEntity
8
0
100
AcDbPolyline
90
4
70
1
43
0.0
10
-33.381000000000007
20
25.091535900092197
10
-33.381000000000007
20
15.091535900092197
10
-28.381262936920415
20
15.091535900092197
10
-28.381262936920415
20
25.091535900092197
0
LWPOLYLINE
5
112
100
AcDbEntity
8
0
100
AcDbPolyline
90
4
70
1
43
0.0
10
-33.381000000000007
20
-24.908464099907803
10
-33.381000000000007
20
-34.908464099907803
10
-28.381262936920415
20
-34.908464099907803
10
-28.381262936920415
20
-24.908464099907803
0
LWPOLYLINE
5
113
100
AcDbEntity
8
0
100
AcDbPolyline
90
4
70
1
43
0.0
10
-28.381262936920415
20
125.0915359000922
10
-33.381000000000007
20
125.0915359000922
10
-33.381000000000007
20
115.0915359000922
10
-28.381262936920415
20
115.0915359000922
0
LWPOLYLINE
5
114
100
AcDbEntity
8
0
100
AcDbPolyline
90
4
70
1
43
0.0
10
-33.381000000000007
20
-74.908464099907803
10
-33.381000000000007
20
-84.908464099907803
10
-28.381262936920415
20
-84.908464099907803
10
-28.381262936920415
20
-74.908464099907803
0
LWPOLYLINE
5
115
100
AcDbEntity
8
0
100
AcDbPolyline
90
4
70
1
43
0.0
10
-33.381000000000007
20
-124.9084640999078
10
-33.381000000000007
20
-134.9084640999078
10
-28.381262936920415
20
-134.9084640999078
10
-28.381262936920415
20
-124.9084640999078
0
LWPOLYLINE
5
116
100
AcDbEntity
8
0
100
AcDbPolyline
90
4
70
1
43
0.0
10
-28.381262936920415
20
-174.9084640999078
10
-33.381000000000007
20
-174.9084640999078
10
-33.381000000000007
20
-184.9084640999078
10
-28.381262936920415
20
-184.9084640999078
0
LWPOLYLINE
5
117
100
AcDbEntity
8
0
100
AcDbPolyline
90
4
70
1
43
0.0
10
-28.381262936920415
20
75.091535900092197
10
-33.381000000000007
20
75.091535900092197
10
-33.381000000000007
20
65.091535900092197
10
-28.381262936920415
20
65.091535900092197
0
LWPOLYLINE
5
118
100
AcDbEntity
8
0
100
AcDbPolyline
90
4
70
1
43
0.0
10
2.5
20
-164.9084640999078
10
2.5
20
-154.9084640999078
10
-2.5
20
-154.9084640999078
10
-2.5
20
-164.9084640999078
0
LWPOLYLINE
5
119
100
AcDbEntity
8
0
100
AcDbPolyline
90
4
70
1
43
0.0
10
2.5
20
-94.908464099907803
10
2.5
20
-84.908464099907803
10
-2.5
20
-84.908464099907803
10
-2.5
20
-94.908464099907803
0
LWPOLYLINE
5
120
100
AcDbEntity
8
0
100
AcDbPolyline
90
4
70
1
43
0.0
10
2.5
20
-24.908464099907803
10
2.5
20
-14.908464099907803
10
-2.5
20
-14.908464099907803
10
-2.5
20
-24.908464099907803
0
LWPOLYLINE
5
121
100
AcDbEntity
8
0
100
AcDbPolyline
90
4
70
1
43
0.0
10
2.5
20
45.091535900092197
10
2.5
20
55.091535900092197
10
-2.5
20
55.091535900092197
10
-2.5
20
45.091535900092197
0
LWPOLYLINE
5
122
100
AcDbEntity
8
0
100
AcDbPolyline
90
4
70
1
43
0.0
10
2.5
20
115.0915359000922
10
2.5
20
125.0915359000922
10
-2.5
20
125.0915359000922
10
-2.5
20
115.0915359000922
0
LWPOLYLINE
5
123
100
AcDbEntity
8
0
100
AcDbPolyline
90
4
70
1
43
0.0
10
2.5
20
185.0915359000922
10
2.5
20
195.0915359000922
10
-2.5
20
195.0915359000922
10
-2.5
20
185.0915359000922
0
ENDSEC
0
SECTION
2
OBJECTS
0
DICTIONARY
5
C
100
AcDbDictionary
3
ACAD_GROUP
350
D
3
ACAD_MLINESTYLE
350
17
0
DICTIONARY
5
D
100
AcDbDictionary
0
DICTIONARY
5
1A
330
C
100
AcDbDictionary
0
DICTIONARY
5
17
100
AcDbDictionary
0
ENDSEC
0
EOF
