0
SECTION
2
HEADER
9
$INSUNITS
70
1
9
$ACADVER
1
AC1014
9
$HANDSEED
5
FFFF
0
ENDSEC
0
SECTION
2
TABLES
0
TABLE
2
VPORT
5
8
100
AcDbSymbolTable
0
ENDTAB
0
TABLE
2
LTYPE
5
5
100
AcDbSymbolTable
0
LTYPE
5
14
100
AcDbSymbolTableRecord
100
AcDbLinetypeTableRecord
2
BYBLOCK
70
0
0
LTYPE
5
15
100
AcDbSymbolTableRecord
100
AcDbLinetypeTableRecord
2
BYLAYER
70
0
0
ENDTAB
0
TABLE
2
LAYER
5
2
100
AcDbSymbolTable
70
2
0
LAYER
5
50
100
AcDbSymbolTableRecord
100
AcDbLayerTableRecord
2
0
70
0
6
CONTINUOUS
0
ENDTAB
0
TABLE
2
STYLE
5
3
100
AcDbSymbolTable
70
1
0
STYLE
5
11
100
AcDbSymbolTableRecord
100
AcDbTextStyleTableRecord
2
STANDARD
70
0
0
ENDTAB
0
TABLE
2
VIEW
5
6
100
AcDbSymbolTable
70
0
0
ENDTAB
0
TABLE
2
UCS
5
7
100
AcDbSymbolTable
70
0
0
ENDTAB
0
TABLE
2
APPID
5
9
100
AcDbSymbolTable
70
2
0
APPID
5
12
100
AcDbSymbolTableRecord
100
AcDbRegAppTableRecord
2
ACAD
70
0
0
ENDTAB
0
TABLE
2
DIMSTYLE
5
A
100
AcDbSymbolTable
70
1
0
ENDTAB
0
TABLE
2
BLOCK_RECORD
5
1
100
AcDbSymbolTable
70
1
0
BLOCK_RECORD
5
1F
100
AcDbSymbolTableRecord
100
AcDbBlockTableRecord
2
*MODEL_SPACE
0
BLOCK_RECORD
5
1B
100
AcDbSymbolTableRecord
100
AcDbBlockTableRecord
2
*PAPER_SPACE
0
ENDTAB
0
ENDSEC
0
SECTION
2
BLOCKS
0
BLOCK
5
20
100
AcDbEntity
100
AcDbBlockBegin
2
*MODEL_SPACE
0
ENDBLK
5
21
100
AcDbEntity
100
AcDbBlockEnd
0
BLOCK
5
1C
100
AcDbEntity
100
AcDbBlockBegin
2
*PAPER_SPACE
0
ENDBLK
5
1D
100
AcDbEntity
100
AcDbBlockEnd
0
ENDSEC
0
SECTION
2
ENTITIES
0
LINE
5
100
100
AcDbEntity
8
OUTER_PROFILES
100
AcDbLine
10
-0.65915266909502379
20
0.93671259842283117
30
0
11
-0.65915266909509929
21
0.43622047244105133
31
0
0
LINE
5
101
100
AcDbEntity
8
OUTER_PROFILES
100
AcDbLine
10
-0.65915266909509929
20
0.43622047244105133
30
0
11
2.7974123455122052e-15
21
0.43622047244094508
31
0
0
LINE
5
102
100
AcDbEntity
8
OUTER_PROFILES
100
AcDbLine
10
2.7974123455122052e-15
20
0.43622047244094508
30
0
11
0
21
0
31
0
0
LINE
5
103
100
AcDbEntity
8
OUTER_PROFILES
100
AcDbLine
10
0
20
0
30
0
11
0.012795275591229106
21
4.1961185182683078e-15
31
0
0
LINE
5
104
100
AcDbEntity
8
OUTER_PROFILES
100
AcDbLine
10
0.012795275591229106
20
4.1961185182683078e-15
30
0
11
4.3812992125991537
21
-1.4896220739852492e-13
31
0
0
LINE
5
105
100
AcDbEntity
8
OUTER_PROFILES
100
AcDbLine
10
4.3812992125991537
20
-1.4896220739852492e-13
30
0
11
4.3940944881898671
21
2.0980592591341539e-15
31
0
0
LINE
5
106
100
AcDbEntity
8
OUTER_PROFILES
100
AcDbLine
10
4.3940944881898671
20
2.0980592591341539e-15
30
0
11
4.3940944881898449
21
0.43622047244094714
31
0
0
LINE
5
107
100
AcDbEntity
8
OUTER_PROFILES
100
AcDbLine
10
4.3940944881898449
20
0.43622047244094714
30
0
11
4.7883527269836099
21
0.43622047244086742
31
0
0
LINE
5
108
100
AcDbEntity
8
OUTER_PROFILES
100
AcDbLine
10
4.7883527269836099
20
0.43622047244086742
30
0
11
5.0532471572811311
21
0.43622047244091428
31
0
0
LINE
5
109
100
AcDbEntity
8
OUTER_PROFILES
100
AcDbLine
10
5.0532471572811311
20
0.43622047244091428
30
0
11
5.0532471572810351
21
0.93671259842516452
31
0
0
LINE
5
110
100
AcDbEntity
8
OUTER_PROFILES
100
AcDbLine
10
5.0532471572810351
20
0.93671259842516452
30
0
11
4.7883527269835184
21
0.93671259842511834
31
0
0
LINE
5
111
100
AcDbEntity
8
OUTER_PROFILES
100
AcDbLine
10
4.7883527269835184
20
0.93671259842511834
30
0
11
4.3940944881897455
21
0.93671259842519705
31
0
0
LINE
5
112
100
AcDbEntity
8
OUTER_PROFILES
100
AcDbLine
10
4.3940944881897455
20
0.93671259842519705
30
0
11
4.3940944881897712
21
1.1822834645669305
31
0
0
LINE
5
113
100
AcDbEntity
8
OUTER_PROFILES
100
AcDbLine
10
4.3940944881897712
20
1.1822834645669305
30
0
11
4.3812992125991252
21
1.1822834645667795
31
0
0
LINE
5
114
100
AcDbEntity
8
OUTER_PROFILES
100
AcDbLine
10
4.3812992125991252
20
1.1822834645667795
30
0
11
4.381299212599127
21
1.1946519395811146
31
0
0
LINE
5
115
100
AcDbEntity
8
OUTER_PROFILES
100
AcDbLine
10
4.381299212599127
20
1.1946519395811146
30
0
11
4.401541689426085
21
1.1946519395811179
31
0
0
LINE
5
116
100
AcDbEntity
8
OUTER_PROFILES
100
AcDbLine
10
4.401541689426085
20
1.1946519395811179
30
0
11
5.5838251539901966
21
1.194651939592736
31
0
0
LINE
5
117
100
AcDbEntity
8
OUTER_PROFILES
100
AcDbLine
10
5.5838251539901966
20
1.194651939592736
30
0
11
5.5838251539900199
21
1.843382883144429
31
0
0
LINE
5
118
100
AcDbEntity
8
OUTER_PROFILES
100
AcDbLine
10
5.5838251539900199
20
1.843382883144429
30
0
11
4.7926800059196255
21
1.8433828831442125
31
0
0
LWPOLYLINE
5
119
100
AcDbEntity
8
OUTER_PROFILES
100
AcDbPolyline
90
5
10
4.6841760689117189
20
1.9518868201520565
30
0
10
4.69110677601559
20
1.9092506794316493
30
0
10
4.7137126936834246
20
1.8729591236800376
30
0
10
4.7500200941668362
20
1.8503222737271883
30
0
10
4.7926800059196255
20
1.8433828831442125
30
0
0
LINE
5
120
100
AcDbEntity
8
OUTER_PROFILES
100
AcDbLine
10
4.6841760689117189
20
1.9518868201520565
30
0
11
4.6841760689115493
21
2.5732863430621045
31
0
0
LWPOLYLINE
5
121
100
AcDbEntity
8
OUTER_PROFILES
100
AcDbPolyline
90
5
10
4.7926800059193955
20
2.6817902800700106
30
0
10
4.7500438651990162
20
2.6748595729661493
30
0
10
4.7137523094474112
20
2.65225365529834
30
0
10
4.6911154594945419
20
2.6159462548149386
30
0
10
4.6841760689115493
20
2.5732863430621045
30
0
0
LINE
5
122
100
AcDbEntity
8
OUTER_PROFILES
100
AcDbLine
10
4.7926800059193955
20
2.6817902800700106
30
0
11
5.5838251539897907
21
2.6817902800702251
31
0
0
LINE
5
123
100
AcDbEntity
8
OUTER_PROFILES
100
AcDbLine
10
5.5838251539897907
20
2.6817902800702251
30
0
11
5.5838251539894896
21
3.7730053290623937
31
0
0
LINE
5
124
100
AcDbEntity
8
OUTER_PROFILES
100
AcDbLine
10
5.5838251539894896
20
3.7730053290623937
30
0
11
4.4015416894253772
21
3.7730053290507755
31
0
0
LINE
5
125
100
AcDbEntity
8
OUTER_PROFILES
100
AcDbLine
10
4.4015416894253772
20
3.7730053290507755
30
0
11
4.3891732283472873
21
3.7730053290507719
31
0
0
LINE
5
126
100
AcDbEntity
8
OUTER_PROFILES
100
AcDbLine
10
4.3891732283472873
20
3.7730053290507719
30
0
11
4.3891732701587696
21
3.7789039080850522
31
0
0
LINE
5
127
100
AcDbEntity
8
OUTER_PROFILES
100
AcDbLine
10
4.3891732701587696
20
3.7789039080850522
30
0
11
4.3812992544107425
21
3.778903908084664
31
0
0
LINE
5
128
100
AcDbEntity
8
OUTER_PROFILES
100
AcDbLine
10
4.3812992544107425
20
3.778903908084664
30
0
11
4.3812992544107212
21
4.0368432492408628
31
0
0
LINE
5
129
100
AcDbEntity
8
OUTER_PROFILES
100
AcDbLine
10
4.3812992544107212
20
4.0368432492408628
30
0
11
4.3940945300013485
21
4.0368432492406727
31
0
0
LINE
5
130
100
AcDbEntity
8
OUTER_PROFILES
100
AcDbLine
10
4.3940945300013485
20
4.0368432492406727
30
0
11
4.4064630050154827
21
4.0368432492406718
31
0
0
LINE
5
131
100
AcDbEntity
8
OUTER_PROFILES
100
AcDbLine
10
4.4064630050154827
20
4.0368432492406718
30
0
11
4.7883527688116176
21
4.036843249240639
31
0
0
LINE
5
132
100
AcDbEntity
8
OUTER_PROFILES
100
AcDbLine
10
4.7883527688116176
20
4.036843249240639
30
0
11
5.0532471991484229
21
4.0368432492406159
31
0
0
LINE
5
133
100
AcDbEntity
8
OUTER_PROFILES
100
AcDbLine
10
5.0532471991484229
20
4.0368432492406159
30
0
11
5.0532471991484655
21
4.5373353752248686
31
0
0
LINE
5
134
100
AcDbEntity
8
OUTER_PROFILES
100
AcDbLine
10
5.0532471991484655
20
4.5373353752248686
30
0
11
4.7883527687951446
21
4.5373353752248917
31
0
0
LINE
5
135
100
AcDbEntity
8
OUTER_PROFILES
100
AcDbLine
10
4.7883527687951446
20
4.5373353752248917
30
0
11
4.3940945300014072
21
4.5373353752251147
31
0
0
LINE
5
136
100
AcDbEntity
8
OUTER_PROFILES
100
AcDbLine
10
4.3940945300014072
20
4.5373353752251147
30
0
11
4.3940945300014516
21
4.9735558476660593
31
0
0
LINE
5
137
100
AcDbEntity
8
OUTER_PROFILES
100
AcDbLine
10
4.3940945300014516
20
4.9735558476660593
30
0
11
4.3812992544108909
21
4.9735558476658728
31
0
0
LINE
5
138
100
AcDbEntity
8
OUTER_PROFILES
100
AcDbLine
10
4.3812992544108909
20
4.9735558476658728
30
0
11
0.012795275591524232
21
4.9735558476663746
31
0
0
LINE
5
139
100
AcDbEntity
8
OUTER_PROFILES
100
AcDbLine
10
0.012795275591524232
20
4.9735558476663746
30
0
11
9.7280014315186939e-13
21
4.9735558476663755
31
0
0
LINE
5
140
100
AcDbEntity
8
OUTER_PROFILES
100
AcDbLine
10
9.7280014315186939e-13
20
4.9735558476663755
30
0
11
9.2874089871005208e-13
21
4.5373353752254308
31
0
0
LINE
5
141
100
AcDbEntity
8
OUTER_PROFILES
100
AcDbLine
10
9.2874089871005208e-13
20
4.5373353752254308
30
0
11
-0.012368475013741335
21
4.5373353752254335
31
0
0
LINE
5
142
100
AcDbEntity
8
OUTER_PROFILES
100
AcDbLine
10
-0.012368475013741335
20
4.5373353752254335
30
0
11
-0.39425823879328098
21
4.5373353752254841
31
0
0
LINE
5
143
100
AcDbEntity
8
OUTER_PROFILES
100
AcDbLine
10
-0.39425823879328098
20
4.5373353752254841
30
0
11
-0.65915266903385905
21
4.5373353752255152
31
0
0
LINE
5
144
100
AcDbEntity
8
OUTER_PROFILES
100
AcDbLine
10
-0.65915266903385905
20
4.5373353752255152
30
0
11
-0.65915266903391645
21
4.0368432492437343
31
0
0
LINE
5
145
100
AcDbEntity
8
OUTER_PROFILES
100
AcDbLine
10
-0.65915266903391645
20
4.0368432492437343
30
0
11
-0.39425823879333066
21
4.0368432492437032
31
0
0
LINE
5
146
100
AcDbEntity
8
OUTER_PROFILES
100
AcDbLine
10
-0.39425823879333066
20
4.0368432492437032
30
0
11
-0.01236847501201813
21
4.0368432492436526
31
0
0
LINE
5
147
100
AcDbEntity
8
OUTER_PROFILES
100
AcDbLine
10
-0.01236847501201813
20
4.0368432492436526
30
0
11
-0.0066225879567985181
21
4.0368432492436526
31
0
0
LINE
5
148
100
AcDbEntity
8
OUTER_PROFILES
100
AcDbLine
10
-0.0066225879567985181
20
4.0368432492436526
30
0
11
8.5880559007224699e-13
21
4.0368432492436508
31
0
0
LINE
5
149
100
AcDbEntity
8
OUTER_PROFILES
100
AcDbLine
10
8.5880559007224699e-13
20
4.0368432492436508
30
0
11
0.012795275591401846
21
4.0368432492436499
31
0
0
LINE
5
150
100
AcDbEntity
8
OUTER_PROFILES
100
AcDbLine
10
0.012795275591401846
20
4.0368432492436499
30
0
11
0.012795275591380864
21
3.7789039080852729
31
0
0
LINE
5
151
100
AcDbEntity
8
OUTER_PROFILES
100
AcDbLine
10
0.012795275591380864
20
3.7789039080852729
30
0
11
-0.0074472151697183211
21
3.7789039080852702
31
0
0
LINE
5
152
100
AcDbEntity
8
OUTER_PROFILES
100
AcDbLine
10
-0.0074472151697183211
20
3.7789039080852702
30
0
11
-1.1897306797366487
21
3.7789039080962228
31
0
0
LINE
5
153
100
AcDbEntity
8
OUTER_PROFILES
100
AcDbLine
10
-1.1897306797366487
20
3.7789039080962228
30
0
11
-1.1897306797358893
21
1.1946519395922821
31
0
0
LINE
5
154
100
AcDbEntity
8
OUTER_PROFILES
100
AcDbLine
10
-1.1897306797358893
20
1.1946519395922821
30
0
11
-0.0074472151689588236
21
1.1946519395813362
31
0
0
LINE
5
155
100
AcDbEntity
8
OUTER_PROFILES
100
AcDbLine
10
-0.0074472151689588236
20
1.1946519395813362
30
0
11
0.012795275591252184
21
1.1946519395813375
31
0
0
LINE
5
156
100
AcDbEntity
8
OUTER_PROFILES
100
AcDbLine
10
0.012795275591252184
20
1.1946519395813375
30
0
11
0.012795275591268269
21
0.93671259842272558
31
0
0
LINE
5
157
100
AcDbEntity
8
OUTER_PROFILES
100
AcDbLine
10
0.012795275591268269
20
0.93671259842272558
30
0
11
6.3641130860402668e-14
21
0.93671259842273846
31
0
0
LINE
5
158
100
AcDbEntity
8
OUTER_PROFILES
100
AcDbLine
10
6.3641130860402668e-14
20
0.93671259842273846
30
0
11
-0.01236847501316227
21
0.93671259842273957
31
0
0
LINE
5
159
100
AcDbEntity
8
OUTER_PROFILES
100
AcDbLine
10
-0.01236847501316227
20
0.93671259842273957
30
0
11
-0.65915266909502379
21
0.93671259842283117
31
0
0
LWPOLYLINE
5
160
100
AcDbEntity
8
INTERIOR_PROFILES
100
AcDbPolyline
90
4
70
1
43
0.0
10
-0.25214474334968362
20
3.3970141443033799
10
-0.75540605834028318
20
3.3970141443032316
10
-0.75540605834027341
20
3.3628057386054322
10
-0.25214474334967385
20
3.3628057386055801
0
LWPOLYLINE
5
161
100
AcDbEntity
8
INTERIOR_PROFILES
100
AcDbPolyline
90
4
70
1
43
0.0
10
4.646239280743738
20
1.5765417033936413
10
5.1495005957414328
20
1.5765417033937805
10
5.149500595741423
20
1.6107501090632101
10
4.6462392807437274
20
1.6107501090630709
0
LWPOLYLINE
5
162
100
AcDbEntity
8
INTERIOR_PROFILES
100
AcDbPolyline
90
4
70
1
43
0.0
10
5.149500595740931
20
3.3970140030811691
10
4.6462392807432353
20
3.3970140030810314
10
4.6462392807432451
20
3.3628057386077685
10
5.1495005957409408
20
3.3628057386079062
0
LWPOLYLINE
5
163
100
AcDbEntity
8
INTERIOR_PROFILES
100
AcDbPolyline
90
4
70
1
43
0.0
10
-0.2521447433491612
20
1.6107501090608825
10
-0.75540605833976082
20
1.6107501090607359
10
-0.75540605833975105
20
1.5765417033913061
10
-0.25214474334915138
20
1.5765417033914526
0
LWPOLYLINE
5
164
100
AcDbEntity
8
INTERIOR_PROFILES
100
AcDbPolyline
90
6
70
1
43
0.0
10
1.4856299212606541
20
3.3946519395812609
10
2.663203795709312
20
3.3946519395812014
10
2.6632037957093235
20
3.6391794986363188
10
1.2068897637803535
20
3.639179498636393
10
1.206889763780336
20
3.3332346167466311
10
1.4856299212606516
20
3.3332346167466165
0
LWPOLYLINE
5
165
100
AcDbEntity
8
INTERIOR_PROFILES
100
AcDbPolyline
90
4
70
1
43
0.0
10
3.9356299212606638
20
3.6391794986362558
10
2.7568897637803476
20
3.6391794986363153
10
2.7568897637803347
20
3.2938645380063947
10
3.9356299212606491
20
3.2938645380063347
0
LWPOLYLINE
5
166
100
AcDbEntity
8
INTERIOR_PROFILES
100
AcDbPolyline
90
4
70
1
43
0.0
10
1.0768897637802921
20
2.4832346167466377
10
1.3556299212606082
20
2.4832346167466239
10
1.3556299212606238
20
2.7903212309198504
10
1.0768897637803074
20
2.7903212309198646
0
CIRCLE
5
167
100
AcDbEntity
8
INTERIOR_PROFILES
100
AcDbCircle
10
-0.1470472440953127
20
3.6367779238332978
30
0
40
0.065000000000000266
210
0
220
0
230
-1
0
CIRCLE
5
168
100
AcDbEntity
8
INTERIOR_PROFILES
100
AcDbCircle
10
-0.14586614173299184
20
1.3367779238332984
30
0
40
0.065000000000000266
210
0
220
0
230
-1
0
CIRCLE
5
169
100
AcDbEntity
8
INTERIOR_PROFILES
100
AcDbCircle
10
-4.2470472440951967
20
1.336777923833091
30
0
40
0.064999999999999572
210
0
220
0
230
-1
0
CIRCLE
5
170
100
AcDbEntity
8
INTERIOR_PROFILES
100
AcDbCircle
10
-4.2470472440953095
20
3.6367779238330904
30
0
40
0.060248031496063427
210
0
220
0
230
-1
0
LWPOLYLINE
5
171
100
AcDbEntity
8
INTERIOR_PROFILES
100
AcDbPolyline
90
4
70
1
43
0.0
10
0.014763779528340092
20
2.7716204435183429
10
0.31122047244172596
20
2.7716204435183283
10
0.3112204724417385
20
3.0503606009986437
10
0.01476377952835268
20
3.0503606009986584
0
LWPOLYLINE
5
172
100
AcDbEntity
8
INTERIOR_PROFILES
100
AcDbPolyline
90
4
70
1
43
0.0
10
0.31122047244168399
20
1.9503606009986436
10
0.01476377952829813
20
1.9503606009986583
10
0.014763779528282745
20
1.6716204435183439
10
0.31122047244166862
20
1.6716204435183286
0
LWPOLYLINE
5
173
100
AcDbEntity
8
INTERIOR_PROFILES
100
AcDbPolyline
90
4
70
1
43
0.0
10
3.9720026794482108
20
3.4359360876200031
10
3.9720026794481966
20
3.1571952311496889
10
4.2790947962921084
20
3.1571952311496729
10
4.27909479629212
20
3.4359360876199867
0
LINE
5
174
100
AcDbEntity
8
BEND
100
AcDbLine
10
-0.40044247630829599
20
0.93671259842288601
30
3.0715730203952349e-11
11
-0.40044247630837082
21
0.43622047244110662
31
-3.7001941893205545e-12
0
LINE
5
175
100
AcDbEntity
8
BEND
100
AcDbLine
10
4.8187165049484442
20
4.0368432492406354
30
1.3311653888898629e-10
11
4.8187165049484868
21
4.5373353752248882
31
1.2850760074552859e-10
0
LINE
5
176
100
AcDbEntity
8
BEND
100
AcDbLine
10
4.7945370063076878
20
4.0368432492406381
30
9.0688536294584356e-11
11
4.7945370063077313
21
4.5373353752248899
31
8.6078874211420603e-11
0
LINE
5
177
100
AcDbEntity
8
BEND
100
AcDbLine
10
-0.42462197489504427
20
0.93671259842279442
30
3.1155515285647536e-11
11
-0.42462197489512049
21
0.43622047244101497
31
-3.2620975040898311e-12
0
LINE
5
178
100
AcDbEntity
8
BEND
100
AcDbLine
10
4.4002787675084569
20
4.036843249240861
30
6.4507254507435404e-11
11
4.4002787675085067
21
4.5373353752251129
31
7.1605282666187409e-11
0
LINE
5
179
100
AcDbEntity
8
BEND
100
AcDbLine
10
4.7945369644887181
20
0.43622047244096462
30
1.28663369063411e-11
11
4.7945369644886267
21
0.93671259842521415
31
4.7272672291753452e-11
0
LINE
5
180
100
AcDbEntity
8
BEND
100
AcDbLine
10
-0.0061842375116790693
20
0.43622047244094575
30
-1.7799873497515582e-10
11
-0.0061842375116392062
21
0.93671259842272525
31
-1.5531462890870129e-10
0
LINE
5
181
100
AcDbEntity
8
BEND
100
AcDbLine
10
0.012795275591379466
20
3.7850881455923693
30
8.1598377689821502e-11
11
4.3812992544107461
21
3.7850881455918173
31
8.1171179080443914e-11
0
LINE
5
182
100
AcDbEntity
8
BEND
100
AcDbLine
10
4.3953574588862043
20
1.1946519395811177
30
8.1352661899502668e-11
11
4.3953574588854982
21
3.7730053290507723
31
7.5469919584485599e-11
0
LINE
5
183
100
AcDbEntity
8
BEND
100
AcDbLine
10
-0.42462197483387676
20
4.5373353752254868
30
2.6167112797421373e-11
11
-0.4246219748339376
21
4.0368432492437059
31
3.07723944953901e-11
0
LINE
5
184
100
AcDbEntity
8
BEND
100
AcDbLine
10
4.3812992125991261
20
1.1884677020738892
30
8.1341740219567155e-11
11
0.012795275591251484
21
1.188467702074111
31
8.1344987753651019e-11
0
LINE
5
185
100
AcDbEntity
8
BEND
100
AcDbLine
10
-0.0061842375061702658
20
4.0368432492436526
30
-1.1428734356496688e-12
11
-0.0061842375061150166
21
4.5373353752254326
31
-5.7513097716017235e-12
0
LINE
5
186
100
AcDbEntity
8
BEND
100
AcDbLine
10
4.4002787256969249
20
0.43622047244094647
30
-3.3441809858814727e-11
11
4.4002787256968769
21
0.93671259842519605
31
9.1732531949911202e-13
0
LINE
5
187
100
AcDbEntity
8
BEND
100
AcDbLine
10
4.8187164630811505
20
0.43622047244087303
30
-2.6265925949522651e-12
11
4.8187164630810608
21
0.93671259842512289
31
3.1781767411961566e-11
0
LINE
5
188
100
AcDbEntity
8
BEND
100
AcDbLine
10
-0.0012629776640348054
20
3.7789039080852729
30
8.192129351734643e-11
11
-0.0012629776632753079
21
1.1946519395813373
31
8.7842080492625659e-11
0
LINE
5
189
100
AcDbEntity
8
BEND
100
AcDbLine
10
-0.40044247630102903
20
4.5373353752254841
30
2.5575366505005271e-11
11
-0.40044247630109053
21
4.0368432492437032
31
3.0181792170489091e-11
0
LINE
5
190
100
AcDbEntity
8
BEND_EXTENT
100
AcDbLine
10
4.8249007424555499
20
4.5373353752248882
30
1.3935819446070732e-10
11
4.8249007424555082
21
4.0368432492406354
31
1.4396553259376594e-10
0
LINE
5
191
100
AcDbEntity
8
BEND_EXTENT
100
AcDbLine
10
4.8125322674413749
20
4.0368432492406363
30
1.2226600630201924e-10
11
4.8125322674414184
21
4.5373353752248882
31
1.1765517140352876e-10
0
LINE
5
192
100
AcDbEntity
8
BEND_EXTENT
100
AcDbLine
10
4.8007212438203224
20
4.5373353752248899
30
9.6931242609932353e-11
11
4.800721243820278
21
4.0368432492406372
31
1.0154487492076836e-10
0
LINE
5
193
100
AcDbEntity
8
BEND_EXTENT
100
AcDbLine
10
4.7883527688116176
20
4.036843249240639
30
7.9756530787051682e-11
11
4.7883527687951446
21
4.5373353752248917
31
7.5207938313248842e-11
0
LINE
5
194
100
AcDbEntity
8
BEND_EXTENT
100
AcDbLine
10
4.8249007005881248
20
0.93671259842512367
30
2.7816972008103459e-11
11
4.8249007005882154
21
0.4362204724408737
31
-6.5870037231783954e-12
0
LINE
5
195
100
AcDbEntity
8
BEND_EXTENT
100
AcDbLine
10
4.8125322255740883
20
0.43622047244096673
30
1.3401647833083321e-12
11
4.8125322255739977
21
0.93671259842521737
31
3.5748336633108449e-11
0
LINE
5
196
100
AcDbEntity
8
BEND_EXTENT
100
AcDbLine
10
4.8007212019937544
20
0.93671259842521493
30
4.3313240183504222e-11
11
4.8007212019938459
21
0.43622047244096396
31
8.9064670398768498e-12
0
LINE
5
197
100
AcDbEntity
8
BEND_EXTENT
100
AcDbLine
10
4.7883527269836099
20
0.43622047244086742
30
2.2880941684274586e-11
11
4.7883527269835184
21
0.93671259842511834
31
5.7275126472347148e-11
0
LINE
5
198
100
AcDbEntity
8
BEND_EXTENT
100
AcDbLine
10
-0.43080621234100375
20
4.0368432492437067
30
3.0921941032859818e-11
11
-0.43080621234094291
21
4.5373353752254868
31
2.6317400312146732e-11
0
LINE
5
199
100
AcDbEntity
8
BEND_EXTENT
100
AcDbLine
10
-0.41843773732681133
20
4.5373353752254859
30
2.6015977859526284e-11
11
-0.41843773732687217
21
4.036843249243705
31
3.0621917286412129e-11
0
LINE
5
200
100
AcDbEntity
8
BEND_EXTENT
100
AcDbLine
10
-0.40662671380884835
20
4.0368432492437041
30
3.0332383893607235e-11
11
-0.40662671380878679
21
4.5373353752254841
31
2.572644446672139e-11
0
LINE
5
201
100
AcDbEntity
8
BEND_EXTENT
100
AcDbLine
10
-0.39425823879328098
20
4.5373353752254841
30
2.5448100665951413e-11
11
-0.39425823879333066
21
4.0368432492437032
31
3.0061033623701038e-11
0
LINE
5
202
100
AcDbEntity
8
BEND_EXTENT
100
AcDbLine
10
-0.43080621240218592
20
0.43622047244101569
30
-3.1491426293060724e-12
11
-0.4308062124021097
21
0.93671259842279586
31
3.1268820163703344e-11
0
LINE
5
203
100
AcDbEntity
8
BEND_EXTENT
100
AcDbLine
10
-0.41843773738797813
20
0.9367125984228899
30
3.1042927844411715e-11
11
-0.41843773738805368
21
0.4362204724411094
31
-3.3722375362521867e-12
0
LINE
5
204
100
AcDbEntity
8
BEND_EXTENT
100
AcDbLine
10
-0.40662671382339349
20
0.43622047244110729
30
-3.5876395019010068e-12
11
-0.40662671382331866
21
0.93671259842288779
31
3.0828225231849279e-11
0
LINE
5
205
100
AcDbEntity
8
BEND_EXTENT
100
AcDbLine
10
-0.39425823880981092
20
0.9367125984227892
30
2.4511666883291201e-11
11
-0.39425823879334676
21
0.43622047244101009
31
-9.8818185516949839e-12
0
LINE
5
206
100
AcDbEntity
8
BEND_EXTENT
100
AcDbLine
10
4.4064630050154827
20
4.0368432492406718
30
7.8990079090816719e-11
11
4.4064630050156151
21
4.5373353752249246
31
7.439952543183119e-11
0
LINE
5
207
100
AcDbEntity
8
BEND_EXTENT
100
AcDbLine
10
4.3940945300014072
20
4.5373353752251147
30
7.4367006785706114e-11
11
4.3940945300013485
21
4.0368432492406727
31
7.898133844962849e-11
0
LINE
5
208
100
AcDbEntity
8
BEND_EXTENT
100
AcDbLine
10
-0.01236847501316227
20
0.93671259842273957
30
6.3455803564903994e-11
11
-0.012368475013818265
21
0.43622047244094786
31
2.9018258885475998e-11
0
LINE
5
209
100
AcDbEntity
8
BEND_EXTENT
100
AcDbLine
10
-0.012368475013741335
20
4.5373353752254335
30
7.4550340927205392e-11
11
-0.01236847501201813
21
4.0368432492436526
31
7.9169568062732427e-11
0
LINE
5
210
100
AcDbEntity
8
BEND_EXTENT
100
AcDbLine
10
4.381299254410747
20
3.7912723830991304
30
8.1178007810240048e-11
11
0.012795275591382263
21
3.7912723830994466
31
8.1437567533166841e-11
0
LINE
5
211
100
AcDbEntity
8
BEND_EXTENT
100
AcDbLine
10
9.2874089871005208e-13
20
4.5373353752254308
30
7.4562578333825513e-11
11
8.5880559007224699e-13
21
4.0368432492436508
31
7.9176909997747889e-11
0
LINE
5
212
100
AcDbEntity
8
BEND_EXTENT
100
AcDbLine
10
4.406462963204083
20
0.43622047244079887
30
2.9723451567832805e-11
11
4.406462963203797
21
0.93671259842519639
31
6.4170787190470102e-11
0
LINE
5
213
100
AcDbEntity
8
BEND_EXTENT
100
AcDbLine
10
4.3940944881897455
20
0.93671259842519705
30
7.0409717346440214e-11
11
4.3940944881898449
21
0.43622047244094714
31
2.9965429008111125e-11
0
LINE
5
214
100
AcDbEntity
8
BEND_EXTENT
100
AcDbLine
10
4.4015416894253772
20
3.7730053290507755
30
7.5473732278782092e-11
11
4.401541689426085
21
1.1946519395811179
31
7.5470934866436583e-11
0
LINE
5
215
100
AcDbEntity
8
BEND_EXTENT
100
AcDbLine
10
0.012795275591380864
20
3.7789039080852729
30
8.1427864009093343e-11
11
4.3812992544107425
21
3.778903908084664
31
8.1428113957755996e-11
0
LINE
5
216
100
AcDbEntity
8
BEND_EXTENT
100
AcDbLine
10
0.012795275591251484
20
1.1822834645669291
30
8.1183702362811617e-11
11
4.3812992125991252
21
1.1822834645667795
31
8.1183952311478561e-11
0
LINE
5
217
100
AcDbEntity
8
BEND_EXTENT
100
AcDbLine
10
4.381299212599127
20
1.1946519395811146
30
8.1427851700352916e-11
11
0.012795275591252184
21
1.1946519395813375
31
8.142812626650074e-11
0
LINE
5
218
100
AcDbEntity
8
BEND_EXTENT
100
AcDbLine
10
2.7974123455122052e-15
20
0.43622047244094508
30
2.9991757109322727e-11
11
6.3641130860402668e-14
21
0.93671259842273846
31
6.4323699472707651e-11
0
LINE
5
219
100
AcDbEntity
8
BEND_EXTENT
100
AcDbLine
10
0.0049212598433509358
20
3.7789039080852738
30
8.1428127076530345e-11
11
0.0049212598432201568
21
1.194651939581338
31
8.1428476753073536e-11
0
LINE
5
220
100
AcDbEntity
8
BEND_EXTENT
100
AcDbLine
10
4.3891732283471603
20
1.1946519395811148
30
8.1428025728594901e-11
11
4.3891732283472873
21
3.7730053290507719
31
8.1428025728594901e-11
0
LINE
5
221
100
AcDbEntity
8
BEND_EXTENT
100
AcDbLine
10
-0.0074472151689588236
20
1.1946519395813362
30
8.8334589753448292e-11
11
-0.0074472151697183211
21
3.7789039080852702
31
8.8335988459621046e-11
0
ENDSEC
0
SECTION
2
OBJECTS
0
DICTIONARY
5
C
100
AcDbDictionary
3
ACAD_GROUP
350
D
3
ACAD_MLINESTYLE
350
17
0
DICTIONARY
5
D
100
AcDbDictionary
0
DICTIONARY
5
1A
330
C
100
AcDbDictionary
0
DICTIONARY
5
17
100
AcDbDictionary
0
ENDSEC
0
EOF
