0
SECTION
2
HEADER
9
$INSUNITS
70
1
9
$ACADVER
1
AC1014
9
$HANDSEED
5
FFFF
0
ENDSEC
0
SECTION
2
TABLES
0
TABLE
2
VPORT
5
8
100
AcDbSymbolTable
0
ENDTAB
0
TABLE
2
LTYPE
5
5
100
AcDbSymbolTable
0
LTYPE
5
14
100
AcDbSymbolTableRecord
100
AcDbLinetypeTableRecord
2
BYBLOCK
70
0
0
LTYPE
5
15
100
AcDbSymbolTableRecord
100
AcDbLinetypeTableRecord
2
BYLAYER
70
0
0
ENDTAB
0
TABLE
2
LAYER
5
2
100
AcDbSymbolTable
70
2
0
LAYER
5
50
100
AcDbSymbolTableRecord
100
AcDbLayerTableRecord
2
0
70
0
6
CONTINUOUS
0
ENDTAB
0
TABLE
2
STYLE
5
3
100
AcDbSymbolTable
70
1
0
STYLE
5
11
100
AcDbSymbolTableRecord
100
AcDbTextStyleTableRecord
2
STANDARD
70
0
0
ENDTAB
0
TABLE
2
VIEW
5
6
100
AcDbSymbolTable
70
0
0
ENDTAB
0
TABLE
2
UCS
5
7
100
AcDbSymbolTable
70
0
0
ENDTAB
0
TABLE
2
APPID
5
9
100
AcDbSymbolTable
70
2
0
APPID
5
12
100
AcDbSymbolTableRecord
100
AcDbRegAppTableRecord
2
ACAD
70
0
0
ENDTAB
0
TABLE
2
DIMSTYLE
5
A
100
AcDbSymbolTable
70
1
0
ENDTAB
0
TABLE
2
BLOCK_RECORD
5
1
100
AcDbSymbolTable
70
1
0
BLOCK_RECORD
5
1F
100
AcDbSymbolTableRecord
100
AcDbBlockTableRecord
2
*MODEL_SPACE
0
BLOCK_RECORD
5
1B
100
AcDbSymbolTableRecord
100
AcDbBlockTableRecord
2
*PAPER_SPACE
0
ENDTAB
0
ENDSEC
0
SECTION
2
BLOCKS
0
BLOCK
5
20
100
AcDbEntity
100
AcDbBlockBegin
2
*MODEL_SPACE
0
ENDBLK
5
21
100
AcDbEntity
100
AcDbBlockEnd
0
BLOCK
5
1C
100
AcDbEntity
100
AcDbBlockBegin
2
*PAPER_SPACE
0
ENDBLK
5
1D
100
AcDbEntity
100
AcDbBlockEnd
0
ENDSEC
0
SECTION
2
ENTITIES
0
CIRCLE
5
100
100
AcDbEntity
8
0
100
AcDbCircle
10
0.84050942378096627
20
3.3324976722664932
30
0
40
0.115
210
0
220
0
230
1
0
CIRCLE
5
101
100
AcDbEntity
8
0
100
AcDbCircle
10
4.9405094237252651
20
3.332497672266479
30
0
40
0.11500000000000052
210
0
220
0
230
1
0
CIRCLE
5
102
100
AcDbEntity
8
0
100
AcDbCircle
10
0.84050942372526583
20
1.0324976722664956
30
0
40
0.115
210
0
220
0
230
1
0
CIRCLE
5
103
100
AcDbEntity
8
0
100
AcDbCircle
10
4.9405094237252598
20
1.0324976722664834
30
0
40
0.11499999999999982
210
0
220
0
230
1
0
LWPOLYLINE
5
104
100
AcDbEntity
8
0
100
AcDbPolyline
90
4
70
1
43
0.0
10
4.2699534236580421
20
3.2277755727784512
10
4.2699534236580421
20
2.1372232833975309
10
4.4274345412211646
20
2.1372232833975309
10
4.4274345412211646
20
3.2277755727784512
0
LWPOLYLINE
5
105
100
AcDbEntity
8
0
100
AcDbPolyline
90
17
70
1
43
0.0
10
4.6601876564901836
20
0.50653017843928705
42
-0.41421356237309936
10
4.5601876564901831
20
0.60653017843928692
10
4.5601876564901831
20
0.75653017843928694
10
0.85550835505052658
20
0.75653017843928694
42
0.41421356237309503
10
0.80550835505052665
20
0.706530178439287
10
0.80550835505052665
20
0.6065301784392868
42
-0.41421356237309476
10
0.70550835505052667
20
0.50653017843928683
10
0.15157480314960586
20
0.50653017843928694
10
0.15157480314960586
20
3.867497827581857
10
0.70550835505052667
20
3.867497827581857
42
-0.41421356237309936
10
0.80550835505052665
20
3.7674978275818569
10
0.80550835505052665
20
3.617497827581857
10
4.5601876564901831
20
3.617497827581857
10
4.5601876564901831
20
3.7674978275818569
42
-0.4142135623731012
10
4.6601876564901827
20
3.867497827581857
10
5.2144251968503923
20
3.867497827581857
10
5.2144251968503923
20
0.50653017843928694
0
CIRCLE
5
106
100
AcDbEntity
8
0
100
AcDbCircle
10
4.6858899725620065
20
3.7424978275818566
30
0
40
0.053499999999999936
210
0
220
0
230
1
0
CIRCLE
5
107
100
AcDbEntity
8
0
100
AcDbCircle
10
0.68050835505052665
20
3.7424978275818566
30
0
40
0.05350000000000011
210
0
220
0
230
1
0
CIRCLE
5
108
100
AcDbEntity
8
0
100
AcDbCircle
10
4.6858899725620065
20
0.63153017843928705
30
0
40
0.053499999999999936
210
0
220
0
230
1
0
CIRCLE
5
109
100
AcDbEntity
8
0
100
AcDbCircle
10
0.68050835505052665
20
0.63153017843928683
30
0
40
0.05350000000000002
210
0
220
0
230
1
0
ENDSEC
0
SECTION
2
OBJECTS
0
DICTIONARY
5
C
100
AcDbDictionary
3
ACAD_GROUP
350
D
3
ACAD_MLINESTYLE
350
17
0
DICTIONARY
5
D
100
AcDbDictionary
0
DICTIONARY
5
1A
330
C
100
AcDbDictionary
0
DICTIONARY
5
17
100
AcDbDictionary
0
ENDSEC
0
EOF
