0
SECTION
2
HEADER
9
$INSUNITS
70
4
9
$ACADVER
1
AC1014
9
$HANDSEED
5
FFFF
0
ENDSEC
0
SECTION
2
TABLES
0
TABLE
2
VPORT
5
8
100
AcDbSymbolTable
0
ENDTAB
0
TABLE
2
LTYPE
5
5
100
AcDbSymbolTable
0
LTYPE
5
14
100
AcDbSymbolTableRecord
100
AcDbLinetypeTableRecord
2
BYBLOCK
70
0
0
LTYPE
5
15
100
AcDbSymbolTableRecord
100
AcDbLinetypeTableRecord
2
BYLAYER
70
0
0
ENDTAB
0
TABLE
2
LAYER
5
2
100
AcDbSymbolTable
70
2
0
LAYER
5
50
100
AcDbSymbolTableRecord
100
AcDbLayerTableRecord
2
0
70
0
6
CONTINUOUS
0
ENDTAB
0
TABLE
2
STYLE
5
3
100
AcDbSymbolTable
70
1
0
STYLE
5
11
100
AcDbSymbolTableRecord
100
AcDbTextStyleTableRecord
2
STANDARD
70
0
0
ENDTAB
0
TABLE
2
VIEW
5
6
100
AcDbSymbolTable
70
0
0
ENDTAB
0
TABLE
2
UCS
5
7
100
AcDbSymbolTable
70
0
0
ENDTAB
0
TABLE
2
APPID
5
9
100
AcDbSymbolTable
70
2
0
APPID
5
12
100
AcDbSymbolTableRecord
100
AcDbRegAppTableRecord
2
ACAD
70
0
0
ENDTAB
0
TABLE
2
DIMSTYLE
5
A
100
AcDbSymbolTable
70
1
0
ENDTAB
0
TABLE
2
BLOCK_RECORD
5
1
100
AcDbSymbolTable
70
1
0
BLOCK_RECORD
5
1F
100
AcDbSymbolTableRecord
100
AcDbBlockTableRecord
2
*MODEL_SPACE
0
BLOCK_RECORD
5
1B
100
AcDbSymbolTableRecord
100
AcDbBlockTableRecord
2
*PAPER_SPACE
0
ENDTAB
0
ENDSEC
0
SECTION
2
BLOCKS
0
BLOCK
5
20
100
AcDbEntity
100
AcDbBlockBegin
2
*MODEL_SPACE
0
ENDBLK
5
21
100
AcDbEntity
100
AcDbBlockEnd
0
BLOCK
5
1C
100
AcDbEntity
100
AcDbBlockBegin
2
*PAPER_SPACE
0
ENDBLK
5
1D
100
AcDbEntity
100
AcDbBlockEnd
0
ENDSEC
0
SECTION
2
ENTITIES
0
CIRCLE
5
100
100
AcDbEntity
8
0
100
AcDbCircle
10
231.79675244344958
20
-10.200500215053783
30
0
40
3.1749999999999901
210
0
220
2.4651903288156619e-32
230
1
0
CIRCLE
5
101
100
AcDbEntity
8
0
100
AcDbCircle
10
509.19640244344964
20
-10.200500066042171
30
0
40
3.1750000000000251
210
0
220
2.4651903288156624e-32
230
1
0
ARC
5
102
100
AcDbEntity
8
0
100
AcDbCircle
10
508.69370244344969
20
-12.103000132084091
30
-1.5326701953552687e-45
40
13.297000000000097
210
4.1165842868832749e-48
220
2.4651903288156635e-32
230
1
100
AcDbArc
50
180
51
269.99999999999972
0
LINE
5
103
100
AcDbEntity
8
0
100
AcDbLine
10
508.69370244344964
20
-25.400000132084184
30
3.2779635802261958e-31
11
509.69910244344959
21
-25.400000000000155
31
0
0
ARC
5
104
100
AcDbEntity
8
0
100
AcDbCircle
10
509.69910244344953
20
-12.103000132084087
30
-1.7379385250903493e-45
40
13.296999867916067
210
1.2051954527824576e-46
220
1.3070155240685364e-46
230
1
100
AcDbArc
50
270.00000000000023
51
360
0
LINE
5
105
100
AcDbEntity
8
0
100
AcDbLine
10
522.99610244344967
20
-12.103000132084155
30
2.7713826173400692e-47
11
522.99610244344967
21
23.716999999999743
31
0
0
LINE
5
106
100
AcDbEntity
8
0
100
AcDbLine
10
522.99610244344967
20
23.716999999999743
30
0
11
522.96710244344956
21
23.769999999999797
31
0
0
LINE
5
107
100
AcDbEntity
8
0
100
AcDbLine
10
522.96710244344956
20
23.769999999999797
30
0
11
522.91480244344962
21
23.797999999999874
31
0
0
LINE
5
108
100
AcDbEntity
8
0
100
AcDbLine
10
522.91480244344962
20
23.797999999999874
30
0
11
517.99660244344966
21
23.797999999999874
31
0
0
LINE
5
109
100
AcDbEntity
8
0
100
AcDbLine
10
517.99660244344966
20
23.797999999999874
30
0
11
517.99660244344966
21
33.598999999999876
31
0
0
LINE
5
110
100
AcDbEntity
8
0
100
AcDbLine
10
517.99660244344966
20
33.598999999999876
30
0
11
522.91480244344962
21
33.598999999999876
31
0
0
LINE
5
111
100
AcDbEntity
8
0
100
AcDbLine
10
522.91480244344962
20
33.598999999999876
30
0
11
522.96710244344956
21
33.629999999999839
31
0
0
LINE
5
112
100
AcDbEntity
8
0
100
AcDbLine
10
522.96710244344956
20
33.629999999999839
30
0
11
522.99610244344967
21
33.682999999999822
31
0
0
LINE
5
113
100
AcDbEntity
8
0
100
AcDbLine
10
522.99610244344967
20
33.682999999999822
30
0
11
522.99610244344967
21
43.719999999999843
31
0
0
LINE
5
114
100
AcDbEntity
8
0
100
AcDbLine
10
522.99610244344967
20
43.719999999999843
30
0
11
522.96710244344956
21
43.768999999999842
31
0
0
LINE
5
115
100
AcDbEntity
8
0
100
AcDbLine
10
522.96710244344956
20
43.768999999999842
30
0
11
522.91480244344962
21
43.800999999999767
31
0
0
LINE
5
116
100
AcDbEntity
8
0
100
AcDbLine
10
522.91480244344962
20
43.800999999999767
30
0
11
517.99660244344966
21
43.800999999999767
31
0
0
LINE
5
117
100
AcDbEntity
8
0
100
AcDbLine
10
517.99660244344966
20
43.800999999999767
30
0
11
517.99660244344966
21
53.600999999999878
31
0
0
LINE
5
118
100
AcDbEntity
8
0
100
AcDbLine
10
517.99660244344966
20
53.600999999999878
30
0
11
522.91480244344962
21
53.600999999999878
31
0
0
LINE
5
119
100
AcDbEntity
8
0
100
AcDbLine
10
522.91480244344962
20
53.600999999999878
30
0
11
522.96710244344956
21
53.628999999999884
31
0
0
LINE
5
120
100
AcDbEntity
8
0
100
AcDbLine
10
522.96710244344956
20
53.628999999999884
30
0
11
522.99610244344967
21
53.681999999999725
31
0
0
LINE
5
121
100
AcDbEntity
8
0
100
AcDbLine
10
522.99610244344967
20
53.681999999999725
30
0
11
522.99610244344967
21
63.718999999999816
31
0
0
LINE
5
122
100
AcDbEntity
8
0
100
AcDbLine
10
522.99610244344967
20
63.718999999999816
30
0
11
522.96710244344956
21
63.7719999999998
31
0
0
LINE
5
123
100
AcDbEntity
8
0
100
AcDbLine
10
522.96710244344956
20
63.7719999999998
30
0
11
522.91480244344962
21
63.799999999999805
31
0
0
LINE
5
124
100
AcDbEntity
8
0
100
AcDbLine
10
522.91480244344962
20
63.799999999999805
30
0
11
517.99660244344966
21
63.799999999999805
31
0
0
LINE
5
125
100
AcDbEntity
8
0
100
AcDbLine
10
517.99660244344966
20
63.799999999999805
30
0
11
517.99660244344966
21
73.599999999999838
31
0
0
LINE
5
126
100
AcDbEntity
8
0
100
AcDbLine
10
517.99660244344966
20
73.599999999999838
30
0
11
522.91480244344962
21
73.599999999999838
31
0
0
LINE
5
127
100
AcDbEntity
8
0
100
AcDbLine
10
522.91480244344962
20
73.599999999999838
30
0
11
522.96710244344956
21
73.627999999999915
31
0
0
LINE
5
128
100
AcDbEntity
8
0
100
AcDbLine
10
522.96710244344956
20
73.627999999999915
30
0
11
522.99610244344967
21
73.684999999999818
31
0
0
LINE
5
129
100
AcDbEntity
8
0
100
AcDbLine
10
522.99610244344967
20
73.684999999999818
30
0
11
522.99610244344967
21
83.71799999999979
31
0
0
LINE
5
130
100
AcDbEntity
8
0
100
AcDbLine
10
522.99610244344967
20
83.71799999999979
30
0
11
522.96710244344956
21
83.77099999999983
31
0
0
LINE
5
131
100
AcDbEntity
8
0
100
AcDbLine
10
522.96710244344956
20
83.77099999999983
30
0
11
522.91480244344962
21
83.798999999999836
31
0
0
LINE
5
132
100
AcDbEntity
8
0
100
AcDbLine
10
522.91480244344962
20
83.798999999999836
30
0
11
517.99660244344966
21
83.798999999999836
31
0
0
LINE
5
133
100
AcDbEntity
8
0
100
AcDbLine
10
517.99660244344966
20
83.798999999999836
30
0
11
517.99660244344966
21
93.598999999999876
31
0
0
LINE
5
134
100
AcDbEntity
8
0
100
AcDbLine
10
517.99660244344966
20
93.598999999999876
30
0
11
522.91480244344962
21
93.598999999999876
31
0
0
LINE
5
135
100
AcDbEntity
8
0
100
AcDbLine
10
522.91480244344962
20
93.598999999999876
30
0
11
522.96710244344956
21
93.630999999999801
31
0
0
LINE
5
136
100
AcDbEntity
8
0
100
AcDbLine
10
522.96710244344956
20
93.630999999999801
30
0
11
522.99610244344967
21
93.683999999999784
31
0
0
LINE
5
137
100
AcDbEntity
8
0
100
AcDbLine
10
522.99610244344967
20
93.683999999999784
30
0
11
522.99610244344967
21
103.71699999999981
31
0
0
LINE
5
138
100
AcDbEntity
8
0
100
AcDbLine
10
522.99610244344967
20
103.71699999999981
30
0
11
522.96710244344956
21
103.7699999999998
31
0
0
LINE
5
139
100
AcDbEntity
8
0
100
AcDbLine
10
522.96710244344956
20
103.7699999999998
30
0
11
522.91480244344962
21
103.79799999999987
31
0
0
LINE
5
140
100
AcDbEntity
8
0
100
AcDbLine
10
522.91480244344962
20
103.79799999999987
30
0
11
517.99660244344966
21
103.79799999999987
31
0
0
LINE
5
141
100
AcDbEntity
8
0
100
AcDbLine
10
517.99660244344966
20
103.79799999999987
30
0
11
517.99660244344966
21
113.60199999999983
31
-4.9303806576313238e-31
0
LINE
5
142
100
AcDbEntity
8
0
100
AcDbLine
10
517.99660244344966
20
113.60199999999983
30
-4.9303806576313238e-31
11
522.91480244344962
21
113.60199999999983
31
0
0
LINE
5
143
100
AcDbEntity
8
0
100
AcDbLine
10
522.91480244344962
20
113.60199999999983
30
0
11
522.96710244344956
21
113.62999999999984
31
0
0
LINE
5
144
100
AcDbEntity
8
0
100
AcDbLine
10
522.96710244344956
20
113.62999999999984
30
0
11
522.99610244344967
21
113.68299999999982
31
0
0
LINE
5
145
100
AcDbEntity
8
0
100
AcDbLine
10
522.99610244344967
20
113.68299999999982
30
0
11
522.99610244344967
21
123.71899999999981
31
0
0
LINE
5
146
100
AcDbEntity
8
0
100
AcDbLine
10
522.99610244344967
20
123.71899999999981
30
0
11
522.96710244344956
21
123.77199999999979
31
0
0
LINE
5
147
100
AcDbEntity
8
0
100
AcDbLine
10
522.96710244344956
20
123.77199999999979
30
0
11
522.91480244344962
21
123.7999999999998
31
0
0
LINE
5
148
100
AcDbEntity
8
0
100
AcDbLine
10
522.91480244344962
20
123.7999999999998
30
0
11
517.99660244344966
21
123.7999999999998
31
0
0
LINE
5
149
100
AcDbEntity
8
0
100
AcDbLine
10
517.99660244344966
20
123.7999999999998
30
0
11
517.99660244344966
21
133.59999999999982
31
0
0
LINE
5
150
100
AcDbEntity
8
0
100
AcDbLine
10
517.99660244344966
20
133.59999999999982
30
0
11
522.91480244344962
21
133.59999999999982
31
0
0
LINE
5
151
100
AcDbEntity
8
0
100
AcDbLine
10
522.91480244344962
20
133.59999999999982
30
0
11
522.96710244344956
21
133.62899999999988
31
0
0
LINE
5
152
100
AcDbEntity
8
0
100
AcDbLine
10
522.96710244344956
20
133.62899999999988
30
0
11
522.99610244344967
21
133.6849999999998
31
0
0
LINE
5
153
100
AcDbEntity
8
0
100
AcDbLine
10
522.99610244344967
20
133.6849999999998
30
0
11
522.99610244344967
21
143.71799999999976
31
0
0
LINE
5
154
100
AcDbEntity
8
0
100
AcDbLine
10
522.99610244344967
20
143.71799999999976
30
0
11
522.96710244344956
21
143.77099999999982
31
0
0
LINE
5
155
100
AcDbEntity
8
0
100
AcDbLine
10
522.96710244344956
20
143.77099999999982
30
0
11
522.91480244344962
21
143.79899999999984
31
0
0
LINE
5
156
100
AcDbEntity
8
0
100
AcDbLine
10
522.91480244344962
20
143.79899999999984
30
0
11
517.99660244344966
21
143.79899999999984
31
0
0
LINE
5
157
100
AcDbEntity
8
0
100
AcDbLine
10
517.99660244344966
20
143.79899999999984
30
0
11
517.99660244344966
21
153.59899999999988
31
0
0
LINE
5
158
100
AcDbEntity
8
0
100
AcDbLine
10
517.99660244344966
20
153.59899999999988
30
0
11
522.91480244344962
21
153.59899999999988
31
0
0
LINE
5
159
100
AcDbEntity
8
0
100
AcDbLine
10
522.91480244344962
20
153.59899999999988
30
0
11
522.96710244344956
21
153.6279999999999
31
0
0
LINE
5
160
100
AcDbEntity
8
0
100
AcDbLine
10
522.96710244344956
20
153.6279999999999
30
0
11
522.99610244344967
21
153.68399999999977
31
0
0
LINE
5
161
100
AcDbEntity
8
0
100
AcDbLine
10
522.99610244344967
20
153.68399999999977
30
0
11
522.99610244344967
21
163.7169999999999
31
0
0
LINE
5
162
100
AcDbEntity
8
0
100
AcDbLine
10
522.99610244344967
20
163.7169999999999
30
0
11
522.96710244344956
21
163.76999999999981
31
0
0
LINE
5
163
100
AcDbEntity
8
0
100
AcDbLine
10
522.96710244344956
20
163.76999999999981
30
0
11
522.91480244344962
21
163.80199999999974
31
0
0
LINE
5
164
100
AcDbEntity
8
0
100
AcDbLine
10
522.91480244344962
20
163.80199999999974
30
0
11
517.99660244344966
21
163.80199999999974
31
0
0
LINE
5
165
100
AcDbEntity
8
0
100
AcDbLine
10
517.99660244344966
20
163.80199999999974
30
0
11
517.99660244344966
21
173.59799999999979
31
0
0
LINE
5
166
100
AcDbEntity
8
0
100
AcDbLine
10
517.99660244344966
20
173.59799999999979
30
0
11
522.91480244344962
21
173.59799999999979
31
0
0
LINE
5
167
100
AcDbEntity
8
0
100
AcDbLine
10
522.91480244344962
20
173.59799999999979
30
0
11
522.96710244344956
21
173.62999999999985
31
0
0
LINE
5
168
100
AcDbEntity
8
0
100
AcDbLine
10
522.96710244344956
20
173.62999999999985
30
0
11
522.99610244344967
21
173.68299999999991
31
0
0
LINE
5
169
100
AcDbEntity
8
0
100
AcDbLine
10
522.99610244344967
20
173.68299999999991
30
0
11
522.99610244344967
21
183.71599999999987
31
0
0
LINE
5
170
100
AcDbEntity
8
0
100
AcDbLine
10
522.99610244344967
20
183.71599999999987
30
0
11
522.96710244344956
21
183.77299999999991
31
0
0
LINE
5
171
100
AcDbEntity
8
0
100
AcDbLine
10
522.96710244344956
20
183.77299999999991
30
0
11
522.91480244344962
21
183.80099999999985
31
0
0
LINE
5
172
100
AcDbEntity
8
0
100
AcDbLine
10
522.91480244344962
20
183.80099999999985
30
0
11
517.99660244344966
21
183.80099999999985
31
0
0
LINE
5
173
100
AcDbEntity
8
0
100
AcDbLine
10
517.99660244344966
20
183.80099999999985
30
0
11
517.99660244344966
21
193.60099999999989
31
0
0
LINE
5
174
100
AcDbEntity
8
0
100
AcDbLine
10
517.99660244344966
20
193.60099999999989
30
0
11
522.91480244344962
21
193.60099999999989
31
0
0
LINE
5
175
100
AcDbEntity
8
0
100
AcDbLine
10
522.91480244344962
20
193.60099999999989
30
0
11
522.96710244344956
21
193.62899999999982
31
0
0
LINE
5
176
100
AcDbEntity
8
0
100
AcDbLine
10
522.96710244344956
20
193.62899999999982
30
0
11
522.99610244344967
21
193.68199999999973
31
0
0
LINE
5
177
100
AcDbEntity
8
0
100
AcDbLine
10
522.99610244344967
20
193.68199999999973
30
0
11
522.99610244344967
21
203.71899999999982
31
0
0
LINE
5
178
100
AcDbEntity
8
0
100
AcDbLine
10
522.99610244344967
20
203.71899999999982
30
0
11
522.96710244344956
21
203.77199999999974
31
0
0
LINE
5
179
100
AcDbEntity
8
0
100
AcDbLine
10
522.96710244344956
20
203.77199999999974
30
0
11
522.91480244344962
21
203.79999999999981
31
0
0
LINE
5
180
100
AcDbEntity
8
0
100
AcDbLine
10
522.91480244344962
20
203.79999999999981
30
0
11
517.99660244344966
21
203.79999999999981
31
0
0
LINE
5
181
100
AcDbEntity
8
0
100
AcDbLine
10
517.99660244344966
20
203.79999999999981
30
0
11
517.99660244344966
21
213.59999999999985
31
0
0
LINE
5
182
100
AcDbEntity
8
0
100
AcDbLine
10
517.99660244344966
20
213.59999999999985
30
0
11
522.91480244344962
21
213.59999999999985
31
0
0
LINE
5
183
100
AcDbEntity
8
0
100
AcDbLine
10
522.91480244344962
20
213.59999999999985
30
0
11
522.96710244344956
21
213.63199999999978
31
0
0
LINE
5
184
100
AcDbEntity
8
0
100
AcDbLine
10
522.96710244344956
20
213.63199999999978
30
0
11
522.99610244344967
21
213.68499999999983
31
0
0
LINE
5
185
100
AcDbEntity
8
0
100
AcDbLine
10
522.99610244344967
20
213.68499999999983
30
0
11
522.99610244344967
21
223.71799999999979
31
0
0
LINE
5
186
100
AcDbEntity
8
0
100
AcDbLine
10
522.99610244344967
20
223.71799999999979
30
0
11
522.96710244344956
21
223.76999999999981
31
0
0
LINE
5
187
100
AcDbEntity
8
0
100
AcDbLine
10
522.96710244344956
20
223.76999999999981
30
0
11
522.91480244344962
21
223.79899999999978
31
0
0
LINE
5
188
100
AcDbEntity
8
0
100
AcDbLine
10
522.91480244344962
20
223.79899999999978
30
0
11
517.99660244344966
21
223.79899999999978
31
0
0
LINE
5
189
100
AcDbEntity
8
0
100
AcDbLine
10
517.99660244344966
20
223.79899999999978
30
0
11
517.99660244344966
21
233.59899999999982
31
0
0
LINE
5
190
100
AcDbEntity
8
0
100
AcDbLine
10
517.99660244344966
20
233.59899999999982
30
0
11
522.91480244344962
21
233.59899999999982
31
0
0
LINE
5
191
100
AcDbEntity
8
0
100
AcDbLine
10
522.91480244344962
20
233.59899999999982
30
0
11
522.96710244344956
21
233.63099999999989
31
0
0
LINE
5
192
100
AcDbEntity
8
0
100
AcDbLine
10
522.96710244344956
20
233.63099999999989
30
0
11
522.99610244344967
21
233.6839999999998
31
0
0
LINE
5
193
100
AcDbEntity
8
0
100
AcDbLine
10
522.99610244344967
20
233.6839999999998
30
0
11
522.99610244344967
21
243.71999999999986
31
0
0
LINE
5
194
100
AcDbEntity
8
0
100
AcDbLine
10
522.99610244344967
20
243.71999999999986
30
0
11
522.96710244344956
21
243.76899999999978
31
0
0
LINE
5
195
100
AcDbEntity
8
0
100
AcDbLine
10
522.96710244344956
20
243.76899999999978
30
0
11
522.91480244344962
21
243.80099999999985
31
0
0
LINE
5
196
100
AcDbEntity
8
0
100
AcDbLine
10
522.91480244344962
20
243.80099999999985
30
0
11
517.99660244344966
21
243.80099999999985
31
0
0
LINE
5
197
100
AcDbEntity
8
0
100
AcDbLine
10
517.99660244344966
20
243.80099999999985
30
0
11
517.99660244344966
21
253.60099999999989
31
0
0
LINE
5
198
100
AcDbEntity
8
0
100
AcDbLine
10
517.99660244344966
20
253.60099999999989
30
0
11
522.91480244344962
21
253.60099999999989
31
0
0
LINE
5
199
100
AcDbEntity
8
0
100
AcDbLine
10
522.91480244344962
20
253.60099999999989
30
0
11
522.96710244344956
21
253.62999999999985
31
0
0
LINE
5
200
100
AcDbEntity
8
0
100
AcDbLine
10
522.96710244344956
20
253.62999999999985
30
0
11
522.99610244344967
21
253.68299999999991
31
0
0
LINE
5
201
100
AcDbEntity
8
0
100
AcDbLine
10
522.99610244344967
20
253.68299999999991
30
0
11
522.99610244344967
21
263.71899999999982
31
0
0
LINE
5
202
100
AcDbEntity
8
0
100
AcDbLine
10
522.99610244344967
20
263.71899999999982
30
0
11
522.96710244344956
21
263.77199999999971
31
0
0
LINE
5
203
100
AcDbEntity
8
0
100
AcDbLine
10
522.96710244344956
20
263.77199999999971
30
0
11
522.91480244344962
21
263.79999999999984
31
0
0
LINE
5
204
100
AcDbEntity
8
0
100
AcDbLine
10
522.91480244344962
20
263.79999999999984
30
0
11
517.99660244344966
21
263.79999999999984
31
0
0
LINE
5
205
100
AcDbEntity
8
0
100
AcDbLine
10
517.99660244344966
20
263.79999999999984
30
0
11
517.99660244344966
21
273.5999999999998
31
0
0
LINE
5
206
100
AcDbEntity
8
0
100
AcDbLine
10
517.99660244344966
20
273.5999999999998
30
0
11
522.91480244344962
21
273.5999999999998
31
0
0
LINE
5
207
100
AcDbEntity
8
0
100
AcDbLine
10
522.91480244344962
20
273.5999999999998
30
0
11
522.96710244344956
21
273.62899999999991
31
0
0
LINE
5
208
100
AcDbEntity
8
0
100
AcDbLine
10
522.96710244344956
20
273.62899999999991
30
0
11
522.99610244344967
21
273.68499999999977
31
0
0
LINE
5
209
100
AcDbEntity
8
0
100
AcDbLine
10
522.99610244344967
20
273.68499999999977
30
0
11
522.99610244344967
21
283.71799999999973
31
0
0
LINE
5
210
100
AcDbEntity
8
0
100
AcDbLine
10
522.99610244344967
20
283.71799999999973
30
0
11
522.96710244344956
21
283.77100000000007
31
0
0
LINE
5
211
100
AcDbEntity
8
0
100
AcDbLine
10
522.96710244344956
20
283.77100000000007
30
0
11
522.91480244344962
21
283.79899999999986
31
0
0
LINE
5
212
100
AcDbEntity
8
0
100
AcDbLine
10
522.91480244344962
20
283.79899999999986
30
0
11
517.99660244344966
21
283.79899999999986
31
0
0
LINE
5
213
100
AcDbEntity
8
0
100
AcDbLine
10
517.99660244344966
20
283.79899999999986
30
0
11
517.99660244344966
21
293.59899999999976
31
0
0
LINE
5
214
100
AcDbEntity
8
0
100
AcDbLine
10
517.99660244344966
20
293.59899999999976
30
0
11
522.91480244344962
21
293.59899999999976
31
0
0
LINE
5
215
100
AcDbEntity
8
0
100
AcDbLine
10
522.91480244344962
20
293.59899999999976
30
0
11
522.96710244344956
21
293.63099999999997
31
0
0
LINE
5
216
100
AcDbEntity
8
0
100
AcDbLine
10
522.96710244344956
20
293.63099999999997
30
0
11
522.99610244344967
21
293.68399999999974
31
0
0
LINE
5
217
100
AcDbEntity
8
0
100
AcDbLine
10
522.99610244344967
20
293.68399999999974
30
0
11
522.99610244344967
21
303.71699999999998
31
0
0
LINE
5
218
100
AcDbEntity
8
0
100
AcDbLine
10
522.99610244344967
20
303.71699999999998
30
0
11
522.96710244344956
21
303.76999999999975
31
0
0
LINE
5
219
100
AcDbEntity
8
0
100
AcDbLine
10
522.96710244344956
20
303.76999999999975
30
0
11
522.91480244344962
21
303.79799999999983
31
0
0
LINE
5
220
100
AcDbEntity
8
0
100
AcDbLine
10
522.91480244344962
20
303.79799999999983
30
0
11
517.99660244344966
21
303.79799999999983
31
0
0
LINE
5
221
100
AcDbEntity
8
0
100
AcDbLine
10
517.99660244344966
20
303.79799999999983
30
0
11
517.99660244344966
21
313.60199999999986
31
0
0
LINE
5
222
100
AcDbEntity
8
0
100
AcDbLine
10
517.99660244344966
20
313.60199999999986
30
0
11
522.91480244344962
21
313.60199999999986
31
0
0
LINE
5
223
100
AcDbEntity
8
0
100
AcDbLine
10
522.91480244344962
20
313.60199999999986
30
0
11
522.96710244344956
21
313.62999999999994
31
0
0
LINE
5
224
100
AcDbEntity
8
0
100
AcDbLine
10
522.96710244344956
20
313.62999999999994
30
0
11
522.99610244344967
21
313.68299999999999
31
0
0
LINE
5
225
100
AcDbEntity
8
0
100
AcDbLine
10
522.99610244344967
20
313.68299999999999
30
0
11
522.99610244344967
21
323.71899999999977
31
0
0
LINE
5
226
100
AcDbEntity
8
0
100
AcDbLine
10
522.99610244344967
20
323.71899999999977
30
0
11
522.96710244344956
21
323.77199999999982
31
0
0
LINE
5
227
100
AcDbEntity
8
0
100
AcDbLine
10
522.96710244344956
20
323.77199999999982
30
0
11
522.91480244344962
21
323.80099999999993
31
0
0
LINE
5
228
100
AcDbEntity
8
0
100
AcDbLine
10
522.91480244344962
20
323.80099999999993
30
0
11
517.99660244344966
21
323.80099999999993
31
0
0
LINE
5
229
100
AcDbEntity
8
0
100
AcDbLine
10
517.99660244344966
20
323.80099999999993
30
0
11
517.99660244344966
21
333.60099999999983
31
0
0
LINE
5
230
100
AcDbEntity
8
0
100
AcDbLine
10
517.99660244344966
20
333.60099999999983
30
0
11
522.91480244344962
21
333.60099999999983
31
0
0
LINE
5
231
100
AcDbEntity
8
0
100
AcDbLine
10
522.91480244344962
20
333.60099999999983
30
0
11
522.96710244344956
21
333.62899999999991
31
0
0
LINE
5
232
100
AcDbEntity
8
0
100
AcDbLine
10
522.96710244344956
20
333.62899999999991
30
0
11
522.99610244344967
21
333.68499999999977
31
0
0
LINE
5
233
100
AcDbEntity
8
0
100
AcDbLine
10
522.99610244344967
20
333.68499999999977
30
0
11
522.99610244344967
21
343.71799999999973
31
0
0
LINE
5
234
100
AcDbEntity
8
0
100
AcDbLine
10
522.99610244344967
20
343.71799999999973
30
0
11
522.96710244344956
21
343.77100000000007
31
0
0
LINE
5
235
100
AcDbEntity
8
0
100
AcDbLine
10
522.96710244344956
20
343.77100000000007
30
0
11
522.91480244344962
21
343.7999999999999
31
0
0
LINE
5
236
100
AcDbEntity
8
0
100
AcDbLine
10
522.91480244344962
20
343.7999999999999
30
0
11
517.99660244344966
21
343.7999999999999
31
0
0
LINE
5
237
100
AcDbEntity
8
0
100
AcDbLine
10
517.99660244344966
20
343.7999999999999
30
0
11
517.99660244344966
21
353.5999999999998
31
0
0
LINE
5
238
100
AcDbEntity
8
0
100
AcDbLine
10
517.99660244344966
20
353.5999999999998
30
0
11
522.91480244344962
21
353.5999999999998
31
0
0
LINE
5
239
100
AcDbEntity
8
0
100
AcDbLine
10
522.91480244344962
20
353.5999999999998
30
0
11
522.96710244344956
21
353.62799999999987
31
0
0
LINE
5
240
100
AcDbEntity
8
0
100
AcDbLine
10
522.96710244344956
20
353.62799999999987
30
0
11
522.99610244344967
21
353.68399999999974
31
0
0
LINE
5
241
100
AcDbEntity
8
0
100
AcDbLine
10
522.99610244344967
20
353.68399999999974
30
0
11
522.99610244344967
21
363.71699999999998
31
0
0
LINE
5
242
100
AcDbEntity
8
0
100
AcDbLine
10
522.99610244344967
20
363.71699999999998
30
0
11
522.96710244344956
21
363.76999999999975
31
0
0
LINE
5
243
100
AcDbEntity
8
0
100
AcDbLine
10
522.96710244344956
20
363.76999999999975
30
0
11
522.91480244344962
21
363.79899999999986
31
0
0
LINE
5
244
100
AcDbEntity
8
0
100
AcDbLine
10
522.91480244344962
20
363.79899999999986
30
0
11
517.99660244344966
21
363.79899999999986
31
0
0
LINE
5
245
100
AcDbEntity
8
0
100
AcDbLine
10
517.99660244344966
20
363.79899999999986
30
0
11
517.99660244344966
21
373.59899999999976
31
0
0
LINE
5
246
100
AcDbEntity
8
0
100
AcDbLine
10
517.99660244344966
20
373.59899999999976
30
0
11
522.91480244344962
21
373.59899999999976
31
0
0
LINE
5
247
100
AcDbEntity
8
0
100
AcDbLine
10
522.91480244344962
20
373.59899999999976
30
0
11
522.96710244344956
21
373.63099999999997
31
0
0
LINE
5
248
100
AcDbEntity
8
0
100
AcDbLine
10
522.96710244344956
20
373.63099999999997
30
0
11
522.99610244344967
21
373.68299999999999
31
0
0
LINE
5
249
100
AcDbEntity
8
0
100
AcDbLine
10
522.99610244344967
20
373.68299999999999
30
0
11
522.99610244344967
21
383.71599999999995
31
0
0
LINE
5
250
100
AcDbEntity
8
0
100
AcDbLine
10
522.99610244344967
20
383.71599999999995
30
0
11
522.96710244344956
21
383.77299999999985
31
0
0
LINE
5
251
100
AcDbEntity
8
0
100
AcDbLine
10
522.96710244344956
20
383.77299999999985
30
0
11
522.91480244344962
21
383.80099999999993
31
0
0
LINE
5
252
100
AcDbEntity
8
0
100
AcDbLine
10
522.91480244344962
20
383.80099999999993
30
0
11
517.99660244344966
21
383.80099999999993
31
0
0
LINE
5
253
100
AcDbEntity
8
0
100
AcDbLine
10
517.99660244344966
20
383.80099999999993
30
0
11
517.99660244344966
21
393.60099999999983
31
0
0
LINE
5
254
100
AcDbEntity
8
0
100
AcDbLine
10
517.99660244344966
20
393.60099999999983
30
0
11
522.91480244344962
21
393.60099999999983
31
0
0
LINE
5
255
100
AcDbEntity
8
0
100
AcDbLine
10
522.91480244344962
20
393.60099999999983
30
0
11
522.96710244344956
21
393.62899999999991
31
0
0
LINE
5
256
100
AcDbEntity
8
0
100
AcDbLine
10
522.96710244344956
20
393.62899999999991
30
0
11
522.99610244344967
21
393.68199999999968
31
0
0
LINE
5
257
100
AcDbEntity
8
0
100
AcDbLine
10
522.99610244344967
20
393.68199999999968
30
0
11
522.99610244344967
21
403.71899999999977
31
0
0
LINE
5
258
100
AcDbEntity
8
0
100
AcDbLine
10
522.99610244344967
20
403.71899999999977
30
0
11
522.96710244344956
21
403.77199999999982
31
0
0
LINE
5
259
100
AcDbEntity
8
0
100
AcDbLine
10
522.96710244344956
20
403.77199999999982
30
0
11
522.91480244344962
21
403.7999999999999
31
0
0
LINE
5
260
100
AcDbEntity
8
0
100
AcDbLine
10
522.91480244344962
20
403.7999999999999
30
0
11
517.99660244344966
21
403.7999999999999
31
0
0
LINE
5
261
100
AcDbEntity
8
0
100
AcDbLine
10
517.99660244344966
20
403.7999999999999
30
0
11
517.99660244344966
21
413.5999999999998
31
0
0
LINE
5
262
100
AcDbEntity
8
0
100
AcDbLine
10
517.99660244344966
20
413.5999999999998
30
0
11
522.91480244344962
21
413.5999999999998
31
0
0
LINE
5
263
100
AcDbEntity
8
0
100
AcDbLine
10
522.91480244344962
20
413.5999999999998
30
0
11
522.96710244344956
21
413.62799999999987
31
0
0
LINE
5
264
100
AcDbEntity
8
0
100
AcDbLine
10
522.96710244344956
20
413.62799999999987
30
0
11
522.99610244344967
21
413.68099999999993
31
0
0
LINE
5
265
100
AcDbEntity
8
0
100
AcDbLine
10
522.99610244344967
20
413.68099999999993
30
0
11
522.99610244344967
21
423.71799999999973
31
0
0
LINE
5
266
100
AcDbEntity
8
0
100
AcDbLine
10
522.99610244344967
20
423.71799999999973
30
0
11
522.96710244344956
21
423.77100000000007
31
0
0
LINE
5
267
100
AcDbEntity
8
0
100
AcDbLine
10
522.96710244344956
20
423.77100000000007
30
0
11
522.91480244344962
21
423.79899999999986
31
0
0
LINE
5
268
100
AcDbEntity
8
0
100
AcDbLine
10
522.91480244344962
20
423.79899999999986
30
0
11
517.99660244344966
21
423.79899999999986
31
0
0
LINE
5
269
100
AcDbEntity
8
0
100
AcDbLine
10
517.99660244344966
20
423.79899999999986
30
0
11
517.99660244344966
21
433.59899999999976
31
-4.9303806576313238e-31
0
LINE
5
270
100
AcDbEntity
8
0
100
AcDbLine
10
517.99660244344966
20
433.59899999999976
30
-4.9303806576313238e-31
11
522.91480244344962
21
433.59899999999976
31
0
0
LINE
5
271
100
AcDbEntity
8
0
100
AcDbLine
10
522.91480244344962
20
433.59899999999976
30
0
11
522.96710244344956
21
433.63099999999997
31
0
0
LINE
5
272
100
AcDbEntity
8
0
100
AcDbLine
10
522.96710244344956
20
433.63099999999997
30
0
11
522.99610244344967
21
433.68399999999974
31
0
0
LINE
5
273
100
AcDbEntity
8
0
100
AcDbLine
10
522.99610244344967
20
433.68399999999974
30
0
11
522.99650244344957
21
433.68399999999974
31
0
0
LINE
5
274
100
AcDbEntity
8
0
100
AcDbLine
10
522.99650244344957
20
433.68399999999974
30
0
11
522.99650244344957
21
461.07299999999975
31
0
0
ARC
5
275
100
AcDbEntity
8
0
100
AcDbCircle
10
461.67050244344966
20
461.07299999999981
30
-2.1895288505075267e-46
40
61.325999999999965
210
-3.2132797923503512e-47
220
-2.4651903288156635e-32
230
1
100
AcDbArc
50
0
51
90
0
LINE
5
276
100
AcDbEntity
8
0
100
AcDbLine
10
461.67050244344966
20
522.39899999999977
30
1.5118026210494928e-30
11
279.32250244344959
21
522.39899999999966
31
0
0
ARC
5
277
100
AcDbEntity
8
0
100
AcDbCircle
10
279.32250244344965
20
461.07299999999964
30
-4.8169634711165587e-45
40
61.326000000000036
210
1.6414158160937802e-47
220
-7.854683936856399e-47
230
1
100
AcDbArc
50
90.000000000000057
51
180
0
LINE
5
278
100
AcDbEntity
8
0
100
AcDbLine
10
217.99650244344951
20
461.07299999999975
30
-3.6090143854272037e-46
11
217.9965024434496
21
433.68399999999974
31
0
0
LINE
5
279
100
AcDbEntity
8
0
100
AcDbLine
10
217.9965024434496
20
433.68399999999974
30
0
11
218.02650244344957
21
433.63099999999997
31
0
0
LINE
5
280
100
AcDbEntity
8
0
100
AcDbLine
10
218.02650244344957
20
433.63099999999997
30
0
11
218.08050244344957
21
433.59899999999976
31
0
0
LINE
5
281
100
AcDbEntity
8
0
100
AcDbLine
10
218.08050244344957
20
433.59899999999976
30
0
11
222.99750244344955
21
433.59899999999976
31
0
0
LINE
5
282
100
AcDbEntity
8
0
100
AcDbLine
10
222.99750244344955
20
433.59899999999976
30
0
11
222.99750244344955
21
423.79899999999986
31
4.9303806576313238e-31
0
LINE
5
283
100
AcDbEntity
8
0
100
AcDbLine
10
222.99750244344955
20
423.79899999999986
30
4.9303806576313238e-31
11
218.08050244344957
21
423.79899999999986
31
0
0
LINE
5
284
100
AcDbEntity
8
0
100
AcDbLine
10
218.08050244344957
20
423.79899999999986
30
0
11
218.02650244344957
21
423.77100000000007
31
0
0
LINE
5
285
100
AcDbEntity
8
0
100
AcDbLine
10
218.02650244344957
20
423.77100000000007
30
0
11
217.9965024434496
21
423.71799999999973
31
0
0
LINE
5
286
100
AcDbEntity
8
0
100
AcDbLine
10
217.9965024434496
20
423.71799999999973
30
0
11
217.9965024434496
21
413.68099999999993
31
0
0
LINE
5
287
100
AcDbEntity
8
0
100
AcDbLine
10
217.9965024434496
20
413.68099999999993
30
0
11
218.02650244344957
21
413.62799999999987
31
0
0
LINE
5
288
100
AcDbEntity
8
0
100
AcDbLine
10
218.02650244344957
20
413.62799999999987
30
0
11
218.08050244344957
21
413.5999999999998
31
0
0
LINE
5
289
100
AcDbEntity
8
0
100
AcDbLine
10
218.08050244344957
20
413.5999999999998
30
0
11
222.99750244344955
21
413.5999999999998
31
0
0
LINE
5
290
100
AcDbEntity
8
0
100
AcDbLine
10
222.99750244344955
20
413.5999999999998
30
0
11
222.99750244344955
21
403.7999999999999
31
0
0
LINE
5
291
100
AcDbEntity
8
0
100
AcDbLine
10
222.99750244344955
20
403.7999999999999
30
0
11
218.08050244344957
21
403.7999999999999
31
0
0
LINE
5
292
100
AcDbEntity
8
0
100
AcDbLine
10
218.08050244344957
20
403.7999999999999
30
0
11
218.02650244344957
21
403.77199999999982
31
0
0
LINE
5
293
100
AcDbEntity
8
0
100
AcDbLine
10
218.02650244344957
20
403.77199999999982
30
0
11
217.9965024434496
21
403.71899999999977
31
0
0
LINE
5
294
100
AcDbEntity
8
0
100
AcDbLine
10
217.9965024434496
20
403.71899999999977
30
0
11
217.9965024434496
21
393.68199999999968
31
0
0
LINE
5
295
100
AcDbEntity
8
0
100
AcDbLine
10
217.9965024434496
20
393.68199999999968
30
0
11
218.02650244344957
21
393.62899999999991
31
0
0
LINE
5
296
100
AcDbEntity
8
0
100
AcDbLine
10
218.02650244344957
20
393.62899999999991
30
0
11
218.08050244344957
21
393.60099999999983
31
0
0
LINE
5
297
100
AcDbEntity
8
0
100
AcDbLine
10
218.08050244344957
20
393.60099999999983
30
0
11
222.99750244344955
21
393.60099999999983
31
0
0
LINE
5
298
100
AcDbEntity
8
0
100
AcDbLine
10
222.99750244344955
20
393.60099999999983
30
0
11
222.99750244344955
21
383.80099999999993
31
0
0
LINE
5
299
100
AcDbEntity
8
0
100
AcDbLine
10
222.99750244344955
20
383.80099999999993
30
0
11
218.08050244344957
21
383.80099999999993
31
0
0
LINE
5
300
100
AcDbEntity
8
0
100
AcDbLine
10
218.08050244344957
20
383.80099999999993
30
0
11
218.02650244344957
21
383.77299999999985
31
0
0
LINE
5
301
100
AcDbEntity
8
0
100
AcDbLine
10
218.02650244344957
20
383.77299999999985
30
0
11
217.9965024434496
21
383.71599999999995
31
0
0
LINE
5
302
100
AcDbEntity
8
0
100
AcDbLine
10
217.9965024434496
20
383.71599999999995
30
0
11
217.9965024434496
21
373.68299999999999
31
0
0
LINE
5
303
100
AcDbEntity
8
0
100
AcDbLine
10
217.9965024434496
20
373.68299999999999
30
0
11
218.02650244344957
21
373.63099999999997
31
0
0
LINE
5
304
100
AcDbEntity
8
0
100
AcDbLine
10
218.02650244344957
20
373.63099999999997
30
0
11
218.08050244344957
21
373.59899999999976
31
0
0
LINE
5
305
100
AcDbEntity
8
0
100
AcDbLine
10
218.08050244344957
20
373.59899999999976
30
0
11
222.99750244344955
21
373.59899999999976
31
0
0
LINE
5
306
100
AcDbEntity
8
0
100
AcDbLine
10
222.99750244344955
20
373.59899999999976
30
0
11
222.99750244344955
21
363.79899999999986
31
0
0
LINE
5
307
100
AcDbEntity
8
0
100
AcDbLine
10
222.99750244344955
20
363.79899999999986
30
0
11
218.08050244344957
21
363.79899999999986
31
0
0
LINE
5
308
100
AcDbEntity
8
0
100
AcDbLine
10
218.08050244344957
20
363.79899999999986
30
0
11
218.02650244344957
21
363.76999999999975
31
0
0
LINE
5
309
100
AcDbEntity
8
0
100
AcDbLine
10
218.02650244344957
20
363.76999999999975
30
0
11
217.9965024434496
21
363.71699999999998
31
0
0
LINE
5
310
100
AcDbEntity
8
0
100
AcDbLine
10
217.9965024434496
20
363.71699999999998
30
0
11
217.9965024434496
21
353.68399999999974
31
0
0
LINE
5
311
100
AcDbEntity
8
0
100
AcDbLine
10
217.9965024434496
20
353.68399999999974
30
0
11
218.02650244344957
21
353.62799999999987
31
0
0
LINE
5
312
100
AcDbEntity
8
0
100
AcDbLine
10
218.02650244344957
20
353.62799999999987
30
0
11
218.08050244344957
21
353.5999999999998
31
0
0
LINE
5
313
100
AcDbEntity
8
0
100
AcDbLine
10
218.08050244344957
20
353.5999999999998
30
0
11
222.99750244344955
21
353.5999999999998
31
0
0
LINE
5
314
100
AcDbEntity
8
0
100
AcDbLine
10
222.99750244344955
20
353.5999999999998
30
0
11
222.99750244344955
21
343.7999999999999
31
0
0
LINE
5
315
100
AcDbEntity
8
0
100
AcDbLine
10
222.99750244344955
20
343.7999999999999
30
0
11
218.08050244344957
21
343.7999999999999
31
0
0
LINE
5
316
100
AcDbEntity
8
0
100
AcDbLine
10
218.08050244344957
20
343.7999999999999
30
0
11
218.02650244344957
21
343.77100000000007
31
0
0
LINE
5
317
100
AcDbEntity
8
0
100
AcDbLine
10
218.02650244344957
20
343.77100000000007
30
0
11
217.9965024434496
21
343.71799999999973
31
0
0
LINE
5
318
100
AcDbEntity
8
0
100
AcDbLine
10
217.9965024434496
20
343.71799999999973
30
0
11
217.9965024434496
21
333.68499999999977
31
0
0
LINE
5
319
100
AcDbEntity
8
0
100
AcDbLine
10
217.9965024434496
20
333.68499999999977
30
0
11
218.02650244344957
21
333.62899999999991
31
0
0
LINE
5
320
100
AcDbEntity
8
0
100
AcDbLine
10
218.02650244344957
20
333.62899999999991
30
0
11
218.08050244344957
21
333.60099999999983
31
0
0
LINE
5
321
100
AcDbEntity
8
0
100
AcDbLine
10
218.08050244344957
20
333.60099999999983
30
0
11
222.99750244344955
21
333.60099999999983
31
0
0
LINE
5
322
100
AcDbEntity
8
0
100
AcDbLine
10
222.99750244344955
20
333.60099999999983
30
0
11
222.99750244344955
21
323.80099999999993
31
0
0
LINE
5
323
100
AcDbEntity
8
0
100
AcDbLine
10
222.99750244344955
20
323.80099999999993
30
0
11
218.08050244344957
21
323.80099999999993
31
0
0
LINE
5
324
100
AcDbEntity
8
0
100
AcDbLine
10
218.08050244344957
20
323.80099999999993
30
0
11
218.02650244344957
21
323.77199999999982
31
0
0
LINE
5
325
100
AcDbEntity
8
0
100
AcDbLine
10
218.02650244344957
20
323.77199999999982
30
0
11
217.9965024434496
21
323.71899999999977
31
0
0
LINE
5
326
100
AcDbEntity
8
0
100
AcDbLine
10
217.9965024434496
20
323.71899999999977
30
0
11
217.9965024434496
21
313.68299999999999
31
0
0
LINE
5
327
100
AcDbEntity
8
0
100
AcDbLine
10
217.9965024434496
20
313.68299999999999
30
0
11
218.02650244344957
21
313.62999999999994
31
0
0
LINE
5
328
100
AcDbEntity
8
0
100
AcDbLine
10
218.02650244344957
20
313.62999999999994
30
0
11
218.08050244344957
21
313.60199999999986
31
0
0
LINE
5
329
100
AcDbEntity
8
0
100
AcDbLine
10
218.08050244344957
20
313.60199999999986
30
0
11
222.99750244344955
21
313.60199999999986
31
0
0
LINE
5
330
100
AcDbEntity
8
0
100
AcDbLine
10
222.99750244344955
20
313.60199999999986
30
0
11
222.99750244344955
21
303.79799999999983
31
0
0
LINE
5
331
100
AcDbEntity
8
0
100
AcDbLine
10
222.99750244344955
20
303.79799999999983
30
0
11
218.08050244344957
21
303.79799999999983
31
0
0
LINE
5
332
100
AcDbEntity
8
0
100
AcDbLine
10
218.08050244344957
20
303.79799999999983
30
0
11
218.02650244344957
21
303.76999999999975
31
0
0
LINE
5
333
100
AcDbEntity
8
0
100
AcDbLine
10
218.02650244344957
20
303.76999999999975
30
0
11
217.9965024434496
21
303.71699999999998
31
0
0
LINE
5
334
100
AcDbEntity
8
0
100
AcDbLine
10
217.9965024434496
20
303.71699999999998
30
0
11
217.9965024434496
21
293.68399999999974
31
0
0
LINE
5
335
100
AcDbEntity
8
0
100
AcDbLine
10
217.9965024434496
20
293.68399999999974
30
0
11
218.02650244344957
21
293.63099999999997
31
0
0
LINE
5
336
100
AcDbEntity
8
0
100
AcDbLine
10
218.02650244344957
20
293.63099999999997
30
0
11
218.08050244344957
21
293.59899999999976
31
0
0
LINE
5
337
100
AcDbEntity
8
0
100
AcDbLine
10
218.08050244344957
20
293.59899999999976
30
0
11
222.99750244344955
21
293.59899999999976
31
0
0
LINE
5
338
100
AcDbEntity
8
0
100
AcDbLine
10
222.99750244344955
20
293.59899999999976
30
0
11
222.99750244344955
21
283.79899999999986
31
0
0
LINE
5
339
100
AcDbEntity
8
0
100
AcDbLine
10
222.99750244344955
20
283.79899999999986
30
0
11
218.08050244344957
21
283.79899999999986
31
0
0
LINE
5
340
100
AcDbEntity
8
0
100
AcDbLine
10
218.08050244344957
20
283.79899999999986
30
0
11
218.02650244344957
21
283.77100000000007
31
0
0
LINE
5
341
100
AcDbEntity
8
0
100
AcDbLine
10
218.02650244344957
20
283.77100000000007
30
0
11
217.9965024434496
21
283.71799999999973
31
0
0
LINE
5
342
100
AcDbEntity
8
0
100
AcDbLine
10
217.9965024434496
20
283.71799999999973
30
0
11
217.9965024434496
21
273.68499999999977
31
0
0
LINE
5
343
100
AcDbEntity
8
0
100
AcDbLine
10
217.9965024434496
20
273.68499999999977
30
0
11
218.02650244344957
21
273.62899999999991
31
0
0
LINE
5
344
100
AcDbEntity
8
0
100
AcDbLine
10
218.02650244344957
20
273.62899999999991
30
0
11
218.08050244344957
21
273.5999999999998
31
0
0
LINE
5
345
100
AcDbEntity
8
0
100
AcDbLine
10
218.08050244344957
20
273.5999999999998
30
0
11
222.99750244344955
21
273.5999999999998
31
0
0
LINE
5
346
100
AcDbEntity
8
0
100
AcDbLine
10
222.99750244344955
20
273.5999999999998
30
0
11
222.99750244344955
21
263.79999999999984
31
0
0
LINE
5
347
100
AcDbEntity
8
0
100
AcDbLine
10
222.99750244344955
20
263.79999999999984
30
0
11
218.08050244344957
21
263.79999999999984
31
0
0
LINE
5
348
100
AcDbEntity
8
0
100
AcDbLine
10
218.08050244344957
20
263.79999999999984
30
0
11
218.02650244344957
21
263.77199999999971
31
0
0
LINE
5
349
100
AcDbEntity
8
0
100
AcDbLine
10
218.02650244344957
20
263.77199999999971
30
0
11
217.9965024434496
21
263.71899999999982
31
0
0
LINE
5
350
100
AcDbEntity
8
0
100
AcDbLine
10
217.9965024434496
20
263.71899999999982
30
0
11
217.9965024434496
21
253.68299999999991
31
0
0
LINE
5
351
100
AcDbEntity
8
0
100
AcDbLine
10
217.9965024434496
20
253.68299999999991
30
0
11
218.02650244344957
21
253.62999999999985
31
0
0
LINE
5
352
100
AcDbEntity
8
0
100
AcDbLine
10
218.02650244344957
20
253.62999999999985
30
0
11
218.08050244344957
21
253.60099999999989
31
0
0
LINE
5
353
100
AcDbEntity
8
0
100
AcDbLine
10
218.08050244344957
20
253.60099999999989
30
0
11
222.99750244344955
21
253.60099999999989
31
0
0
LINE
5
354
100
AcDbEntity
8
0
100
AcDbLine
10
222.99750244344955
20
253.60099999999989
30
0
11
222.99750244344955
21
243.80099999999985
31
0
0
LINE
5
355
100
AcDbEntity
8
0
100
AcDbLine
10
222.99750244344955
20
243.80099999999985
30
0
11
218.08050244344957
21
243.80099999999985
31
0
0
LINE
5
356
100
AcDbEntity
8
0
100
AcDbLine
10
218.08050244344957
20
243.80099999999985
30
0
11
218.02650244344957
21
243.76899999999978
31
0
0
LINE
5
357
100
AcDbEntity
8
0
100
AcDbLine
10
218.02650244344957
20
243.76899999999978
30
0
11
217.9965024434496
21
243.71999999999986
31
0
0
LINE
5
358
100
AcDbEntity
8
0
100
AcDbLine
10
217.9965024434496
20
243.71999999999986
30
0
11
217.9965024434496
21
233.6839999999998
31
0
0
LINE
5
359
100
AcDbEntity
8
0
100
AcDbLine
10
217.9965024434496
20
233.6839999999998
30
0
11
218.02650244344957
21
233.63099999999989
31
0
0
LINE
5
360
100
AcDbEntity
8
0
100
AcDbLine
10
218.02650244344957
20
233.63099999999989
30
0
11
218.08050244344957
21
233.59899999999982
31
0
0
LINE
5
361
100
AcDbEntity
8
0
100
AcDbLine
10
218.08050244344957
20
233.59899999999982
30
0
11
222.99750244344955
21
233.59899999999982
31
0
0
LINE
5
362
100
AcDbEntity
8
0
100
AcDbLine
10
222.99750244344955
20
233.59899999999982
30
0
11
222.99750244344955
21
223.79899999999978
31
0
0
LINE
5
363
100
AcDbEntity
8
0
100
AcDbLine
10
222.99750244344955
20
223.79899999999978
30
0
11
218.08050244344957
21
223.79899999999978
31
0
0
LINE
5
364
100
AcDbEntity
8
0
100
AcDbLine
10
218.08050244344957
20
223.79899999999978
30
0
11
218.02650244344957
21
223.76999999999981
31
0
0
LINE
5
365
100
AcDbEntity
8
0
100
AcDbLine
10
218.02650244344957
20
223.76999999999981
30
0
11
217.9965024434496
21
223.71799999999979
31
0
0
LINE
5
366
100
AcDbEntity
8
0
100
AcDbLine
10
217.9965024434496
20
223.71799999999979
30
0
11
217.9965024434496
21
213.68499999999983
31
0
0
LINE
5
367
100
AcDbEntity
8
0
100
AcDbLine
10
217.9965024434496
20
213.68499999999983
30
0
11
218.02650244344957
21
213.63199999999978
31
0
0
LINE
5
368
100
AcDbEntity
8
0
100
AcDbLine
10
218.02650244344957
20
213.63199999999978
30
0
11
218.08050244344957
21
213.59999999999985
31
0
0
LINE
5
369
100
AcDbEntity
8
0
100
AcDbLine
10
218.08050244344957
20
213.59999999999985
30
0
11
222.99750244344955
21
213.59999999999985
31
0
0
LINE
5
370
100
AcDbEntity
8
0
100
AcDbLine
10
222.99750244344955
20
213.59999999999985
30
0
11
222.99750244344955
21
203.79999999999981
31
0
0
LINE
5
371
100
AcDbEntity
8
0
100
AcDbLine
10
222.99750244344955
20
203.79999999999981
30
0
11
218.08050244344957
21
203.79999999999981
31
0
0
LINE
5
372
100
AcDbEntity
8
0
100
AcDbLine
10
218.08050244344957
20
203.79999999999981
30
0
11
218.02650244344957
21
203.77199999999974
31
0
0
LINE
5
373
100
AcDbEntity
8
0
100
AcDbLine
10
218.02650244344957
20
203.77199999999974
30
0
11
217.9965024434496
21
203.71899999999982
31
0
0
LINE
5
374
100
AcDbEntity
8
0
100
AcDbLine
10
217.9965024434496
20
203.71899999999982
30
0
11
217.9965024434496
21
193.68199999999973
31
0
0
LINE
5
375
100
AcDbEntity
8
0
100
AcDbLine
10
217.9965024434496
20
193.68199999999973
30
0
11
218.02650244344957
21
193.62899999999982
31
0
0
LINE
5
376
100
AcDbEntity
8
0
100
AcDbLine
10
218.02650244344957
20
193.62899999999982
30
0
11
218.08050244344957
21
193.60099999999989
31
0
0
LINE
5
377
100
AcDbEntity
8
0
100
AcDbLine
10
218.08050244344957
20
193.60099999999989
30
0
11
222.99750244344955
21
193.60099999999989
31
0
0
LINE
5
378
100
AcDbEntity
8
0
100
AcDbLine
10
222.99750244344955
20
193.60099999999989
30
0
11
222.99750244344955
21
183.80099999999985
31
0
0
LINE
5
379
100
AcDbEntity
8
0
100
AcDbLine
10
222.99750244344955
20
183.80099999999985
30
0
11
218.08050244344957
21
183.80099999999985
31
0
0
LINE
5
380
100
AcDbEntity
8
0
100
AcDbLine
10
218.08050244344957
20
183.80099999999985
30
0
11
218.02650244344957
21
183.77299999999991
31
0
0
LINE
5
381
100
AcDbEntity
8
0
100
AcDbLine
10
218.02650244344957
20
183.77299999999991
30
0
11
217.9965024434496
21
183.71599999999987
31
0
0
LINE
5
382
100
AcDbEntity
8
0
100
AcDbLine
10
217.9965024434496
20
183.71599999999987
30
0
11
217.9965024434496
21
173.68299999999991
31
0
0
LINE
5
383
100
AcDbEntity
8
0
100
AcDbLine
10
217.9965024434496
20
173.68299999999991
30
0
11
218.02650244344957
21
173.62999999999985
31
0
0
LINE
5
384
100
AcDbEntity
8
0
100
AcDbLine
10
218.02650244344957
20
173.62999999999985
30
0
11
218.08050244344957
21
173.59799999999979
31
0
0
LINE
5
385
100
AcDbEntity
8
0
100
AcDbLine
10
218.08050244344957
20
173.59799999999979
30
0
11
222.99750244344955
21
173.59799999999979
31
0
0
LINE
5
386
100
AcDbEntity
8
0
100
AcDbLine
10
222.99750244344955
20
173.59799999999979
30
0
11
222.99750244344955
21
163.80199999999974
31
0
0
LINE
5
387
100
AcDbEntity
8
0
100
AcDbLine
10
222.99750244344955
20
163.80199999999974
30
0
11
218.08050244344957
21
163.80199999999974
31
0
0
LINE
5
388
100
AcDbEntity
8
0
100
AcDbLine
10
218.08050244344957
20
163.80199999999974
30
0
11
218.02650244344957
21
163.76999999999981
31
0
0
LINE
5
389
100
AcDbEntity
8
0
100
AcDbLine
10
218.02650244344957
20
163.76999999999981
30
0
11
217.9965024434496
21
163.7169999999999
31
0
0
LINE
5
390
100
AcDbEntity
8
0
100
AcDbLine
10
217.9965024434496
20
163.7169999999999
30
0
11
217.9965024434496
21
153.6839999999998
31
0
0
LINE
5
391
100
AcDbEntity
8
0
100
AcDbLine
10
217.9965024434496
20
153.6839999999998
30
0
11
218.02650244344957
21
153.6279999999999
31
0
0
LINE
5
392
100
AcDbEntity
8
0
100
AcDbLine
10
218.02650244344957
20
153.6279999999999
30
0
11
218.08050244344957
21
153.59899999999988
31
0
0
LINE
5
393
100
AcDbEntity
8
0
100
AcDbLine
10
218.08050244344957
20
153.59899999999988
30
0
11
222.99750244344955
21
153.59899999999988
31
0
0
LINE
5
394
100
AcDbEntity
8
0
100
AcDbLine
10
222.99750244344955
20
153.59899999999988
30
0
11
222.99750244344955
21
143.79899999999984
31
0
0
LINE
5
395
100
AcDbEntity
8
0
100
AcDbLine
10
222.99750244344955
20
143.79899999999984
30
0
11
218.08050244344957
21
143.79899999999984
31
0
0
LINE
5
396
100
AcDbEntity
8
0
100
AcDbLine
10
218.08050244344957
20
143.79899999999984
30
0
11
218.02650244344957
21
143.77099999999982
31
0
0
LINE
5
397
100
AcDbEntity
8
0
100
AcDbLine
10
218.02650244344957
20
143.77099999999982
30
0
11
217.9965024434496
21
143.71799999999976
31
0
0
LINE
5
398
100
AcDbEntity
8
0
100
AcDbLine
10
217.9965024434496
20
143.71799999999976
30
0
11
217.9965024434496
21
133.6849999999998
31
0
0
LINE
5
399
100
AcDbEntity
8
0
100
AcDbLine
10
217.9965024434496
20
133.6849999999998
30
0
11
218.02650244344957
21
133.62899999999988
31
0
0
LINE
5
400
100
AcDbEntity
8
0
100
AcDbLine
10
218.02650244344957
20
133.62899999999988
30
0
11
218.08050244344957
21
133.59999999999982
31
0
0
LINE
5
401
100
AcDbEntity
8
0
100
AcDbLine
10
218.08050244344957
20
133.59999999999982
30
0
11
222.99750244344955
21
133.59999999999982
31
0
0
LINE
5
402
100
AcDbEntity
8
0
100
AcDbLine
10
222.99750244344955
20
133.59999999999982
30
0
11
222.99750244344955
21
123.7999999999998
31
0
0
LINE
5
403
100
AcDbEntity
8
0
100
AcDbLine
10
222.99750244344955
20
123.7999999999998
30
0
11
218.08050244344957
21
123.7999999999998
31
0
0
LINE
5
404
100
AcDbEntity
8
0
100
AcDbLine
10
218.08050244344957
20
123.7999999999998
30
0
11
218.02650244344957
21
123.77199999999979
31
0
0
LINE
5
405
100
AcDbEntity
8
0
100
AcDbLine
10
218.02650244344957
20
123.77199999999979
30
0
11
217.9965024434496
21
123.71899999999981
31
0
0
LINE
5
406
100
AcDbEntity
8
0
100
AcDbLine
10
217.9965024434496
20
123.71899999999981
30
0
11
217.9965024434496
21
113.68299999999982
31
0
0
LINE
5
407
100
AcDbEntity
8
0
100
AcDbLine
10
217.9965024434496
20
113.68299999999982
30
0
11
218.02650244344957
21
113.62999999999984
31
0
0
LINE
5
408
100
AcDbEntity
8
0
100
AcDbLine
10
218.02650244344957
20
113.62999999999984
30
0
11
218.08050244344957
21
113.60199999999983
31
0
0
LINE
5
409
100
AcDbEntity
8
0
100
AcDbLine
10
218.08050244344957
20
113.60199999999983
30
0
11
222.99750244344955
21
113.60199999999983
31
0
0
LINE
5
410
100
AcDbEntity
8
0
100
AcDbLine
10
222.99750244344955
20
113.60199999999983
30
0
11
222.99750244344955
21
103.79799999999987
31
4.9303806576313238e-31
0
LINE
5
411
100
AcDbEntity
8
0
100
AcDbLine
10
222.99750244344955
20
103.79799999999987
30
4.9303806576313238e-31
11
218.08050244344957
21
103.79799999999987
31
0
0
LINE
5
412
100
AcDbEntity
8
0
100
AcDbLine
10
218.08050244344957
20
103.79799999999987
30
0
11
218.02650244344957
21
103.7699999999998
31
0
0
LINE
5
413
100
AcDbEntity
8
0
100
AcDbLine
10
218.02650244344957
20
103.7699999999998
30
0
11
217.9965024434496
21
103.71699999999981
31
0
0
LINE
5
414
100
AcDbEntity
8
0
100
AcDbLine
10
217.9965024434496
20
103.71699999999981
30
0
11
217.9965024434496
21
93.683999999999784
31
0
0
LINE
5
415
100
AcDbEntity
8
0
100
AcDbLine
10
217.9965024434496
20
93.683999999999784
30
0
11
218.02650244344957
21
93.630999999999801
31
0
0
LINE
5
416
100
AcDbEntity
8
0
100
AcDbLine
10
218.02650244344957
20
93.630999999999801
30
0
11
218.08050244344957
21
93.598999999999876
31
0
0
LINE
5
417
100
AcDbEntity
8
0
100
AcDbLine
10
218.08050244344957
20
93.598999999999876
30
0
11
222.99750244344955
21
93.598999999999876
31
0
0
LINE
5
418
100
AcDbEntity
8
0
100
AcDbLine
10
222.99750244344955
20
93.598999999999876
30
0
11
222.99750244344955
21
83.798999999999836
31
0
0
LINE
5
419
100
AcDbEntity
8
0
100
AcDbLine
10
222.99750244344955
20
83.798999999999836
30
0
11
218.08050244344957
21
83.798999999999836
31
0
0
LINE
5
420
100
AcDbEntity
8
0
100
AcDbLine
10
218.08050244344957
20
83.798999999999836
30
0
11
218.02650244344957
21
83.77099999999983
31
0
0
LINE
5
421
100
AcDbEntity
8
0
100
AcDbLine
10
218.02650244344957
20
83.77099999999983
30
0
11
217.9965024434496
21
83.717999999999776
31
0
0
LINE
5
422
100
AcDbEntity
8
0
100
AcDbLine
10
217.9965024434496
20
83.717999999999776
30
0
11
217.9965024434496
21
73.684999999999818
31
0
0
LINE
5
423
100
AcDbEntity
8
0
100
AcDbLine
10
217.9965024434496
20
73.684999999999818
30
0
11
218.02650244344957
21
73.627999999999915
31
0
0
LINE
5
424
100
AcDbEntity
8
0
100
AcDbLine
10
218.02650244344957
20
73.627999999999915
30
0
11
218.08050244344957
21
73.599999999999838
31
0
0
LINE
5
425
100
AcDbEntity
8
0
100
AcDbLine
10
218.08050244344957
20
73.599999999999838
30
0
11
222.99750244344955
21
73.599999999999838
31
0
0
LINE
5
426
100
AcDbEntity
8
0
100
AcDbLine
10
222.99750244344955
20
73.599999999999838
30
0
11
222.99750244344955
21
63.799999999999805
31
0
0
LINE
5
427
100
AcDbEntity
8
0
100
AcDbLine
10
222.99750244344955
20
63.799999999999805
30
0
11
218.08050244344957
21
63.799999999999805
31
0
0
LINE
5
428
100
AcDbEntity
8
0
100
AcDbLine
10
218.08050244344957
20
63.799999999999805
30
0
11
218.02650244344957
21
63.7719999999998
31
0
0
LINE
5
429
100
AcDbEntity
8
0
100
AcDbLine
10
218.02650244344957
20
63.7719999999998
30
0
11
217.9965024434496
21
63.718999999999816
31
0
0
LINE
5
430
100
AcDbEntity
8
0
100
AcDbLine
10
217.9965024434496
20
63.718999999999816
30
0
11
217.9965024434496
21
53.681999999999725
31
0
0
LINE
5
431
100
AcDbEntity
8
0
100
AcDbLine
10
217.9965024434496
20
53.681999999999725
30
0
11
218.02650244344957
21
53.628999999999884
31
0
0
LINE
5
432
100
AcDbEntity
8
0
100
AcDbLine
10
218.02650244344957
20
53.628999999999884
30
0
11
218.08050244344957
21
53.600999999999878
31
0
0
LINE
5
433
100
AcDbEntity
8
0
100
AcDbLine
10
218.08050244344957
20
53.600999999999878
30
0
11
222.99750244344955
21
53.600999999999878
31
0
0
LINE
5
434
100
AcDbEntity
8
0
100
AcDbLine
10
222.99750244344955
20
53.600999999999878
30
0
11
222.99750244344955
21
43.800999999999767
31
0
0
LINE
5
435
100
AcDbEntity
8
0
100
AcDbLine
10
222.99750244344955
20
43.800999999999767
30
0
11
218.08050244344957
21
43.800999999999767
31
0
0
LINE
5
436
100
AcDbEntity
8
0
100
AcDbLine
10
218.08050244344957
20
43.800999999999767
30
0
11
218.02650244344957
21
43.768999999999842
31
0
0
LINE
5
437
100
AcDbEntity
8
0
100
AcDbLine
10
218.02650244344957
20
43.768999999999842
30
0
11
217.9965024434496
21
43.71999999999985
31
0
0
LINE
5
438
100
AcDbEntity
8
0
100
AcDbLine
10
217.9965024434496
20
43.71999999999985
30
0
11
217.9965024434496
21
33.682999999999829
31
0
0
LINE
5
439
100
AcDbEntity
8
0
100
AcDbLine
10
217.9965024434496
20
33.682999999999829
30
0
11
218.02650244344957
21
33.629999999999839
31
0
0
LINE
5
440
100
AcDbEntity
8
0
100
AcDbLine
10
218.02650244344957
20
33.629999999999839
30
0
11
218.08050244344957
21
33.598999999999876
31
0
0
LINE
5
441
100
AcDbEntity
8
0
100
AcDbLine
10
218.08050244344957
20
33.598999999999876
30
0
11
222.99750244344955
21
33.598999999999876
31
0
0
LINE
5
442
100
AcDbEntity
8
0
100
AcDbLine
10
222.99750244344955
20
33.598999999999876
30
0
11
222.99750244344955
21
23.797999999999874
31
0
0
LINE
5
443
100
AcDbEntity
8
0
100
AcDbLine
10
222.99750244344955
20
23.797999999999874
30
0
11
218.08050244344957
21
23.797999999999874
31
0
0
LINE
5
444
100
AcDbEntity
8
0
100
AcDbLine
10
218.08050244344957
20
23.797999999999874
30
0
11
218.02650244344957
21
23.769999999999797
31
0
0
LINE
5
445
100
AcDbEntity
8
0
100
AcDbLine
10
218.02650244344957
20
23.769999999999797
30
0
11
217.9965024434496
21
23.716999999999743
31
0
0
LINE
5
446
100
AcDbEntity
8
0
100
AcDbLine
10
217.9965024434496
20
23.716999999999743
30
0
11
217.9965024434496
21
5.083999999999862
31
0
0
LINE
5
447
100
AcDbEntity
8
0
100
AcDbLine
10
217.9965024434496
20
5.083999999999862
30
0
11
217.99700244344956
21
5.0831166666666237
31
0
0
LINE
5
448
100
AcDbEntity
8
0
100
AcDbLine
10
217.99700244344956
20
5.0831166666666237
30
0
11
217.99700244344956
21
-12.103000430107373
31
0
0
ARC
5
449
100
AcDbEntity
8
0
100
AcDbCircle
10
231.29400244344941
20
-12.103000430107432
30
1.3684555315672042e-45
40
13.296999999999883
210
4.1165842868834305e-48
220
2.4651903288156624e-32
230
1
100
AcDbArc
50
180
51
270.00000000000034
0
LINE
5
450
100
AcDbEntity
8
0
100
AcDbLine
10
231.2940024434495
20
-25.400000430107351
30
3.2779635802261796e-31
11
232.29950244344963
21
-25.400000430107376
31
0
0
ARC
5
451
100
AcDbEntity
8
0
100
AcDbCircle
10
232.29950244344965
20
-12.103000430107425
30
4.7401874186832915e-61
40
13.296999999999953
210
-5.4738221262688057e-48
220
-2.1023502627297123e-62
230
1
100
AcDbArc
50
-90.000000000000099
51
0
0
LINE
5
452
100
AcDbEntity
8
0
100
AcDbLine
10
245.59650244344962
20
-12.103000430107372
30
7.2785412812996536e-47
11
245.59650244344962
21
4.9989999999998114
31
0
0
LINE
5
453
100
AcDbEntity
8
0
100
AcDbLine
10
245.59650244344962
20
4.9989999999998114
30
0
11
255.39650244344955
21
4.9989999999998123
31
0
0
LINE
5
454
100
AcDbEntity
8
0
100
AcDbLine
10
255.39650244344955
20
4.9989999999998123
30
0
11
255.39650244344955
21
0.080999999999834538
31
0
0
LINE
5
455
100
AcDbEntity
8
0
100
AcDbLine
10
255.39650244344955
20
0.080999999999834538
30
0
11
255.42650244344958
21
0.02799999999985139
31
0
0
LINE
5
456
100
AcDbEntity
8
0
100
AcDbLine
10
255.42650244344958
20
0.02799999999985139
30
0
11
255.48050244344964
21
-1.5439906297931572e-13
31
0
0
LINE
5
457
100
AcDbEntity
8
0
100
AcDbLine
10
255.48050244344964
20
-1.5439906297931572e-13
30
0
11
265.51350244344962
21
-1.5440103939220215e-13
31
0
0
LINE
5
458
100
AcDbEntity
8
0
100
AcDbLine
10
265.51350244344962
20
-1.5440103939220215e-13
30
0
11
265.56750244344954
21
0.027999999999851401
31
0
0
LINE
5
459
100
AcDbEntity
8
0
100
AcDbLine
10
265.56750244344954
20
0.027999999999851401
30
0
11
265.59650244344959
21
0.080999999999834468
31
0
0
LINE
5
460
100
AcDbEntity
8
0
100
AcDbLine
10
265.59650244344959
20
0.080999999999834468
30
0
11
265.59650244344959
21
4.9989999999998123
31
0
0
LINE
5
461
100
AcDbEntity
8
0
100
AcDbLine
10
265.59650244344959
20
4.9989999999998123
30
0
11
275.39750244344958
21
4.9989999999998123
31
0
0
LINE
5
462
100
AcDbEntity
8
0
100
AcDbLine
10
275.39750244344958
20
4.9989999999998123
30
0
11
275.39750244344958
21
0.080999999999834538
31
0
0
LINE
5
463
100
AcDbEntity
8
0
100
AcDbLine
10
275.39750244344958
20
0.080999999999834538
30
0
11
275.42650244344958
21
0.02799999999985139
31
0
0
LINE
5
464
100
AcDbEntity
8
0
100
AcDbLine
10
275.42650244344958
20
0.02799999999985139
30
0
11
275.47950244344963
21
-1.5439906297931572e-13
31
0
0
LINE
5
465
100
AcDbEntity
8
0
100
AcDbLine
10
275.47950244344963
20
-1.5439906297931572e-13
30
0
11
285.5145024434496
21
-1.5440103939220215e-13
31
0
0
LINE
5
466
100
AcDbEntity
8
0
100
AcDbLine
10
285.5145024434496
20
-1.5440103939220215e-13
30
0
11
285.56650244344956
21
0.027999999999851401
31
0
0
LINE
5
467
100
AcDbEntity
8
0
100
AcDbLine
10
285.56650244344956
20
0.027999999999851401
30
0
11
285.59550244344962
21
0.080999999999834468
31
0
0
LINE
5
468
100
AcDbEntity
8
0
100
AcDbLine
10
285.59550244344962
20
0.080999999999834468
30
0
11
285.59550244344962
21
4.9989999999998123
31
0
0
LINE
5
469
100
AcDbEntity
8
0
100
AcDbLine
10
285.59550244344962
20
4.9989999999998123
30
0
11
295.39650244344961
21
4.9989999999998123
31
0
0
LINE
5
470
100
AcDbEntity
8
0
100
AcDbLine
10
295.39650244344961
20
4.9989999999998123
30
0
11
295.39650244344961
21
0.080999999999834538
31
0
0
LINE
5
471
100
AcDbEntity
8
0
100
AcDbLine
10
295.39650244344961
20
0.080999999999834538
30
0
11
295.42650244344958
21
0.02799999999985139
31
0
0
LINE
5
472
100
AcDbEntity
8
0
100
AcDbLine
10
295.42650244344958
20
0.02799999999985139
30
0
11
295.48050244344961
21
-1.5439906297931572e-13
31
0
0
LINE
5
473
100
AcDbEntity
8
0
100
AcDbLine
10
295.48050244344961
20
-1.5439906297931572e-13
30
0
11
305.5145024434496
21
-1.5440103939220215e-13
31
0
0
LINE
5
474
100
AcDbEntity
8
0
100
AcDbLine
10
305.5145024434496
20
-1.5440103939220215e-13
30
0
11
305.5675024434496
21
0.027999999999851401
31
0
0
LINE
5
475
100
AcDbEntity
8
0
100
AcDbLine
10
305.5675024434496
20
0.027999999999851401
30
0
11
305.59650244344959
21
0.080999999999834468
31
0
0
LINE
5
476
100
AcDbEntity
8
0
100
AcDbLine
10
305.59650244344959
20
0.080999999999834468
30
0
11
305.59650244344959
21
4.9989999999998123
31
0
0
LINE
5
477
100
AcDbEntity
8
0
100
AcDbLine
10
305.59650244344959
20
4.9989999999998123
30
0
11
315.39650244344961
21
4.9989999999998123
31
0
0
LINE
5
478
100
AcDbEntity
8
0
100
AcDbLine
10
315.39650244344961
20
4.9989999999998123
30
0
11
315.39650244344961
21
0.080999999999834538
31
0
0
LINE
5
479
100
AcDbEntity
8
0
100
AcDbLine
10
315.39650244344961
20
0.080999999999834538
30
0
11
315.42650244344958
21
0.02799999999985139
31
0
0
LINE
5
480
100
AcDbEntity
8
0
100
AcDbLine
10
315.42650244344958
20
0.02799999999985139
30
0
11
315.48050244344961
21
-1.5439906297931572e-13
31
0
0
LINE
5
481
100
AcDbEntity
8
0
100
AcDbLine
10
315.48050244344961
20
-1.5439906297931572e-13
30
0
11
325.5145024434496
21
-1.5440103939220215e-13
31
0
0
LINE
5
482
100
AcDbEntity
8
0
100
AcDbLine
10
325.5145024434496
20
-1.5440103939220215e-13
30
0
11
325.56750244344954
21
0.027999999999851401
31
0
0
LINE
5
483
100
AcDbEntity
8
0
100
AcDbLine
10
325.56750244344954
20
0.027999999999851401
30
0
11
325.59650244344959
21
0.080999999999834468
31
0
0
LINE
5
484
100
AcDbEntity
8
0
100
AcDbLine
10
325.59650244344959
20
0.080999999999834468
30
0
11
325.59650244344959
21
4.9989999999998123
31
0
0
LINE
5
485
100
AcDbEntity
8
0
100
AcDbLine
10
325.59650244344959
20
4.9989999999998123
30
0
11
335.39650244344955
21
4.9989999999998123
31
0
0
LINE
5
486
100
AcDbEntity
8
0
100
AcDbLine
10
335.39650244344955
20
4.9989999999998123
30
0
11
335.39650244344955
21
0.080999999999834538
31
0
0
LINE
5
487
100
AcDbEntity
8
0
100
AcDbLine
10
335.39650244344955
20
0.080999999999834538
30
0
11
335.4255024434496
21
0.02799999999985139
31
0
0
LINE
5
488
100
AcDbEntity
8
0
100
AcDbLine
10
335.4255024434496
20
0.02799999999985139
30
0
11
335.47950244344963
21
-1.5439906297931572e-13
31
0
0
LINE
5
489
100
AcDbEntity
8
0
100
AcDbLine
10
335.47950244344963
20
-1.5439906297931572e-13
30
0
11
345.5145024434496
21
-1.5440103939220215e-13
31
0
0
LINE
5
490
100
AcDbEntity
8
0
100
AcDbLine
10
345.5145024434496
20
-1.5440103939220215e-13
30
0
11
345.56650244344956
21
0.027999999999851401
31
0
0
LINE
5
491
100
AcDbEntity
8
0
100
AcDbLine
10
345.56650244344956
20
0.027999999999851401
30
0
11
345.59550244344962
21
0.080999999999834468
31
0
0
LINE
5
492
100
AcDbEntity
8
0
100
AcDbLine
10
345.59550244344962
20
0.080999999999834468
30
0
11
345.59550244344962
21
4.9989999999998123
31
0
0
LINE
5
493
100
AcDbEntity
8
0
100
AcDbLine
10
345.59550244344962
20
4.9989999999998123
30
0
11
355.39650244344955
21
4.9989999999998123
31
0
0
LINE
5
494
100
AcDbEntity
8
0
100
AcDbLine
10
355.39650244344955
20
4.9989999999998123
30
0
11
355.39650244344955
21
0.080999999999834538
31
0
0
LINE
5
495
100
AcDbEntity
8
0
100
AcDbLine
10
355.39650244344955
20
0.080999999999834538
30
0
11
355.42650244344952
21
0.02799999999985139
31
0
0
LINE
5
496
100
AcDbEntity
8
0
100
AcDbLine
10
355.42650244344952
20
0.02799999999985139
30
0
11
355.48050244344961
21
-1.5439906297931572e-13
31
0
0
LINE
5
497
100
AcDbEntity
8
0
100
AcDbLine
10
355.48050244344961
20
-1.5439906297931572e-13
30
0
11
365.51350244344962
21
-1.5440103939220215e-13
31
0
0
LINE
5
498
100
AcDbEntity
8
0
100
AcDbLine
10
365.51350244344962
20
-1.5440103939220215e-13
30
0
11
365.56750244344954
21
0.027999999999851401
31
0
0
LINE
5
499
100
AcDbEntity
8
0
100
AcDbLine
10
365.56750244344954
20
0.027999999999851401
30
0
11
365.59650244344959
21
0.080999999999834468
31
0
0
LINE
5
500
100
AcDbEntity
8
0
100
AcDbLine
10
365.59650244344959
20
0.080999999999834468
30
0
11
365.59650244344959
21
4.9989999999998123
31
0
0
LINE
5
501
100
AcDbEntity
8
0
100
AcDbLine
10
365.59650244344959
20
4.9989999999998123
30
0
11
375.39750244344958
21
4.9989999999998123
31
0
0
LINE
5
502
100
AcDbEntity
8
0
100
AcDbLine
10
375.39750244344958
20
4.9989999999998123
30
0
11
375.39750244344958
21
0.080999999999834538
31
0
0
LINE
5
503
100
AcDbEntity
8
0
100
AcDbLine
10
375.39750244344958
20
0.080999999999834538
30
0
11
375.42650244344964
21
0.02799999999985139
31
0
0
LINE
5
504
100
AcDbEntity
8
0
100
AcDbLine
10
375.42650244344964
20
0.02799999999985139
30
0
11
375.47950244344963
21
-1.5439906297931572e-13
31
0
0
LINE
5
505
100
AcDbEntity
8
0
100
AcDbLine
10
375.47950244344963
20
-1.5439906297931572e-13
30
0
11
385.5145024434496
21
-1.5440103939220215e-13
31
0
0
LINE
5
506
100
AcDbEntity
8
0
100
AcDbLine
10
385.5145024434496
20
-1.5440103939220215e-13
30
0
11
385.5675024434496
21
0.027999999999851401
31
0
0
LINE
5
507
100
AcDbEntity
8
0
100
AcDbLine
10
385.5675024434496
20
0.027999999999851401
30
0
11
385.59650244344959
21
0.080999999999834468
31
0
0
LINE
5
508
100
AcDbEntity
8
0
100
AcDbLine
10
385.59650244344959
20
0.080999999999834468
30
0
11
385.59650244344959
21
4.9989999999998123
31
0
0
LINE
5
509
100
AcDbEntity
8
0
100
AcDbLine
10
385.59650244344959
20
4.9989999999998123
30
0
11
395.39650244344961
21
4.9989999999998123
31
0
0
LINE
5
510
100
AcDbEntity
8
0
100
AcDbLine
10
395.39650244344961
20
4.9989999999998123
30
0
11
395.39650244344961
21
0.080999999999834538
31
0
0
LINE
5
511
100
AcDbEntity
8
0
100
AcDbLine
10
395.39650244344961
20
0.080999999999834538
30
0
11
395.4255024434496
21
0.02799999999985139
31
0
0
LINE
5
512
100
AcDbEntity
8
0
100
AcDbLine
10
395.4255024434496
20
0.02799999999985139
30
0
11
395.47950244344963
21
-1.5439906297931572e-13
31
0
0
LINE
5
513
100
AcDbEntity
8
0
100
AcDbLine
10
395.47950244344963
20
-1.5439906297931572e-13
30
0
11
405.51450244344954
21
-1.5440103939220215e-13
31
0
0
LINE
5
514
100
AcDbEntity
8
0
100
AcDbLine
10
405.51450244344954
20
-1.5440103939220215e-13
30
0
11
405.5675024434496
21
0.027999999999851401
31
0
0
LINE
5
515
100
AcDbEntity
8
0
100
AcDbLine
10
405.5675024434496
20
0.027999999999851401
30
0
11
405.59650244344959
21
0.080999999999834468
31
0
0
LINE
5
516
100
AcDbEntity
8
0
100
AcDbLine
10
405.59650244344959
20
0.080999999999834468
30
0
11
405.59650244344959
21
4.9989999999998123
31
0
0
LINE
5
517
100
AcDbEntity
8
0
100
AcDbLine
10
405.59650244344959
20
4.9989999999998123
30
0
11
415.39650244344961
21
4.9989999999998123
31
0
0
LINE
5
518
100
AcDbEntity
8
0
100
AcDbLine
10
415.39650244344961
20
4.9989999999998123
30
0
11
415.39650244344961
21
0.080999999999834538
31
0
0
LINE
5
519
100
AcDbEntity
8
0
100
AcDbLine
10
415.39650244344961
20
0.080999999999834538
30
0
11
415.42650244344964
21
0.02799999999985139
31
0
0
LINE
5
520
100
AcDbEntity
8
0
100
AcDbLine
10
415.42650244344964
20
0.02799999999985139
30
0
11
415.48050244344955
21
-1.5439906297931572e-13
31
0
0
LINE
5
521
100
AcDbEntity
8
0
100
AcDbLine
10
415.48050244344955
20
-1.5439906297931572e-13
30
0
11
425.51450244344954
21
-1.5440103939220215e-13
31
0
0
LINE
5
522
100
AcDbEntity
8
0
100
AcDbLine
10
425.51450244344954
20
-1.5440103939220215e-13
30
0
11
425.5675024434496
21
0.027999999999851401
31
0
0
LINE
5
523
100
AcDbEntity
8
0
100
AcDbLine
10
425.5675024434496
20
0.027999999999851401
30
0
11
425.59650244344959
21
0.080999999999834468
31
0
0
LINE
5
524
100
AcDbEntity
8
0
100
AcDbLine
10
425.59650244344959
20
0.080999999999834468
30
0
11
425.59650244344959
21
4.9989999999998123
31
0
0
LINE
5
525
100
AcDbEntity
8
0
100
AcDbLine
10
425.59650244344959
20
4.9989999999998123
30
0
11
435.39700244344954
21
4.9989999999998123
31
0
0
LINE
5
526
100
AcDbEntity
8
0
100
AcDbLine
10
435.39700244344954
20
4.9989999999998123
30
0
11
435.39700244344954
21
0.080999999999834538
31
0
0
LINE
5
527
100
AcDbEntity
8
0
100
AcDbLine
10
435.39700244344954
20
0.080999999999834538
30
0
11
435.42590244344956
21
0.02799999999985139
31
0
0
LINE
5
528
100
AcDbEntity
8
0
100
AcDbLine
10
435.42590244344956
20
0.02799999999985139
30
0
11
435.47960244344955
21
-1.5439906297931572e-13
31
0
0
LINE
5
529
100
AcDbEntity
8
0
100
AcDbLine
10
435.47960244344955
20
-1.5439906297931572e-13
30
0
11
445.51470244344955
21
-1.5440103939220215e-13
31
0
0
LINE
5
530
100
AcDbEntity
8
0
100
AcDbLine
10
445.51470244344955
20
-1.5440103939220215e-13
30
0
11
445.56830244344957
21
0.027999999999851401
31
0
0
LINE
5
531
100
AcDbEntity
8
0
100
AcDbLine
10
445.56830244344957
20
0.027999999999851401
30
0
11
445.59720244344959
21
0.080999999999834468
31
0
0
LINE
5
532
100
AcDbEntity
8
0
100
AcDbLine
10
445.59720244344959
20
0.080999999999834468
30
0
11
445.59720244344959
21
4.9989999999998123
31
0
0
LINE
5
533
100
AcDbEntity
8
0
100
AcDbLine
10
445.59720244344959
20
4.9989999999998123
30
0
11
455.3963024434496
21
4.9989999999998123
31
0
0
LINE
5
534
100
AcDbEntity
8
0
100
AcDbLine
10
455.3963024434496
20
4.9989999999998123
30
0
11
455.3963024434496
21
0.080999999999834538
31
0
0
LINE
5
535
100
AcDbEntity
8
0
100
AcDbLine
10
455.3963024434496
20
0.080999999999834538
30
0
11
455.42670244344959
21
0.02799999999985139
31
0
0
LINE
5
536
100
AcDbEntity
8
0
100
AcDbLine
10
455.42670244344959
20
0.02799999999985139
30
0
11
455.48060244344958
21
-1.5439906297931572e-13
31
0
0
LINE
5
537
100
AcDbEntity
8
0
100
AcDbLine
10
455.48060244344958
20
-1.5439906297931572e-13
30
0
11
465.51400244344961
21
-1.5440103939220215e-13
31
0
0
LINE
5
538
100
AcDbEntity
8
0
100
AcDbLine
10
465.51400244344961
20
-1.5440103939220215e-13
30
0
11
465.56760244344957
21
0.027999999999851401
31
0
0
LINE
5
539
100
AcDbEntity
8
0
100
AcDbLine
10
465.56760244344957
20
0.027999999999851401
30
0
11
465.59650244344959
21
0.080999999999834468
31
0
0
LINE
5
540
100
AcDbEntity
8
0
100
AcDbLine
10
465.59650244344959
20
0.080999999999834468
30
0
11
465.59650244344959
21
4.9989999999998123
31
0
0
LINE
5
541
100
AcDbEntity
8
0
100
AcDbLine
10
465.59650244344959
20
4.9989999999998123
30
0
11
475.39600244344962
21
4.9989999999998123
31
0
0
LINE
5
542
100
AcDbEntity
8
0
100
AcDbLine
10
475.39600244344962
20
4.9989999999998123
30
0
11
475.39600244344962
21
0.080999999999834538
31
0
0
LINE
5
543
100
AcDbEntity
8
0
100
AcDbLine
10
475.39600244344962
20
0.080999999999834538
30
0
11
475.42630244344963
21
0.02799999999985139
31
0
0
LINE
5
544
100
AcDbEntity
8
0
100
AcDbLine
10
475.42630244344963
20
0.02799999999985139
30
0
11
475.48000244344962
21
-1.5439906297931572e-13
31
0
0
LINE
5
545
100
AcDbEntity
8
0
100
AcDbLine
10
475.48000244344962
20
-1.5439906297931572e-13
30
0
11
485.51470244344961
21
-1.5440103939220215e-13
31
0
0
LINE
5
546
100
AcDbEntity
8
0
100
AcDbLine
10
485.51470244344961
20
-1.5440103939220215e-13
30
0
11
485.56730244344965
21
0.027999999999851401
31
0
0
LINE
5
547
100
AcDbEntity
8
0
100
AcDbLine
10
485.56730244344965
20
0.027999999999851401
30
0
11
485.59620244344961
21
0.080999999999834468
31
0
0
LINE
5
548
100
AcDbEntity
8
0
100
AcDbLine
10
485.59620244344961
20
0.080999999999834468
30
0
11
485.59620244344961
21
4.9989999999998123
31
0
0
LINE
5
549
100
AcDbEntity
8
0
100
AcDbLine
10
485.59620244344961
20
4.9989999999998123
30
0
11
495.39670244344961
21
4.9989999999998123
31
0
0
LINE
5
550
100
AcDbEntity
8
0
100
AcDbLine
10
495.39670244344961
20
4.9989999999998123
30
0
11
495.39670244344961
21
-12.103000132084151
31
1.9446922743316068e-61
0
ENDSEC
0
SECTION
2
OBJECTS
0
DICTIONARY
5
C
100
AcDbDictionary
3
ACAD_GROUP
350
D
3
ACAD_MLINESTYLE
350
17
0
DICTIONARY
5
D
100
AcDbDictionary
0
DICTIONARY
5
1A
330
C
100
AcDbDictionary
0
DICTIONARY
5
17
100
AcDbDictionary
0
ENDSEC
0
EOF
