0
SECTION
2
HEADER
9
$INSUNITS
70
4
9
$ACADVER
1
AC1014
9
$HANDSEED
5
FFFF
0
ENDSEC
0
SECTION
2
TABLES
0
TABLE
2
VPORT
5
8
100
AcDbSymbolTable
0
ENDTAB
0
TABLE
2
LTYPE
5
5
100
AcDbSymbolTable
0
LTYPE
5
14
100
AcDbSymbolTableRecord
100
AcDbLinetypeTableRecord
2
BYBLOCK
70
0
0
LTYPE
5
15
100
AcDbSymbolTableRecord
100
AcDbLinetypeTableRecord
2
BYLAYER
70
0
0
ENDTAB
0
TABLE
2
LAYER
5
2
100
AcDbSymbolTable
70
2
0
LAYER
5
50
100
AcDbSymbolTableRecord
100
AcDbLayerTableRecord
2
0
70
0
6
CONTINUOUS
0
ENDTAB
0
TABLE
2
STYLE
5
3
100
AcDbSymbolTable
70
1
0
STYLE
5
11
100
AcDbSymbolTableRecord
100
AcDbTextStyleTableRecord
2
STANDARD
70
0
0
ENDTAB
0
TABLE
2
VIEW
5
6
100
AcDbSymbolTable
70
0
0
ENDTAB
0
TABLE
2
UCS
5
7
100
AcDbSymbolTable
70
0
0
ENDTAB
0
TABLE
2
APPID
5
9
100
AcDbSymbolTable
70
2
0
APPID
5
12
100
AcDbSymbolTableRecord
100
AcDbRegAppTableRecord
2
ACAD
70
0
0
ENDTAB
0
TABLE
2
DIMSTYLE
5
A
100
AcDbSymbolTable
70
1
0
ENDTAB
0
TABLE
2
BLOCK_RECORD
5
1
100
AcDbSymbolTable
70
1
0
BLOCK_RECORD
5
1F
100
AcDbSymbolTableRecord
100
AcDbBlockTableRecord
2
*MODEL_SPACE
0
BLOCK_RECORD
5
1B
100
AcDbSymbolTableRecord
100
AcDbBlockTableRecord
2
*PAPER_SPACE
0
ENDTAB
0
ENDSEC
0
SECTION
2
BLOCKS
0
BLOCK
5
20
100
AcDbEntity
100
AcDbBlockBegin
2
*MODEL_SPACE
0
ENDBLK
5
21
100
AcDbEntity
100
AcDbBlockEnd
0
BLOCK
5
1C
100
AcDbEntity
100
AcDbBlockBegin
2
*PAPER_SPACE
0
ENDBLK
5
1D
100
AcDbEntity
100
AcDbBlockEnd
0
ENDSEC
0
SECTION
2
ENTITIES
0
LWPOLYLINE
5
100
100
AcDbEntity
8
0
100
AcDbPolyline
90
162
70
1
43
0.0
10
-528.08500244344964
20
-305.3144634723389
42
-0.41421356237309503
10
-522.73200244344957
20
-299.96146347233889
10
-218.43900244344957
20
-299.96146347233889
42
-0.41421356237309503
10
-213.08600244344959
20
-305.3144634723389
10
-213.08600244344959
20
-370.16246347233903
10
-245.48500244344956
20
-370.16246347233903
10
-245.48500244344956
20
-374.96246347233892
10
-245.57000244344962
20
-374.96246347233892
10
-245.51700244344966
20
-374.99246347233907
10
-245.48500244344956
20
-375.04246347233902
10
-245.48500244344956
20
-375.36046347233901
10
-255.68400244344963
20
-375.36046347233901
10
-255.68400244344963
20
-375.04246347233902
10
-255.65600244344964
20
-374.99246347233907
10
-255.60300244344967
20
-374.96246347233892
10
-255.68400244344963
20
-374.96246347233892
10
-255.68400244344963
20
-370.16246347233903
10
-265.48400244344964
20
-370.16246347233903
10
-265.48400244344964
20
-374.96246347233892
10
-265.56900244344968
20
-374.96246347233892
10
-265.51600244344962
20
-374.99246347233907
10
-265.48400244344964
20
-375.04246347233902
10
-265.48400244344964
20
-375.36046347233901
10
-275.68700244344961
20
-375.36046347233901
10
-275.68700244344961
20
-375.04246347233902
10
-275.65500244344969
20
-374.99246347233907
10
-275.60200244344958
20
-374.96246347233892
10
-275.68700244344961
20
-374.96246347233892
10
-275.68700244344961
20
-370.16246347233903
10
-285.48700244344951
20
-370.16246347233903
10
-285.48700244344951
20
-374.96246347233892
10
-285.56800244344964
20
-374.96246347233892
10
-285.51500244344959
20
-374.99246347233907
10
-285.48700244344951
20
-375.04246347233902
10
-285.48700244344951
20
-375.36046347233901
10
-295.68600244344958
20
-375.36046347233901
10
-295.68600244344958
20
-375.04246347233902
10
-295.6540024434496
20
-374.99246347233907
10
-295.60400244344964
20
-374.96246347233892
10
-295.68600244344958
20
-374.96246347233892
10
-295.68600244344958
20
-370.16246347233903
10
-305.48600244344954
20
-370.16246347233903
10
-305.48600244344954
20
-374.96246347233892
10
-305.56700244344961
20
-374.96246347233892
10
-305.51400244344956
20
-374.99246347233907
10
-305.48600244344954
20
-375.04246347233902
10
-305.48600244344954
20
-375.36046347233901
10
-315.6850024434496
20
-375.36046347233901
10
-315.6850024434496
20
-375.04246347233902
10
-315.65600244344967
20
-374.99246347233907
10
-315.60300244344967
20
-374.96246347233892
10
-315.6850024434496
20
-374.96246347233892
10
-315.6850024434496
20
-370.16246347233903
10
-325.48500244344956
20
-370.16246347233903
10
-325.48500244344956
20
-374.96246347233892
10
-325.56900244344968
20
-374.96246347233892
10
-325.51600244344962
20
-374.99246347233907
10
-325.48500244344956
20
-375.04246347233902
10
-325.48500244344956
20
-375.36046347233901
10
-335.68400244344957
20
-375.36046347233901
10
-335.68400244344957
20
-375.04246347233902
10
-335.65500244344958
20
-374.99246347233907
10
-335.60200244344963
20
-374.96246347233892
10
-335.68400244344957
20
-374.96246347233892
10
-335.68400244344957
20
-370.16246347233903
10
-345.48400244344964
20
-370.16246347233903
10
-345.48400244344964
20
-374.96246347233892
10
-345.56800244344964
20
-374.96246347233892
10
-345.51500244344959
20
-374.99246347233907
10
-345.48400244344964
20
-375.04246347233902
10
-345.48400244344964
20
-375.36046347233901
10
-355.68600244344958
20
-375.36046347233901
10
-355.68600244344958
20
-375.04246347233902
10
-355.65800244344962
20
-374.99246347233907
10
-355.6010024434496
20
-374.96246347233892
10
-355.68600244344958
20
-374.96246347233892
10
-355.68600244344958
20
-370.16246347233903
10
-365.48600244344959
20
-370.16246347233903
10
-365.48600244344959
20
-374.96246347233892
10
-365.56700244344961
20
-374.96246347233892
10
-365.51400244344961
20
-374.99246347233907
10
-365.48600244344959
20
-375.04246347233902
10
-365.48600244344959
20
-375.36046347233901
10
-375.6850024434496
20
-375.36046347233901
10
-375.6850024434496
20
-375.04246347233902
10
-375.65700244344953
20
-374.99246347233907
10
-375.60400244344964
20
-374.96246347233892
10
-375.6850024434496
20
-374.96246347233892
10
-375.6850024434496
20
-370.16246347233903
10
-385.48500244344956
20
-370.16246347233903
10
-385.48500244344956
20
-374.96246347233892
10
-385.57000244344965
20
-374.96246347233892
10
-385.51300244344964
20
-374.99246347233907
10
-385.48500244344956
20
-375.04246347233902
10
-385.48500244344956
20
-375.36046347233901
10
-395.68400244344957
20
-375.36046347233901
10
-395.68400244344957
20
-375.04246347233902
10
-395.65600244344955
20
-374.99246347233907
10
-395.60300244344967
20
-374.96246347233892
10
-395.68400244344957
20
-374.96246347233892
10
-395.68400244344957
20
-370.16246347233903
10
-405.48400244344964
20
-370.16246347233903
10
-405.48400244344964
20
-374.96246347233892
10
-405.56900244344968
20
-374.96246347233892
10
-405.51600244344962
20
-374.99246347233907
10
-405.48400244344964
20
-375.04246347233902
10
-405.48400244344964
20
-375.36046347233901
10
-415.68600244344958
20
-375.36046347233901
10
-415.68600244344958
20
-375.04246347233902
10
-415.65500244344958
20
-374.99246347233907
10
-415.60200244344963
20
-374.96246347233892
10
-415.68600244344958
20
-374.96246347233892
10
-415.68600244344958
20
-370.16246347233903
10
-425.48300244344966
20
-370.16246347233903
10
-425.48300244344966
20
-374.96246347233892
10
-425.56800244344964
20
-374.96246347233892
10
-425.51500244344959
20
-374.99246347233907
10
-425.48300244344966
20
-375.04246347233902
10
-425.48300244344966
20
-375.36046347233901
10
-435.6850024434496
20
-375.36046347233901
10
-435.6850024434496
20
-375.04246347233902
10
-435.65700244344953
20
-374.99246347233907
10
-435.60400244344964
20
-374.96246347233892
10
-435.6850024434496
20
-374.96246347233892
10
-435.6850024434496
20
-370.16246347233903
10
-445.48600244344959
20
-370.16246347233903
10
-445.48600244344959
20
-374.96246347233892
10
-445.56700244344961
20
-374.96246347233892
10
-445.51400244344961
20
-374.99246347233907
10
-445.48600244344959
20
-375.04246347233902
10
-445.48600244344959
20
-375.36046347233901
10
-455.68400244344957
20
-375.36046347233901
10
-455.68400244344957
20
-375.04246347233902
10
-455.65600244344955
20
-374.99246347233907
10
-455.60300244344967
20
-374.96246347233892
10
-455.68400244344957
20
-374.96246347233892
10
-455.68400244344957
20
-370.16246347233903
10
-465.48500244344956
20
-370.16246347233903
10
-465.48500244344956
20
-374.96246347233892
10
-465.56900244344968
20
-374.96246347233892
10
-465.51600244344962
20
-374.99246347233907
10
-465.48500244344956
20
-375.04246347233902
10
-465.48500244344956
20
-375.36046347233901
10
-475.6830024434496
20
-375.36046347233901
10
-475.6830024434496
20
-375.04246347233902
10
-475.65500244344958
20
-374.99246347233907
10
-475.60200244344963
20
-374.96246347233892
10
-475.6830024434496
20
-374.96246347233892
10
-475.6830024434496
20
-370.16246347233903
10
-485.48400244344964
20
-370.16246347233903
10
-485.48400244344964
20
-374.96246347233892
10
-485.56800244344964
20
-374.96246347233892
10
-485.51500244344965
20
-374.99246347233907
10
-485.48400244344964
20
-375.04246347233902
10
-485.48400244344964
20
-375.36046347233901
10
-495.68400244344957
20
-375.36046347233901
10
-495.68400244344957
20
-375.04246347233902
10
-495.65600244344955
20
-374.99246347233907
10
-495.60300244344967
20
-374.96246347233892
10
-495.68400244344957
20
-374.96246347233892
10
-495.68400244344957
20
-370.16246347233903
10
-528.08500244344964
20
-370.16246347233903
0
LINE
5
101
100
AcDbEntity
8
0
100
AcDbLine
10
-485.48400244344964
20
-309.96246347233892
30
0
11
-485.48400244344964
21
-310.04346347233906
31
0
0
LINE
5
102
100
AcDbEntity
8
0
100
AcDbLine
10
-485.48400244344964
20
-310.04346347233906
30
0
11
-485.51500244344965
21
-309.990463472339
31
0
0
LINE
5
103
100
AcDbEntity
8
0
100
AcDbLine
10
-485.51500244344965
20
-309.990463472339
30
0
11
-485.56800244344964
21
-309.96246347233892
31
0
0
LINE
5
104
100
AcDbEntity
8
0
100
AcDbLine
10
-485.56800244344964
20
-309.96246347233892
30
0
11
-485.48400244344964
21
-309.96246347233892
31
0
0
LINE
5
105
100
AcDbEntity
8
0
100
AcDbLine
10
-485.48400244344964
20
-309.96246347233892
30
0
11
-485.48400244344964
21
-305.16146347233899
31
0
0
LINE
5
106
100
AcDbEntity
8
0
100
AcDbLine
10
-485.48400244344964
20
-305.16146347233899
30
0
11
-485.56800244344964
21
-305.16146347233899
31
0
0
LINE
5
107
100
AcDbEntity
8
0
100
AcDbLine
10
-485.56800244344964
20
-305.16146347233899
30
0
11
-485.51500244344965
21
-305.13246347233888
31
0
0
LINE
5
108
100
AcDbEntity
8
0
100
AcDbLine
10
-485.51500244344965
20
-305.13246347233888
30
0
11
-485.48400244344964
21
-305.08046347233915
31
0
0
LINE
5
109
100
AcDbEntity
8
0
100
AcDbLine
10
-485.48400244344964
20
-305.08046347233915
30
0
11
-485.48400244344964
21
-305.16146347233899
31
0
0
LINE
5
110
100
AcDbEntity
8
0
100
AcDbLine
10
-485.48400244344964
20
-305.16146347233899
30
0
11
-475.6830024434496
21
-305.16146347233899
31
0
0
LINE
5
111
100
AcDbEntity
8
0
100
AcDbLine
10
-475.6830024434496
20
-305.16146347233899
30
0
11
-475.6830024434496
21
-305.08046347233915
31
0
0
LINE
5
112
100
AcDbEntity
8
0
100
AcDbLine
10
-475.6830024434496
20
-305.08046347233915
30
0
11
-475.65500244344958
21
-305.13246347233888
31
0
0
LINE
5
113
100
AcDbEntity
8
0
100
AcDbLine
10
-475.65500244344958
20
-305.13246347233888
30
0
11
-475.60200244344963
21
-305.16146347233899
31
0
0
LINE
5
114
100
AcDbEntity
8
0
100
AcDbLine
10
-475.60200244344963
20
-305.16146347233899
30
0
11
-475.6830024434496
21
-305.16146347233899
31
0
0
LINE
5
115
100
AcDbEntity
8
0
100
AcDbLine
10
-475.6830024434496
20
-305.16146347233899
30
0
11
-475.6830024434496
21
-309.96246347233892
31
0
0
LINE
5
116
100
AcDbEntity
8
0
100
AcDbLine
10
-475.6830024434496
20
-309.96246347233892
30
0
11
-475.60200244344963
21
-309.96246347233892
31
0
0
LINE
5
117
100
AcDbEntity
8
0
100
AcDbLine
10
-475.60200244344963
20
-309.96246347233892
30
0
11
-475.65500244344958
21
-309.990463472339
31
0
0
LINE
5
118
100
AcDbEntity
8
0
100
AcDbLine
10
-475.65500244344958
20
-309.990463472339
30
0
11
-475.6830024434496
21
-310.04346347233906
31
0
0
LINE
5
119
100
AcDbEntity
8
0
100
AcDbLine
10
-475.6830024434496
20
-310.04346347233906
30
0
11
-475.6830024434496
21
-309.96246347233892
31
0
0
LINE
5
120
100
AcDbEntity
8
0
100
AcDbLine
10
-475.6830024434496
20
-309.96246347233892
30
0
11
-485.48400244344964
21
-309.96246347233892
31
0
0
LINE
5
121
100
AcDbEntity
8
0
100
AcDbLine
10
-255.68400244344963
20
-309.96246347233892
30
0
11
-255.60300244344967
21
-309.96246347233892
31
0
0
LINE
5
122
100
AcDbEntity
8
0
100
AcDbLine
10
-255.60300244344967
20
-309.96246347233892
30
0
11
-255.65600244344964
21
-309.990463472339
31
0
0
LINE
5
123
100
AcDbEntity
8
0
100
AcDbLine
10
-255.65600244344964
20
-309.990463472339
30
0
11
-255.68400244344963
21
-310.04346347233906
31
0
0
LINE
5
124
100
AcDbEntity
8
0
100
AcDbLine
10
-255.68400244344963
20
-310.04346347233906
30
0
11
-255.68400244344963
21
-309.96246347233892
31
0
0
LINE
5
125
100
AcDbEntity
8
0
100
AcDbLine
10
-255.68400244344963
20
-309.96246347233892
30
0
11
-265.48400244344964
21
-309.96246347233892
31
0
0
LINE
5
126
100
AcDbEntity
8
0
100
AcDbLine
10
-265.48400244344964
20
-309.96246347233892
30
0
11
-265.48400244344964
21
-310.04346347233906
31
0
0
LINE
5
127
100
AcDbEntity
8
0
100
AcDbLine
10
-265.48400244344964
20
-310.04346347233906
30
0
11
-265.51600244344962
21
-309.990463472339
31
0
0
LINE
5
128
100
AcDbEntity
8
0
100
AcDbLine
10
-265.51600244344962
20
-309.990463472339
30
0
11
-265.56900244344968
21
-309.96246347233892
31
0
0
LINE
5
129
100
AcDbEntity
8
0
100
AcDbLine
10
-265.56900244344968
20
-309.96246347233892
30
0
11
-265.48400244344964
21
-309.96246347233892
31
0
0
LINE
5
130
100
AcDbEntity
8
0
100
AcDbLine
10
-265.48400244344964
20
-309.96246347233892
30
0
11
-265.48400244344964
21
-305.16146347233899
31
0
0
LINE
5
131
100
AcDbEntity
8
0
100
AcDbLine
10
-265.48400244344964
20
-305.16146347233899
30
0
11
-265.56900244344968
21
-305.16146347233899
31
0
0
LINE
5
132
100
AcDbEntity
8
0
100
AcDbLine
10
-265.56900244344968
20
-305.16146347233899
30
0
11
-265.51600244344962
21
-305.13246347233888
31
0
0
LINE
5
133
100
AcDbEntity
8
0
100
AcDbLine
10
-265.51600244344962
20
-305.13246347233888
30
0
11
-265.48400244344964
21
-305.08046347233915
31
0
0
LINE
5
134
100
AcDbEntity
8
0
100
AcDbLine
10
-265.48400244344964
20
-305.08046347233915
30
0
11
-265.48400244344964
21
-305.16146347233899
31
0
0
LINE
5
135
100
AcDbEntity
8
0
100
AcDbLine
10
-265.48400244344964
20
-305.16146347233899
30
0
11
-255.68400244344963
21
-305.16146347233899
31
0
0
LINE
5
136
100
AcDbEntity
8
0
100
AcDbLine
10
-255.68400244344963
20
-305.16146347233899
30
0
11
-255.68400244344963
21
-305.08046347233915
31
0
0
LINE
5
137
100
AcDbEntity
8
0
100
AcDbLine
10
-255.68400244344963
20
-305.08046347233915
30
0
11
-255.65600244344964
21
-305.13246347233888
31
0
0
LINE
5
138
100
AcDbEntity
8
0
100
AcDbLine
10
-255.65600244344964
20
-305.13246347233888
30
0
11
-255.60300244344967
21
-305.16146347233899
31
0
0
LINE
5
139
100
AcDbEntity
8
0
100
AcDbLine
10
-255.60300244344967
20
-305.16146347233899
30
0
11
-255.68400244344963
21
-305.16146347233899
31
0
0
LINE
5
140
100
AcDbEntity
8
0
100
AcDbLine
10
-255.68400244344963
20
-305.16146347233899
30
0
11
-255.68400244344963
21
-309.96246347233892
31
0
0
LINE
5
141
100
AcDbEntity
8
0
100
AcDbLine
10
-218.2860024434496
20
-325.16346347233906
30
0
11
-218.2860024434496
21
-325.08246347233893
31
0
0
LINE
5
142
100
AcDbEntity
8
0
100
AcDbLine
10
-218.2860024434496
20
-325.08246347233893
30
0
11
-218.25800244344961
21
-325.13146347233914
31
0
0
LINE
5
143
100
AcDbEntity
8
0
100
AcDbLine
10
-218.25800244344961
20
-325.13146347233914
30
0
11
-218.20100244344957
21
-325.16346347233906
31
0
0
LINE
5
144
100
AcDbEntity
8
0
100
AcDbLine
10
-218.20100244344957
20
-325.16346347233906
30
0
11
-218.2860024434496
21
-325.16346347233906
31
0
0
LINE
5
145
100
AcDbEntity
8
0
100
AcDbLine
10
-218.2860024434496
20
-325.16346347233906
30
0
11
-218.2860024434496
21
-334.96346347233924
31
0
0
LINE
5
146
100
AcDbEntity
8
0
100
AcDbLine
10
-218.2860024434496
20
-334.96346347233924
30
0
11
-218.20100244344957
21
-334.96346347233924
31
0
0
LINE
5
147
100
AcDbEntity
8
0
100
AcDbLine
10
-218.20100244344957
20
-334.96346347233924
30
0
11
-218.25800244344961
21
-334.99246347233907
31
0
0
LINE
5
148
100
AcDbEntity
8
0
100
AcDbLine
10
-218.25800244344961
20
-334.99246347233907
30
0
11
-218.2860024434496
21
-335.04546347233912
31
0
0
LINE
5
149
100
AcDbEntity
8
0
100
AcDbLine
10
-218.2860024434496
20
-335.04546347233912
30
0
11
-218.2860024434496
21
-334.96346347233924
31
0
0
LINE
5
150
100
AcDbEntity
8
0
100
AcDbLine
10
-218.2860024434496
20
-334.96346347233924
30
0
11
-223.08400244344961
21
-334.96346347233924
31
0
0
LINE
5
151
100
AcDbEntity
8
0
100
AcDbLine
10
-223.08400244344961
20
-334.96346347233924
30
0
11
-223.08400244344961
21
-335.04546347233912
31
0
0
LINE
5
152
100
AcDbEntity
8
0
100
AcDbLine
10
-223.08400244344961
20
-335.04546347233912
30
0
11
-223.11600244344953
21
-334.99246347233907
31
0
0
LINE
5
153
100
AcDbEntity
8
0
100
AcDbLine
10
-223.11600244344953
20
-334.99246347233907
30
0
11
-223.16900244344964
21
-334.96346347233924
31
0
0
LINE
5
154
100
AcDbEntity
8
0
100
AcDbLine
10
-223.16900244344964
20
-334.96346347233924
30
0
11
-223.08400244344961
21
-334.96346347233924
31
0
0
LINE
5
155
100
AcDbEntity
8
0
100
AcDbLine
10
-223.08400244344961
20
-334.96346347233924
30
0
11
-223.08400244344961
21
-325.16346347233906
31
0
0
LINE
5
156
100
AcDbEntity
8
0
100
AcDbLine
10
-223.08400244344961
20
-325.16346347233906
30
0
11
-223.16900244344964
21
-325.16346347233906
31
0
0
LINE
5
157
100
AcDbEntity
8
0
100
AcDbLine
10
-223.16900244344964
20
-325.16346347233906
30
0
11
-223.11600244344953
21
-325.13146347233914
31
0
0
LINE
5
158
100
AcDbEntity
8
0
100
AcDbLine
10
-223.11600244344953
20
-325.13146347233914
30
0
11
-223.08400244344961
21
-325.08246347233893
31
0
0
LINE
5
159
100
AcDbEntity
8
0
100
AcDbLine
10
-223.08400244344961
20
-325.08246347233893
30
0
11
-223.08400244344961
21
-325.16346347233906
31
0
0
LINE
5
160
100
AcDbEntity
8
0
100
AcDbLine
10
-223.08400244344961
20
-325.16346347233906
30
0
11
-218.2860024434496
21
-325.16346347233906
31
0
0
LINE
5
161
100
AcDbEntity
8
0
100
AcDbLine
10
-355.68600244344958
20
-305.16146347233899
30
0
11
-355.68600244344958
21
-305.08046347233915
31
0
0
LINE
5
162
100
AcDbEntity
8
0
100
AcDbLine
10
-355.68600244344958
20
-305.08046347233915
30
0
11
-355.65800244344962
21
-305.13246347233888
31
0
0
LINE
5
163
100
AcDbEntity
8
0
100
AcDbLine
10
-355.65800244344962
20
-305.13246347233888
30
0
11
-355.6010024434496
21
-305.16146347233899
31
0
0
LINE
5
164
100
AcDbEntity
8
0
100
AcDbLine
10
-355.6010024434496
20
-305.16146347233899
30
0
11
-355.68600244344958
21
-305.16146347233899
31
0
0
LINE
5
165
100
AcDbEntity
8
0
100
AcDbLine
10
-355.68600244344958
20
-305.16146347233899
30
0
11
-355.68600244344958
21
-309.96246347233892
31
0
0
LINE
5
166
100
AcDbEntity
8
0
100
AcDbLine
10
-355.68600244344958
20
-309.96246347233892
30
0
11
-355.6010024434496
21
-309.96246347233892
31
0
0
LINE
5
167
100
AcDbEntity
8
0
100
AcDbLine
10
-355.6010024434496
20
-309.96246347233892
30
0
11
-355.65800244344962
21
-309.990463472339
31
0
0
LINE
5
168
100
AcDbEntity
8
0
100
AcDbLine
10
-355.65800244344962
20
-309.990463472339
30
0
11
-355.68600244344958
21
-310.04346347233906
31
0
0
LINE
5
169
100
AcDbEntity
8
0
100
AcDbLine
10
-355.68600244344958
20
-310.04346347233906
30
0
11
-355.68600244344958
21
-309.96246347233892
31
0
0
LINE
5
170
100
AcDbEntity
8
0
100
AcDbLine
10
-355.68600244344958
20
-309.96246347233892
30
0
11
-365.48600244344959
21
-309.96246347233892
31
0
0
LINE
5
171
100
AcDbEntity
8
0
100
AcDbLine
10
-365.48600244344959
20
-309.96246347233892
30
0
11
-365.48600244344959
21
-310.04346347233906
31
0
0
LINE
5
172
100
AcDbEntity
8
0
100
AcDbLine
10
-365.48600244344959
20
-310.04346347233906
30
0
11
-365.51400244344961
21
-309.990463472339
31
0
0
LINE
5
173
100
AcDbEntity
8
0
100
AcDbLine
10
-365.51400244344961
20
-309.990463472339
30
0
11
-365.56700244344961
21
-309.96246347233892
31
0
0
LINE
5
174
100
AcDbEntity
8
0
100
AcDbLine
10
-365.56700244344961
20
-309.96246347233892
30
0
11
-365.48600244344959
21
-309.96246347233892
31
0
0
LINE
5
175
100
AcDbEntity
8
0
100
AcDbLine
10
-365.48600244344959
20
-309.96246347233892
30
0
11
-365.48600244344959
21
-305.16146347233899
31
0
0
LINE
5
176
100
AcDbEntity
8
0
100
AcDbLine
10
-365.48600244344959
20
-305.16146347233899
30
0
11
-365.56700244344961
21
-305.16146347233899
31
0
0
LINE
5
177
100
AcDbEntity
8
0
100
AcDbLine
10
-365.56700244344961
20
-305.16146347233899
30
0
11
-365.51400244344961
21
-305.13246347233888
31
0
0
LINE
5
178
100
AcDbEntity
8
0
100
AcDbLine
10
-365.51400244344961
20
-305.13246347233888
30
0
11
-365.48600244344959
21
-305.08046347233915
31
0
0
LINE
5
179
100
AcDbEntity
8
0
100
AcDbLine
10
-365.48600244344959
20
-305.08046347233915
30
0
11
-365.48600244344959
21
-305.16146347233899
31
0
0
LINE
5
180
100
AcDbEntity
8
0
100
AcDbLine
10
-365.48600244344959
20
-305.16146347233899
30
0
11
-355.68600244344958
21
-305.16146347233899
31
0
0
LINE
5
181
100
AcDbEntity
8
0
100
AcDbLine
10
-445.48600244344959
20
-305.16146347233899
30
0
11
-435.6850024434496
21
-305.16146347233899
31
0
0
LINE
5
182
100
AcDbEntity
8
0
100
AcDbLine
10
-435.6850024434496
20
-305.16146347233899
30
0
11
-435.6850024434496
21
-305.08046347233915
31
0
0
LINE
5
183
100
AcDbEntity
8
0
100
AcDbLine
10
-435.6850024434496
20
-305.08046347233915
30
0
11
-435.65700244344953
21
-305.13246347233888
31
0
0
LINE
5
184
100
AcDbEntity
8
0
100
AcDbLine
10
-435.65700244344953
20
-305.13246347233888
30
0
11
-435.60400244344964
21
-305.16146347233899
31
0
0
LINE
5
185
100
AcDbEntity
8
0
100
AcDbLine
10
-435.60400244344964
20
-305.16146347233899
30
0
11
-435.6850024434496
21
-305.16146347233899
31
0
0
LINE
5
186
100
AcDbEntity
8
0
100
AcDbLine
10
-435.6850024434496
20
-305.16146347233899
30
0
11
-435.6850024434496
21
-309.96246347233892
31
0
0
LINE
5
187
100
AcDbEntity
8
0
100
AcDbLine
10
-435.6850024434496
20
-309.96246347233892
30
0
11
-435.60400244344964
21
-309.96246347233892
31
0
0
LINE
5
188
100
AcDbEntity
8
0
100
AcDbLine
10
-435.60400244344964
20
-309.96246347233892
30
0
11
-435.65700244344953
21
-309.990463472339
31
0
0
LINE
5
189
100
AcDbEntity
8
0
100
AcDbLine
10
-435.65700244344953
20
-309.990463472339
30
0
11
-435.6850024434496
21
-310.04346347233906
31
0
0
LINE
5
190
100
AcDbEntity
8
0
100
AcDbLine
10
-435.6850024434496
20
-310.04346347233906
30
0
11
-435.6850024434496
21
-309.96246347233892
31
0
0
LINE
5
191
100
AcDbEntity
8
0
100
AcDbLine
10
-435.6850024434496
20
-309.96246347233892
30
0
11
-445.48600244344959
21
-309.96246347233892
31
0
0
LINE
5
192
100
AcDbEntity
8
0
100
AcDbLine
10
-445.48600244344959
20
-309.96246347233892
30
0
11
-445.48600244344959
21
-310.04346347233906
31
0
0
LINE
5
193
100
AcDbEntity
8
0
100
AcDbLine
10
-445.48600244344959
20
-310.04346347233906
30
0
11
-445.51400244344961
21
-309.990463472339
31
0
0
LINE
5
194
100
AcDbEntity
8
0
100
AcDbLine
10
-445.51400244344961
20
-309.990463472339
30
0
11
-445.56700244344961
21
-309.96246347233892
31
0
0
LINE
5
195
100
AcDbEntity
8
0
100
AcDbLine
10
-445.56700244344961
20
-309.96246347233892
30
0
11
-445.48600244344959
21
-309.96246347233892
31
0
0
LINE
5
196
100
AcDbEntity
8
0
100
AcDbLine
10
-445.48600244344959
20
-309.96246347233892
30
0
11
-445.48600244344959
21
-305.16146347233899
31
0
0
LINE
5
197
100
AcDbEntity
8
0
100
AcDbLine
10
-445.48600244344959
20
-305.16146347233899
30
0
11
-445.56700244344961
21
-305.16146347233899
31
0
0
LINE
5
198
100
AcDbEntity
8
0
100
AcDbLine
10
-445.56700244344961
20
-305.16146347233899
30
0
11
-445.51400244344961
21
-305.13246347233888
31
0
0
LINE
5
199
100
AcDbEntity
8
0
100
AcDbLine
10
-445.51400244344961
20
-305.13246347233888
30
0
11
-445.48600244344959
21
-305.08046347233915
31
0
0
LINE
5
200
100
AcDbEntity
8
0
100
AcDbLine
10
-445.48600244344959
20
-305.08046347233915
30
0
11
-445.48600244344959
21
-305.16146347233899
31
0
0
LINE
5
201
100
AcDbEntity
8
0
100
AcDbLine
10
-223.08400244344961
20
-345.16246347233903
30
0
11
-223.16900244344964
21
-345.16246347233903
31
0
0
LINE
5
202
100
AcDbEntity
8
0
100
AcDbLine
10
-223.16900244344964
20
-345.16246347233903
30
0
11
-223.11600244344953
21
-345.13446347233895
31
0
0
LINE
5
203
100
AcDbEntity
8
0
100
AcDbLine
10
-223.11600244344953
20
-345.13446347233895
30
0
11
-223.08400244344961
21
-345.0814634723389
31
0
0
LINE
5
204
100
AcDbEntity
8
0
100
AcDbLine
10
-223.08400244344961
20
-345.0814634723389
30
0
11
-223.08400244344961
21
-345.16246347233903
31
0
0
LINE
5
205
100
AcDbEntity
8
0
100
AcDbLine
10
-223.08400244344961
20
-345.16246347233903
30
0
11
-218.2860024434496
21
-345.16246347233903
31
0
0
LINE
5
206
100
AcDbEntity
8
0
100
AcDbLine
10
-218.2860024434496
20
-345.16246347233903
30
0
11
-218.2860024434496
21
-345.0814634723389
31
0
0
LINE
5
207
100
AcDbEntity
8
0
100
AcDbLine
10
-218.2860024434496
20
-345.0814634723389
30
0
11
-218.25800244344961
21
-345.13446347233895
31
0
0
LINE
5
208
100
AcDbEntity
8
0
100
AcDbLine
10
-218.25800244344961
20
-345.13446347233895
30
0
11
-218.20100244344957
21
-345.16246347233903
31
0
0
LINE
5
209
100
AcDbEntity
8
0
100
AcDbLine
10
-218.20100244344957
20
-345.16246347233903
30
0
11
-218.2860024434496
21
-345.16246347233903
31
0
0
LINE
5
210
100
AcDbEntity
8
0
100
AcDbLine
10
-218.2860024434496
20
-345.16246347233903
30
0
11
-218.2860024434496
21
-354.96246347233892
31
0
0
LINE
5
211
100
AcDbEntity
8
0
100
AcDbLine
10
-218.2860024434496
20
-354.96246347233892
30
0
11
-218.20100244344957
21
-354.96246347233892
31
0
0
LINE
5
212
100
AcDbEntity
8
0
100
AcDbLine
10
-218.20100244344957
20
-354.96246347233892
30
0
11
-218.25800244344961
21
-354.99146347233903
31
0
0
LINE
5
213
100
AcDbEntity
8
0
100
AcDbLine
10
-218.25800244344961
20
-354.99146347233903
30
0
11
-218.2860024434496
21
-355.04746347233919
31
0
0
LINE
5
214
100
AcDbEntity
8
0
100
AcDbLine
10
-218.2860024434496
20
-355.04746347233919
30
0
11
-218.2860024434496
21
-354.96246347233892
31
0
0
LINE
5
215
100
AcDbEntity
8
0
100
AcDbLine
10
-218.2860024434496
20
-354.96246347233892
30
0
11
-223.08400244344961
21
-354.96246347233892
31
0
0
LINE
5
216
100
AcDbEntity
8
0
100
AcDbLine
10
-223.08400244344961
20
-354.96246347233892
30
0
11
-223.08400244344961
21
-355.04746347233919
31
0
0
LINE
5
217
100
AcDbEntity
8
0
100
AcDbLine
10
-223.08400244344961
20
-355.04746347233919
30
0
11
-223.11600244344953
21
-354.99146347233903
31
0
0
LINE
5
218
100
AcDbEntity
8
0
100
AcDbLine
10
-223.11600244344953
20
-354.99146347233903
30
0
11
-223.16900244344964
21
-354.96246347233892
31
0
0
LINE
5
219
100
AcDbEntity
8
0
100
AcDbLine
10
-223.16900244344964
20
-354.96246347233892
30
0
11
-223.08400244344961
21
-354.96246347233892
31
0
0
LINE
5
220
100
AcDbEntity
8
0
100
AcDbLine
10
-223.08400244344961
20
-354.96246347233892
30
0
11
-223.08400244344961
21
-345.16246347233903
31
0
0
LINE
5
221
100
AcDbEntity
8
0
100
AcDbLine
10
-395.68400244344957
20
-309.96246347233892
30
0
11
-395.60300244344967
21
-309.96246347233892
31
0
0
LINE
5
222
100
AcDbEntity
8
0
100
AcDbLine
10
-395.60300244344967
20
-309.96246347233892
30
0
11
-395.65600244344955
21
-309.990463472339
31
0
0
LINE
5
223
100
AcDbEntity
8
0
100
AcDbLine
10
-395.65600244344955
20
-309.990463472339
30
0
11
-395.68400244344957
21
-310.04346347233906
31
0
0
LINE
5
224
100
AcDbEntity
8
0
100
AcDbLine
10
-395.68400244344957
20
-310.04346347233906
30
0
11
-395.68400244344957
21
-309.96246347233892
31
0
0
LINE
5
225
100
AcDbEntity
8
0
100
AcDbLine
10
-395.68400244344957
20
-309.96246347233892
30
0
11
-405.48400244344964
21
-309.96246347233892
31
0
0
LINE
5
226
100
AcDbEntity
8
0
100
AcDbLine
10
-405.48400244344964
20
-309.96246347233892
30
0
11
-405.48400244344964
21
-310.04346347233906
31
0
0
LINE
5
227
100
AcDbEntity
8
0
100
AcDbLine
10
-405.48400244344964
20
-310.04346347233906
30
0
11
-405.51600244344962
21
-309.990463472339
31
0
0
LINE
5
228
100
AcDbEntity
8
0
100
AcDbLine
10
-405.51600244344962
20
-309.990463472339
30
0
11
-405.56900244344968
21
-309.96246347233892
31
0
0
LINE
5
229
100
AcDbEntity
8
0
100
AcDbLine
10
-405.56900244344968
20
-309.96246347233892
30
0
11
-405.48400244344964
21
-309.96246347233892
31
0
0
LINE
5
230
100
AcDbEntity
8
0
100
AcDbLine
10
-405.48400244344964
20
-309.96246347233892
30
0
11
-405.48400244344964
21
-305.16146347233899
31
0
0
LINE
5
231
100
AcDbEntity
8
0
100
AcDbLine
10
-405.48400244344964
20
-305.16146347233899
30
0
11
-405.56900244344968
21
-305.16146347233899
31
0
0
LINE
5
232
100
AcDbEntity
8
0
100
AcDbLine
10
-405.56900244344968
20
-305.16146347233899
30
0
11
-405.51600244344962
21
-305.13246347233888
31
0
0
LINE
5
233
100
AcDbEntity
8
0
100
AcDbLine
10
-405.51600244344962
20
-305.13246347233888
30
0
11
-405.48400244344964
21
-305.08046347233915
31
0
0
LINE
5
234
100
AcDbEntity
8
0
100
AcDbLine
10
-405.48400244344964
20
-305.08046347233915
30
0
11
-405.48400244344964
21
-305.16146347233899
31
0
0
LINE
5
235
100
AcDbEntity
8
0
100
AcDbLine
10
-405.48400244344964
20
-305.16146347233899
30
0
11
-395.68400244344957
21
-305.16146347233899
31
0
0
LINE
5
236
100
AcDbEntity
8
0
100
AcDbLine
10
-395.68400244344957
20
-305.16146347233899
30
0
11
-395.68400244344957
21
-305.08046347233915
31
0
0
LINE
5
237
100
AcDbEntity
8
0
100
AcDbLine
10
-395.68400244344957
20
-305.08046347233915
30
0
11
-395.65600244344955
21
-305.13246347233888
31
0
0
LINE
5
238
100
AcDbEntity
8
0
100
AcDbLine
10
-395.65600244344955
20
-305.13246347233888
30
0
11
-395.60300244344967
21
-305.16146347233899
31
0
0
LINE
5
239
100
AcDbEntity
8
0
100
AcDbLine
10
-395.60300244344967
20
-305.16146347233899
30
0
11
-395.68400244344957
21
-305.16146347233899
31
0
0
LINE
5
240
100
AcDbEntity
8
0
100
AcDbLine
10
-395.68400244344957
20
-305.16146347233899
30
0
11
-395.68400244344957
21
-309.96246347233892
31
0
0
LINE
5
241
100
AcDbEntity
8
0
100
AcDbLine
10
-415.60200244344963
20
-309.96246347233892
30
0
11
-415.65500244344958
21
-309.990463472339
31
0
0
LINE
5
242
100
AcDbEntity
8
0
100
AcDbLine
10
-415.65500244344958
20
-309.990463472339
30
0
11
-415.68600244344958
21
-310.04346347233906
31
0
0
LINE
5
243
100
AcDbEntity
8
0
100
AcDbLine
10
-415.68600244344958
20
-310.04346347233906
30
0
11
-415.68600244344958
21
-309.96246347233892
31
0
0
LINE
5
244
100
AcDbEntity
8
0
100
AcDbLine
10
-415.68600244344958
20
-309.96246347233892
30
0
11
-425.48300244344966
21
-309.96246347233892
31
0
0
LINE
5
245
100
AcDbEntity
8
0
100
AcDbLine
10
-425.48300244344966
20
-309.96246347233892
30
0
11
-425.48300244344966
21
-310.04346347233906
31
0
0
LINE
5
246
100
AcDbEntity
8
0
100
AcDbLine
10
-425.48300244344966
20
-310.04346347233906
30
0
11
-425.51500244344959
21
-309.990463472339
31
0
0
LINE
5
247
100
AcDbEntity
8
0
100
AcDbLine
10
-425.51500244344959
20
-309.990463472339
30
0
11
-425.56800244344964
21
-309.96246347233892
31
0
0
LINE
5
248
100
AcDbEntity
8
0
100
AcDbLine
10
-425.56800244344964
20
-309.96246347233892
30
0
11
-425.48300244344966
21
-309.96246347233892
31
0
0
LINE
5
249
100
AcDbEntity
8
0
100
AcDbLine
10
-425.48300244344966
20
-309.96246347233892
30
0
11
-425.48300244344966
21
-305.16146347233899
31
0
0
LINE
5
250
100
AcDbEntity
8
0
100
AcDbLine
10
-425.48300244344966
20
-305.16146347233899
30
0
11
-425.56800244344964
21
-305.16146347233899
31
0
0
LINE
5
251
100
AcDbEntity
8
0
100
AcDbLine
10
-425.56800244344964
20
-305.16146347233899
30
0
11
-425.51500244344959
21
-305.13246347233888
31
0
0
LINE
5
252
100
AcDbEntity
8
0
100
AcDbLine
10
-425.51500244344959
20
-305.13246347233888
30
0
11
-425.48300244344966
21
-305.08046347233915
31
0
0
LINE
5
253
100
AcDbEntity
8
0
100
AcDbLine
10
-425.48300244344966
20
-305.08046347233915
30
0
11
-425.48300244344966
21
-305.16146347233899
31
0
0
LINE
5
254
100
AcDbEntity
8
0
100
AcDbLine
10
-425.48300244344966
20
-305.16146347233899
30
0
11
-415.68600244344958
21
-305.16146347233899
31
0
0
LINE
5
255
100
AcDbEntity
8
0
100
AcDbLine
10
-415.68600244344958
20
-305.16146347233899
30
0
11
-415.68600244344958
21
-305.08046347233915
31
0
0
LINE
5
256
100
AcDbEntity
8
0
100
AcDbLine
10
-415.68600244344958
20
-305.08046347233915
30
0
11
-415.65500244344958
21
-305.13246347233888
31
0
0
LINE
5
257
100
AcDbEntity
8
0
100
AcDbLine
10
-415.65500244344958
20
-305.13246347233888
30
0
11
-415.60200244344963
21
-305.16146347233899
31
0
0
LINE
5
258
100
AcDbEntity
8
0
100
AcDbLine
10
-415.60200244344963
20
-305.16146347233899
30
0
11
-415.68600244344958
21
-305.16146347233899
31
0
0
LINE
5
259
100
AcDbEntity
8
0
100
AcDbLine
10
-415.68600244344958
20
-305.16146347233899
30
0
11
-415.68600244344958
21
-309.96246347233892
31
0
0
LINE
5
260
100
AcDbEntity
8
0
100
AcDbLine
10
-415.68600244344958
20
-309.96246347233892
30
0
11
-415.60200244344963
21
-309.96246347233892
31
0
0
LINE
5
261
100
AcDbEntity
8
0
100
AcDbLine
10
-455.68400244344957
20
-309.96246347233892
30
0
11
-455.60300244344967
21
-309.96246347233892
31
0
0
LINE
5
262
100
AcDbEntity
8
0
100
AcDbLine
10
-455.60300244344967
20
-309.96246347233892
30
0
11
-455.65600244344955
21
-309.990463472339
31
0
0
LINE
5
263
100
AcDbEntity
8
0
100
AcDbLine
10
-455.65600244344955
20
-309.990463472339
30
0
11
-455.68400244344957
21
-310.04346347233906
31
0
0
LINE
5
264
100
AcDbEntity
8
0
100
AcDbLine
10
-455.68400244344957
20
-310.04346347233906
30
0
11
-455.68400244344957
21
-309.96246347233892
31
0
0
LINE
5
265
100
AcDbEntity
8
0
100
AcDbLine
10
-455.68400244344957
20
-309.96246347233892
30
0
11
-465.48500244344956
21
-309.96246347233892
31
0
0
LINE
5
266
100
AcDbEntity
8
0
100
AcDbLine
10
-465.48500244344956
20
-309.96246347233892
30
0
11
-465.48500244344956
21
-310.04346347233906
31
0
0
LINE
5
267
100
AcDbEntity
8
0
100
AcDbLine
10
-465.48500244344956
20
-310.04346347233906
30
0
11
-465.51600244344962
21
-309.990463472339
31
0
0
LINE
5
268
100
AcDbEntity
8
0
100
AcDbLine
10
-465.51600244344962
20
-309.990463472339
30
0
11
-465.56900244344968
21
-309.96246347233892
31
0
0
LINE
5
269
100
AcDbEntity
8
0
100
AcDbLine
10
-465.56900244344968
20
-309.96246347233892
30
0
11
-465.48500244344956
21
-309.96246347233892
31
0
0
LINE
5
270
100
AcDbEntity
8
0
100
AcDbLine
10
-465.48500244344956
20
-309.96246347233892
30
0
11
-465.48500244344956
21
-305.16146347233899
31
0
0
LINE
5
271
100
AcDbEntity
8
0
100
AcDbLine
10
-465.48500244344956
20
-305.16146347233899
30
0
11
-465.56900244344968
21
-305.16146347233899
31
0
0
LINE
5
272
100
AcDbEntity
8
0
100
AcDbLine
10
-465.56900244344968
20
-305.16146347233899
30
0
11
-465.51600244344962
21
-305.13246347233888
31
0
0
LINE
5
273
100
AcDbEntity
8
0
100
AcDbLine
10
-465.51600244344962
20
-305.13246347233888
30
0
11
-465.48500244344956
21
-305.08046347233915
31
0
0
LINE
5
274
100
AcDbEntity
8
0
100
AcDbLine
10
-465.48500244344956
20
-305.08046347233915
30
0
11
-465.48500244344956
21
-305.16146347233899
31
0
0
LINE
5
275
100
AcDbEntity
8
0
100
AcDbLine
10
-465.48500244344956
20
-305.16146347233899
30
0
11
-455.68400244344957
21
-305.16146347233899
31
0
0
LINE
5
276
100
AcDbEntity
8
0
100
AcDbLine
10
-455.68400244344957
20
-305.16146347233899
30
0
11
-455.68400244344957
21
-305.08046347233915
31
0
0
LINE
5
277
100
AcDbEntity
8
0
100
AcDbLine
10
-455.68400244344957
20
-305.08046347233915
30
0
11
-455.65600244344955
21
-305.13246347233888
31
0
0
LINE
5
278
100
AcDbEntity
8
0
100
AcDbLine
10
-455.65600244344955
20
-305.13246347233888
30
0
11
-455.60300244344967
21
-305.16146347233899
31
0
0
LINE
5
279
100
AcDbEntity
8
0
100
AcDbLine
10
-455.60300244344967
20
-305.16146347233899
30
0
11
-455.68400244344957
21
-305.16146347233899
31
0
0
LINE
5
280
100
AcDbEntity
8
0
100
AcDbLine
10
-455.68400244344957
20
-305.16146347233899
30
0
11
-455.68400244344957
21
-309.96246347233892
31
0
0
LINE
5
281
100
AcDbEntity
8
0
100
AcDbLine
10
-315.6850024434496
20
-309.96246347233892
30
0
11
-315.60300244344967
21
-309.96246347233892
31
0
0
LINE
5
282
100
AcDbEntity
8
0
100
AcDbLine
10
-315.60300244344967
20
-309.96246347233892
30
0
11
-315.65600244344967
21
-309.990463472339
31
0
0
LINE
5
283
100
AcDbEntity
8
0
100
AcDbLine
10
-315.65600244344967
20
-309.990463472339
30
0
11
-315.6850024434496
21
-310.04346347233906
31
0
0
LINE
5
284
100
AcDbEntity
8
0
100
AcDbLine
10
-315.6850024434496
20
-310.04346347233906
30
0
11
-315.6850024434496
21
-309.96246347233892
31
0
0
LINE
5
285
100
AcDbEntity
8
0
100
AcDbLine
10
-315.6850024434496
20
-309.96246347233892
30
0
11
-325.48500244344956
21
-309.96246347233892
31
0
0
LINE
5
286
100
AcDbEntity
8
0
100
AcDbLine
10
-325.48500244344956
20
-309.96246347233892
30
0
11
-325.48500244344956
21
-310.04346347233906
31
0
0
LINE
5
287
100
AcDbEntity
8
0
100
AcDbLine
10
-325.48500244344956
20
-310.04346347233906
30
0
11
-325.51600244344962
21
-309.990463472339
31
0
0
LINE
5
288
100
AcDbEntity
8
0
100
AcDbLine
10
-325.51600244344962
20
-309.990463472339
30
0
11
-325.56900244344968
21
-309.96246347233892
31
0
0
LINE
5
289
100
AcDbEntity
8
0
100
AcDbLine
10
-325.56900244344968
20
-309.96246347233892
30
0
11
-325.48500244344956
21
-309.96246347233892
31
0
0
LINE
5
290
100
AcDbEntity
8
0
100
AcDbLine
10
-325.48500244344956
20
-309.96246347233892
30
0
11
-325.48500244344956
21
-305.16146347233899
31
0
0
LINE
5
291
100
AcDbEntity
8
0
100
AcDbLine
10
-325.48500244344956
20
-305.16146347233899
30
0
11
-325.56900244344968
21
-305.16146347233899
31
0
0
LINE
5
292
100
AcDbEntity
8
0
100
AcDbLine
10
-325.56900244344968
20
-305.16146347233899
30
0
11
-325.51600244344962
21
-305.13246347233888
31
0
0
LINE
5
293
100
AcDbEntity
8
0
100
AcDbLine
10
-325.51600244344962
20
-305.13246347233888
30
0
11
-325.48500244344956
21
-305.08046347233915
31
0
0
LINE
5
294
100
AcDbEntity
8
0
100
AcDbLine
10
-325.48500244344956
20
-305.08046347233915
30
0
11
-325.48500244344956
21
-305.16146347233899
31
0
0
LINE
5
295
100
AcDbEntity
8
0
100
AcDbLine
10
-325.48500244344956
20
-305.16146347233899
30
0
11
-315.6850024434496
21
-305.16146347233899
31
0
0
LINE
5
296
100
AcDbEntity
8
0
100
AcDbLine
10
-315.6850024434496
20
-305.16146347233899
30
0
11
-315.6850024434496
21
-305.08046347233915
31
0
0
LINE
5
297
100
AcDbEntity
8
0
100
AcDbLine
10
-315.6850024434496
20
-305.08046347233915
30
0
11
-315.65600244344967
21
-305.13246347233888
31
0
0
LINE
5
298
100
AcDbEntity
8
0
100
AcDbLine
10
-315.65600244344967
20
-305.13246347233888
30
0
11
-315.60300244344967
21
-305.16146347233899
31
0
0
LINE
5
299
100
AcDbEntity
8
0
100
AcDbLine
10
-315.60300244344967
20
-305.16146347233899
30
0
11
-315.6850024434496
21
-305.16146347233899
31
0
0
LINE
5
300
100
AcDbEntity
8
0
100
AcDbLine
10
-315.6850024434496
20
-305.16146347233899
30
0
11
-315.6850024434496
21
-309.96246347233892
31
0
0
LINE
5
301
100
AcDbEntity
8
0
100
AcDbLine
10
-345.48400244344964
20
-310.04346347233906
30
0
11
-345.51500244344959
21
-309.990463472339
31
0
0
LINE
5
302
100
AcDbEntity
8
0
100
AcDbLine
10
-345.51500244344959
20
-309.990463472339
30
0
11
-345.56800244344964
21
-309.96246347233892
31
0
0
LINE
5
303
100
AcDbEntity
8
0
100
AcDbLine
10
-345.56800244344964
20
-309.96246347233892
30
0
11
-345.48400244344964
21
-309.96246347233892
31
0
0
LINE
5
304
100
AcDbEntity
8
0
100
AcDbLine
10
-345.48400244344964
20
-309.96246347233892
30
0
11
-345.48400244344964
21
-305.16146347233899
31
0
0
LINE
5
305
100
AcDbEntity
8
0
100
AcDbLine
10
-345.48400244344964
20
-305.16146347233899
30
0
11
-345.56800244344964
21
-305.16146347233899
31
0
0
LINE
5
306
100
AcDbEntity
8
0
100
AcDbLine
10
-345.56800244344964
20
-305.16146347233899
30
0
11
-345.51500244344959
21
-305.13246347233888
31
0
0
LINE
5
307
100
AcDbEntity
8
0
100
AcDbLine
10
-345.51500244344959
20
-305.13246347233888
30
0
11
-345.48400244344964
21
-305.08046347233915
31
0
0
LINE
5
308
100
AcDbEntity
8
0
100
AcDbLine
10
-345.48400244344964
20
-305.08046347233915
30
0
11
-345.48400244344964
21
-305.16146347233899
31
0
0
LINE
5
309
100
AcDbEntity
8
0
100
AcDbLine
10
-345.48400244344964
20
-305.16146347233899
30
0
11
-335.68400244344957
21
-305.16146347233899
31
0
0
LINE
5
310
100
AcDbEntity
8
0
100
AcDbLine
10
-335.68400244344957
20
-305.16146347233899
30
0
11
-335.68400244344957
21
-305.08046347233915
31
0
0
LINE
5
311
100
AcDbEntity
8
0
100
AcDbLine
10
-335.68400244344957
20
-305.08046347233915
30
0
11
-335.65500244344958
21
-305.13246347233888
31
0
0
LINE
5
312
100
AcDbEntity
8
0
100
AcDbLine
10
-335.65500244344958
20
-305.13246347233888
30
0
11
-335.60200244344963
21
-305.16146347233899
31
0
0
LINE
5
313
100
AcDbEntity
8
0
100
AcDbLine
10
-335.60200244344963
20
-305.16146347233899
30
0
11
-335.68400244344957
21
-305.16146347233899
31
0
0
LINE
5
314
100
AcDbEntity
8
0
100
AcDbLine
10
-335.68400244344957
20
-305.16146347233899
30
0
11
-335.68400244344957
21
-309.96246347233892
31
0
0
LINE
5
315
100
AcDbEntity
8
0
100
AcDbLine
10
-335.68400244344957
20
-309.96246347233892
30
0
11
-335.60200244344963
21
-309.96246347233892
31
0
0
LINE
5
316
100
AcDbEntity
8
0
100
AcDbLine
10
-335.60200244344963
20
-309.96246347233892
30
0
11
-335.65500244344958
21
-309.990463472339
31
0
0
LINE
5
317
100
AcDbEntity
8
0
100
AcDbLine
10
-335.65500244344958
20
-309.990463472339
30
0
11
-335.68400244344957
21
-310.04346347233906
31
0
0
LINE
5
318
100
AcDbEntity
8
0
100
AcDbLine
10
-335.68400244344957
20
-310.04346347233906
30
0
11
-335.68400244344957
21
-309.96246347233892
31
0
0
LINE
5
319
100
AcDbEntity
8
0
100
AcDbLine
10
-335.68400244344957
20
-309.96246347233892
30
0
11
-345.48400244344964
21
-309.96246347233892
31
0
0
LINE
5
320
100
AcDbEntity
8
0
100
AcDbLine
10
-345.48400244344964
20
-309.96246347233892
30
0
11
-345.48400244344964
21
-310.04346347233906
31
0
0
LINE
5
321
100
AcDbEntity
8
0
100
AcDbLine
10
-375.6850024434496
20
-309.96246347233892
30
0
11
-375.60400244344964
21
-309.96246347233892
31
0
0
LINE
5
322
100
AcDbEntity
8
0
100
AcDbLine
10
-375.60400244344964
20
-309.96246347233892
30
0
11
-375.65700244344953
21
-309.990463472339
31
0
0
LINE
5
323
100
AcDbEntity
8
0
100
AcDbLine
10
-375.65700244344953
20
-309.990463472339
30
0
11
-375.6850024434496
21
-310.04346347233906
31
0
0
LINE
5
324
100
AcDbEntity
8
0
100
AcDbLine
10
-375.6850024434496
20
-310.04346347233906
30
0
11
-375.6850024434496
21
-309.96246347233892
31
0
0
LINE
5
325
100
AcDbEntity
8
0
100
AcDbLine
10
-375.6850024434496
20
-309.96246347233892
30
0
11
-385.48500244344956
21
-309.96246347233892
31
0
0
LINE
5
326
100
AcDbEntity
8
0
100
AcDbLine
10
-385.48500244344956
20
-309.96246347233892
30
0
11
-385.48500244344956
21
-310.04346347233906
31
0
0
LINE
5
327
100
AcDbEntity
8
0
100
AcDbLine
10
-385.48500244344956
20
-310.04346347233906
30
0
11
-385.51300244344964
21
-309.990463472339
31
0
0
LINE
5
328
100
AcDbEntity
8
0
100
AcDbLine
10
-385.51300244344964
20
-309.990463472339
30
0
11
-385.57000244344965
21
-309.96246347233892
31
0
0
LINE
5
329
100
AcDbEntity
8
0
100
AcDbLine
10
-385.57000244344965
20
-309.96246347233892
30
0
11
-385.48500244344956
21
-309.96246347233892
31
0
0
LINE
5
330
100
AcDbEntity
8
0
100
AcDbLine
10
-385.48500244344956
20
-309.96246347233892
30
0
11
-385.48500244344956
21
-305.16146347233899
31
0
0
LINE
5
331
100
AcDbEntity
8
0
100
AcDbLine
10
-385.48500244344956
20
-305.16146347233899
30
0
11
-385.57000244344965
21
-305.16146347233899
31
0
0
LINE
5
332
100
AcDbEntity
8
0
100
AcDbLine
10
-385.57000244344965
20
-305.16146347233899
30
0
11
-385.51300244344964
21
-305.13246347233888
31
0
0
LINE
5
333
100
AcDbEntity
8
0
100
AcDbLine
10
-385.51300244344964
20
-305.13246347233888
30
0
11
-385.48500244344956
21
-305.08046347233915
31
0
0
LINE
5
334
100
AcDbEntity
8
0
100
AcDbLine
10
-385.48500244344956
20
-305.08046347233915
30
0
11
-385.48500244344956
21
-305.16146347233899
31
0
0
LINE
5
335
100
AcDbEntity
8
0
100
AcDbLine
10
-385.48500244344956
20
-305.16146347233899
30
0
11
-375.6850024434496
21
-305.16146347233899
31
0
0
LINE
5
336
100
AcDbEntity
8
0
100
AcDbLine
10
-375.6850024434496
20
-305.16146347233899
30
0
11
-375.6850024434496
21
-305.08046347233915
31
0
0
LINE
5
337
100
AcDbEntity
8
0
100
AcDbLine
10
-375.6850024434496
20
-305.08046347233915
30
0
11
-375.65700244344953
21
-305.13246347233888
31
0
0
LINE
5
338
100
AcDbEntity
8
0
100
AcDbLine
10
-375.65700244344953
20
-305.13246347233888
30
0
11
-375.60400244344964
21
-305.16146347233899
31
0
0
LINE
5
339
100
AcDbEntity
8
0
100
AcDbLine
10
-375.60400244344964
20
-305.16146347233899
30
0
11
-375.6850024434496
21
-305.16146347233899
31
0
0
LINE
5
340
100
AcDbEntity
8
0
100
AcDbLine
10
-375.6850024434496
20
-305.16146347233899
30
0
11
-375.6850024434496
21
-309.96246347233892
31
0
0
LINE
5
341
100
AcDbEntity
8
0
100
AcDbLine
10
-295.68600244344958
20
-309.96246347233892
30
0
11
-295.60400244344964
21
-309.96246347233892
31
0
0
LINE
5
342
100
AcDbEntity
8
0
100
AcDbLine
10
-295.60400244344964
20
-309.96246347233892
30
0
11
-295.6540024434496
21
-309.990463472339
31
0
0
LINE
5
343
100
AcDbEntity
8
0
100
AcDbLine
10
-295.6540024434496
20
-309.990463472339
30
0
11
-295.68600244344958
21
-310.04346347233906
31
0
0
LINE
5
344
100
AcDbEntity
8
0
100
AcDbLine
10
-295.68600244344958
20
-310.04346347233906
30
0
11
-295.68600244344958
21
-309.96246347233892
31
0
0
LINE
5
345
100
AcDbEntity
8
0
100
AcDbLine
10
-295.68600244344958
20
-309.96246347233892
30
0
11
-305.48600244344954
21
-309.96246347233892
31
0
0
LINE
5
346
100
AcDbEntity
8
0
100
AcDbLine
10
-305.48600244344954
20
-309.96246347233892
30
0
11
-305.48600244344954
21
-310.04346347233906
31
0
0
LINE
5
347
100
AcDbEntity
8
0
100
AcDbLine
10
-305.48600244344954
20
-310.04346347233906
30
0
11
-305.51400244344956
21
-309.990463472339
31
0
0
LINE
5
348
100
AcDbEntity
8
0
100
AcDbLine
10
-305.51400244344956
20
-309.990463472339
30
0
11
-305.56700244344961
21
-309.96246347233892
31
0
0
LINE
5
349
100
AcDbEntity
8
0
100
AcDbLine
10
-305.56700244344961
20
-309.96246347233892
30
0
11
-305.48600244344954
21
-309.96246347233892
31
0
0
LINE
5
350
100
AcDbEntity
8
0
100
AcDbLine
10
-305.48600244344954
20
-309.96246347233892
30
0
11
-305.48600244344954
21
-305.16146347233899
31
0
0
LINE
5
351
100
AcDbEntity
8
0
100
AcDbLine
10
-305.48600244344954
20
-305.16146347233899
30
0
11
-305.56700244344961
21
-305.16146347233899
31
0
0
LINE
5
352
100
AcDbEntity
8
0
100
AcDbLine
10
-305.56700244344961
20
-305.16146347233899
30
0
11
-305.51400244344956
21
-305.13246347233888
31
0
0
LINE
5
353
100
AcDbEntity
8
0
100
AcDbLine
10
-305.51400244344956
20
-305.13246347233888
30
0
11
-305.48600244344954
21
-305.08046347233915
31
0
0
LINE
5
354
100
AcDbEntity
8
0
100
AcDbLine
10
-305.48600244344954
20
-305.08046347233915
30
0
11
-305.48600244344954
21
-305.16146347233899
31
0
0
LINE
5
355
100
AcDbEntity
8
0
100
AcDbLine
10
-305.48600244344954
20
-305.16146347233899
30
0
11
-295.68600244344958
21
-305.16146347233899
31
0
0
LINE
5
356
100
AcDbEntity
8
0
100
AcDbLine
10
-295.68600244344958
20
-305.16146347233899
30
0
11
-295.68600244344958
21
-305.08046347233915
31
0
0
LINE
5
357
100
AcDbEntity
8
0
100
AcDbLine
10
-295.68600244344958
20
-305.08046347233915
30
0
11
-295.6540024434496
21
-305.13246347233888
31
0
0
LINE
5
358
100
AcDbEntity
8
0
100
AcDbLine
10
-295.6540024434496
20
-305.13246347233888
30
0
11
-295.60400244344964
21
-305.16146347233899
31
0
0
LINE
5
359
100
AcDbEntity
8
0
100
AcDbLine
10
-295.60400244344964
20
-305.16146347233899
30
0
11
-295.68600244344958
21
-305.16146347233899
31
0
0
LINE
5
360
100
AcDbEntity
8
0
100
AcDbLine
10
-295.68600244344958
20
-305.16146347233899
30
0
11
-295.68600244344958
21
-309.96246347233892
31
0
0
LINE
5
361
100
AcDbEntity
8
0
100
AcDbLine
10
-285.48700244344951
20
-310.04346347233906
30
0
11
-285.51500244344959
21
-309.990463472339
31
0
0
LINE
5
362
100
AcDbEntity
8
0
100
AcDbLine
10
-285.51500244344959
20
-309.990463472339
30
0
11
-285.56800244344964
21
-309.96246347233892
31
0
0
LINE
5
363
100
AcDbEntity
8
0
100
AcDbLine
10
-285.56800244344964
20
-309.96246347233892
30
0
11
-285.48700244344951
21
-309.96246347233892
31
0
0
LINE
5
364
100
AcDbEntity
8
0
100
AcDbLine
10
-285.48700244344951
20
-309.96246347233892
30
0
11
-285.48700244344951
21
-305.16146347233899
31
0
0
LINE
5
365
100
AcDbEntity
8
0
100
AcDbLine
10
-285.48700244344951
20
-305.16146347233899
30
0
11
-285.56800244344964
21
-305.16146347233899
31
0
0
LINE
5
366
100
AcDbEntity
8
0
100
AcDbLine
10
-285.56800244344964
20
-305.16146347233899
30
0
11
-285.51500244344959
21
-305.13246347233888
31
0
0
LINE
5
367
100
AcDbEntity
8
0
100
AcDbLine
10
-285.51500244344959
20
-305.13246347233888
30
0
11
-285.48700244344951
21
-305.08046347233915
31
0
0
LINE
5
368
100
AcDbEntity
8
0
100
AcDbLine
10
-285.48700244344951
20
-305.08046347233915
30
0
11
-285.48700244344951
21
-305.16146347233899
31
0
0
LINE
5
369
100
AcDbEntity
8
0
100
AcDbLine
10
-285.48700244344951
20
-305.16146347233899
30
0
11
-275.68700244344961
21
-305.16146347233899
31
0
0
LINE
5
370
100
AcDbEntity
8
0
100
AcDbLine
10
-275.68700244344961
20
-305.16146347233899
30
0
11
-275.68700244344961
21
-305.08046347233915
31
0
0
LINE
5
371
100
AcDbEntity
8
0
100
AcDbLine
10
-275.68700244344961
20
-305.08046347233915
30
0
11
-275.65500244344969
21
-305.13246347233888
31
0
0
LINE
5
372
100
AcDbEntity
8
0
100
AcDbLine
10
-275.65500244344969
20
-305.13246347233888
30
0
11
-275.60200244344958
21
-305.16146347233899
31
0
0
LINE
5
373
100
AcDbEntity
8
0
100
AcDbLine
10
-275.60200244344958
20
-305.16146347233899
30
0
11
-275.68700244344961
21
-305.16146347233899
31
0
0
LINE
5
374
100
AcDbEntity
8
0
100
AcDbLine
10
-275.68700244344961
20
-305.16146347233899
30
0
11
-275.68700244344961
21
-309.96246347233892
31
0
0
LINE
5
375
100
AcDbEntity
8
0
100
AcDbLine
10
-275.68700244344961
20
-309.96246347233892
30
0
11
-275.60200244344958
21
-309.96246347233892
31
0
0
LINE
5
376
100
AcDbEntity
8
0
100
AcDbLine
10
-275.60200244344958
20
-309.96246347233892
30
0
11
-275.65500244344969
21
-309.990463472339
31
0
0
LINE
5
377
100
AcDbEntity
8
0
100
AcDbLine
10
-275.65500244344969
20
-309.990463472339
30
0
11
-275.68700244344961
21
-310.04346347233906
31
0
0
LINE
5
378
100
AcDbEntity
8
0
100
AcDbLine
10
-275.68700244344961
20
-310.04346347233906
30
0
11
-275.68700244344961
21
-309.96246347233892
31
0
0
LINE
5
379
100
AcDbEntity
8
0
100
AcDbLine
10
-275.68700244344961
20
-309.96246347233892
30
0
11
-285.48700244344951
21
-309.96246347233892
31
0
0
LINE
5
380
100
AcDbEntity
8
0
100
AcDbLine
10
-285.48700244344951
20
-309.96246347233892
30
0
11
-285.48700244344951
21
-310.04346347233906
31
0
0
LINE
5
381
100
AcDbEntity
8
0
100
AcDbLine
10
-235.6850024434496
20
-309.96246347233892
30
0
11
-235.60400244344962
21
-309.96246347233892
31
0
0
LINE
5
382
100
AcDbEntity
8
0
100
AcDbLine
10
-235.60400244344962
20
-309.96246347233892
30
0
11
-235.65700244344958
21
-309.990463472339
31
0
0
LINE
5
383
100
AcDbEntity
8
0
100
AcDbLine
10
-235.65700244344958
20
-309.990463472339
30
0
11
-235.6850024434496
21
-310.04346347233906
31
0
0
LINE
5
384
100
AcDbEntity
8
0
100
AcDbLine
10
-235.6850024434496
20
-310.04346347233906
30
0
11
-235.6850024434496
21
-309.96246347233892
31
0
0
LINE
5
385
100
AcDbEntity
8
0
100
AcDbLine
10
-235.6850024434496
20
-309.96246347233892
30
0
11
-245.48500244344956
21
-309.96246347233892
31
0
0
LINE
5
386
100
AcDbEntity
8
0
100
AcDbLine
10
-245.48500244344956
20
-309.96246347233892
30
0
11
-245.48500244344956
21
-310.04346347233906
31
0
0
LINE
5
387
100
AcDbEntity
8
0
100
AcDbLine
10
-245.48500244344956
20
-310.04346347233906
30
0
11
-245.51700244344966
21
-309.990463472339
31
0
0
LINE
5
388
100
AcDbEntity
8
0
100
AcDbLine
10
-245.51700244344966
20
-309.990463472339
30
0
11
-245.57000244344962
21
-309.96246347233892
31
0
0
LINE
5
389
100
AcDbEntity
8
0
100
AcDbLine
10
-245.57000244344962
20
-309.96246347233892
30
0
11
-245.48500244344956
21
-309.96246347233892
31
0
0
LINE
5
390
100
AcDbEntity
8
0
100
AcDbLine
10
-245.48500244344956
20
-309.96246347233892
30
0
11
-245.48500244344956
21
-305.16146347233899
31
0
0
LINE
5
391
100
AcDbEntity
8
0
100
AcDbLine
10
-245.48500244344956
20
-305.16146347233899
30
0
11
-245.57000244344962
21
-305.16146347233899
31
0
0
LINE
5
392
100
AcDbEntity
8
0
100
AcDbLine
10
-245.57000244344962
20
-305.16146347233899
30
0
11
-245.51700244344966
21
-305.13246347233888
31
0
0
LINE
5
393
100
AcDbEntity
8
0
100
AcDbLine
10
-245.51700244344966
20
-305.13246347233888
30
0
11
-245.48500244344956
21
-305.08046347233915
31
0
0
LINE
5
394
100
AcDbEntity
8
0
100
AcDbLine
10
-245.48500244344956
20
-305.08046347233915
30
0
11
-245.48500244344956
21
-305.16146347233899
31
0
0
LINE
5
395
100
AcDbEntity
8
0
100
AcDbLine
10
-245.48500244344956
20
-305.16146347233899
30
0
11
-235.6850024434496
21
-305.16146347233899
31
0
0
LINE
5
396
100
AcDbEntity
8
0
100
AcDbLine
10
-235.6850024434496
20
-305.16146347233899
30
0
11
-235.6850024434496
21
-305.08046347233915
31
0
0
LINE
5
397
100
AcDbEntity
8
0
100
AcDbLine
10
-235.6850024434496
20
-305.08046347233915
30
0
11
-235.65700244344958
21
-305.13246347233888
31
0
0
LINE
5
398
100
AcDbEntity
8
0
100
AcDbLine
10
-235.65700244344958
20
-305.13246347233888
30
0
11
-235.60400244344962
21
-305.16146347233899
31
0
0
LINE
5
399
100
AcDbEntity
8
0
100
AcDbLine
10
-235.60400244344962
20
-305.16146347233899
30
0
11
-235.6850024434496
21
-305.16146347233899
31
0
0
LINE
5
400
100
AcDbEntity
8
0
100
AcDbLine
10
-235.6850024434496
20
-305.16146347233899
30
0
11
-235.6850024434496
21
-309.96246347233892
31
0
0
LINE
5
401
100
AcDbEntity
8
0
100
AcDbLine
10
-522.88600244344957
20
-354.96246347233892
30
0
11
-522.88600244344957
21
-355.04746347233919
31
0
0
LINE
5
402
100
AcDbEntity
8
0
100
AcDbLine
10
-522.88600244344957
20
-355.04746347233919
30
0
11
-522.91500244344957
21
-354.99146347233903
31
0
0
LINE
5
403
100
AcDbEntity
8
0
100
AcDbLine
10
-522.91500244344957
20
-354.99146347233903
30
0
11
-522.96800244344956
21
-354.96246347233892
31
0
0
LINE
5
404
100
AcDbEntity
8
0
100
AcDbLine
10
-522.96800244344956
20
-354.96246347233892
30
0
11
-522.88600244344957
21
-354.96246347233892
31
0
0
LINE
5
405
100
AcDbEntity
8
0
100
AcDbLine
10
-522.88600244344957
20
-354.96246347233892
30
0
11
-522.88600244344957
21
-345.16246347233903
31
0
0
LINE
5
406
100
AcDbEntity
8
0
100
AcDbLine
10
-522.88600244344957
20
-345.16246347233903
30
0
11
-522.96800244344956
21
-345.16246347233903
31
0
0
LINE
5
407
100
AcDbEntity
8
0
100
AcDbLine
10
-522.96800244344956
20
-345.16246347233903
30
0
11
-522.91500244344957
21
-345.13446347233895
31
0
0
LINE
5
408
100
AcDbEntity
8
0
100
AcDbLine
10
-522.91500244344957
20
-345.13446347233895
30
0
11
-522.88600244344957
21
-345.0814634723389
31
0
0
LINE
5
409
100
AcDbEntity
8
0
100
AcDbLine
10
-522.88600244344957
20
-345.0814634723389
30
0
11
-522.88600244344957
21
-345.16246347233903
31
0
0
LINE
5
410
100
AcDbEntity
8
0
100
AcDbLine
10
-522.88600244344957
20
-345.16246347233903
30
0
11
-518.08400244344966
21
-345.16246347233903
31
0
0
LINE
5
411
100
AcDbEntity
8
0
100
AcDbLine
10
-518.08400244344966
20
-345.16246347233903
30
0
11
-518.08400244344966
21
-345.0814634723389
31
0
0
LINE
5
412
100
AcDbEntity
8
0
100
AcDbLine
10
-518.08400244344966
20
-345.0814634723389
30
0
11
-518.05600244344964
21
-345.13446347233895
31
0
0
LINE
5
413
100
AcDbEntity
8
0
100
AcDbLine
10
-518.05600244344964
20
-345.13446347233895
30
0
11
-518.00300244344965
21
-345.16246347233903
31
0
0
LINE
5
414
100
AcDbEntity
8
0
100
AcDbLine
10
-518.00300244344965
20
-345.16246347233903
30
0
11
-518.08400244344966
21
-345.16246347233903
31
0
0
LINE
5
415
100
AcDbEntity
8
0
100
AcDbLine
10
-518.08400244344966
20
-345.16246347233903
30
0
11
-518.08400244344966
21
-354.96246347233892
31
0
0
LINE
5
416
100
AcDbEntity
8
0
100
AcDbLine
10
-518.08400244344966
20
-354.96246347233892
30
0
11
-518.00300244344965
21
-354.96246347233892
31
0
0
LINE
5
417
100
AcDbEntity
8
0
100
AcDbLine
10
-518.00300244344965
20
-354.96246347233892
30
0
11
-518.05600244344964
21
-354.99146347233903
31
0
0
LINE
5
418
100
AcDbEntity
8
0
100
AcDbLine
10
-518.05600244344964
20
-354.99146347233903
30
0
11
-518.08400244344966
21
-355.04746347233919
31
0
0
LINE
5
419
100
AcDbEntity
8
0
100
AcDbLine
10
-518.08400244344966
20
-355.04746347233919
30
0
11
-518.08400244344966
21
-354.96246347233892
31
0
0
LINE
5
420
100
AcDbEntity
8
0
100
AcDbLine
10
-518.08400244344966
20
-354.96246347233892
30
0
11
-522.88600244344957
21
-354.96246347233892
31
0
0
LINE
5
421
100
AcDbEntity
8
0
100
AcDbLine
10
-518.08400244344966
20
-325.16346347233906
30
0
11
-518.08400244344966
21
-325.08246347233893
31
0
0
LINE
5
422
100
AcDbEntity
8
0
100
AcDbLine
10
-518.08400244344966
20
-325.08246347233893
30
0
11
-518.05600244344964
21
-325.13146347233914
31
0
0
LINE
5
423
100
AcDbEntity
8
0
100
AcDbLine
10
-518.05600244344964
20
-325.13146347233914
30
0
11
-518.00300244344965
21
-325.16346347233906
31
0
0
LINE
5
424
100
AcDbEntity
8
0
100
AcDbLine
10
-518.00300244344965
20
-325.16346347233906
30
0
11
-518.08400244344966
21
-325.16346347233906
31
0
0
LINE
5
425
100
AcDbEntity
8
0
100
AcDbLine
10
-518.08400244344966
20
-325.16346347233906
30
0
11
-518.08400244344966
21
-334.96346347233924
31
0
0
LINE
5
426
100
AcDbEntity
8
0
100
AcDbLine
10
-518.08400244344966
20
-334.96346347233924
30
0
11
-518.00300244344965
21
-334.96346347233924
31
0
0
LINE
5
427
100
AcDbEntity
8
0
100
AcDbLine
10
-518.00300244344965
20
-334.96346347233924
30
0
11
-518.05600244344964
21
-334.99246347233907
31
0
0
LINE
5
428
100
AcDbEntity
8
0
100
AcDbLine
10
-518.05600244344964
20
-334.99246347233907
30
0
11
-518.08400244344966
21
-335.04546347233912
31
0
0
LINE
5
429
100
AcDbEntity
8
0
100
AcDbLine
10
-518.08400244344966
20
-335.04546347233912
30
0
11
-518.08400244344966
21
-334.96346347233924
31
0
0
LINE
5
430
100
AcDbEntity
8
0
100
AcDbLine
10
-518.08400244344966
20
-334.96346347233924
30
0
11
-522.88600244344957
21
-334.96346347233924
31
0
0
LINE
5
431
100
AcDbEntity
8
0
100
AcDbLine
10
-522.88600244344957
20
-334.96346347233924
30
0
11
-522.88600244344957
21
-335.04546347233912
31
0
0
LINE
5
432
100
AcDbEntity
8
0
100
AcDbLine
10
-522.88600244344957
20
-335.04546347233912
30
0
11
-522.91500244344957
21
-334.99246347233907
31
0
0
LINE
5
433
100
AcDbEntity
8
0
100
AcDbLine
10
-522.91500244344957
20
-334.99246347233907
30
0
11
-522.96800244344956
21
-334.96346347233924
31
0
0
LINE
5
434
100
AcDbEntity
8
0
100
AcDbLine
10
-522.96800244344956
20
-334.96346347233924
30
0
11
-522.88600244344957
21
-334.96346347233924
31
0
0
LINE
5
435
100
AcDbEntity
8
0
100
AcDbLine
10
-522.88600244344957
20
-334.96346347233924
30
0
11
-522.88600244344957
21
-325.16346347233906
31
0
0
LINE
5
436
100
AcDbEntity
8
0
100
AcDbLine
10
-522.88600244344957
20
-325.16346347233906
30
0
11
-522.96800244344956
21
-325.16346347233906
31
0
0
LINE
5
437
100
AcDbEntity
8
0
100
AcDbLine
10
-522.96800244344956
20
-325.16346347233906
30
0
11
-522.91500244344957
21
-325.13146347233914
31
0
0
LINE
5
438
100
AcDbEntity
8
0
100
AcDbLine
10
-522.91500244344957
20
-325.13146347233914
30
0
11
-522.88600244344957
21
-325.08246347233893
31
0
0
LINE
5
439
100
AcDbEntity
8
0
100
AcDbLine
10
-522.88600244344957
20
-325.08246347233893
30
0
11
-522.88600244344957
21
-325.16346347233906
31
0
0
LINE
5
440
100
AcDbEntity
8
0
100
AcDbLine
10
-522.88600244344957
20
-325.16346347233906
30
0
11
-518.08400244344966
21
-325.16346347233906
31
0
0
LINE
5
441
100
AcDbEntity
8
0
100
AcDbLine
10
-495.68400244344957
20
-305.16146347233899
30
0
11
-495.68400244344957
21
-305.08046347233915
31
0
0
LINE
5
442
100
AcDbEntity
8
0
100
AcDbLine
10
-495.68400244344957
20
-305.08046347233915
30
0
11
-495.65600244344955
21
-305.13246347233888
31
0
0
LINE
5
443
100
AcDbEntity
8
0
100
AcDbLine
10
-495.65600244344955
20
-305.13246347233888
30
0
11
-495.60300244344967
21
-305.16146347233899
31
0
0
LINE
5
444
100
AcDbEntity
8
0
100
AcDbLine
10
-495.60300244344967
20
-305.16146347233899
30
0
11
-495.68400244344957
21
-305.16146347233899
31
0
0
LINE
5
445
100
AcDbEntity
8
0
100
AcDbLine
10
-495.68400244344957
20
-305.16146347233899
30
0
11
-495.68400244344957
21
-309.96246347233892
31
0
0
LINE
5
446
100
AcDbEntity
8
0
100
AcDbLine
10
-495.68400244344957
20
-309.96246347233892
30
0
11
-495.60300244344967
21
-309.96246347233892
31
0
0
LINE
5
447
100
AcDbEntity
8
0
100
AcDbLine
10
-495.60300244344967
20
-309.96246347233892
30
0
11
-495.65600244344955
21
-309.990463472339
31
0
0
LINE
5
448
100
AcDbEntity
8
0
100
AcDbLine
10
-495.65600244344955
20
-309.990463472339
30
0
11
-495.68400244344957
21
-310.04346347233906
31
0
0
LINE
5
449
100
AcDbEntity
8
0
100
AcDbLine
10
-495.68400244344957
20
-310.04346347233906
30
0
11
-495.68400244344957
21
-309.96246347233892
31
0
0
LINE
5
450
100
AcDbEntity
8
0
100
AcDbLine
10
-495.68400244344957
20
-309.96246347233892
30
0
11
-505.48500244344956
21
-309.96246347233892
31
0
0
LINE
5
451
100
AcDbEntity
8
0
100
AcDbLine
10
-505.48500244344956
20
-309.96246347233892
30
0
11
-505.48500244344956
21
-310.04346347233906
31
0
0
LINE
5
452
100
AcDbEntity
8
0
100
AcDbLine
10
-505.48500244344956
20
-310.04346347233906
30
0
11
-505.51400244344961
21
-309.990463472339
31
0
0
LINE
5
453
100
AcDbEntity
8
0
100
AcDbLine
10
-505.51400244344961
20
-309.990463472339
30
0
11
-505.56800244344964
21
-309.96246347233892
31
0
0
LINE
5
454
100
AcDbEntity
8
0
100
AcDbLine
10
-505.56800244344964
20
-309.96246347233892
30
0
11
-505.48500244344956
21
-309.96246347233892
31
0
0
LINE
5
455
100
AcDbEntity
8
0
100
AcDbLine
10
-505.48500244344956
20
-309.96246347233892
30
0
11
-505.48500244344956
21
-305.16146347233899
31
0
0
LINE
5
456
100
AcDbEntity
8
0
100
AcDbLine
10
-505.48500244344956
20
-305.16146347233899
30
0
11
-505.56800244344964
21
-305.16146347233899
31
0
0
LINE
5
457
100
AcDbEntity
8
0
100
AcDbLine
10
-505.56800244344964
20
-305.16146347233899
30
0
11
-505.51400244344961
21
-305.13246347233888
31
0
0
LINE
5
458
100
AcDbEntity
8
0
100
AcDbLine
10
-505.51400244344961
20
-305.13246347233888
30
0
11
-505.48500244344956
21
-305.08046347233915
31
0
0
LINE
5
459
100
AcDbEntity
8
0
100
AcDbLine
10
-505.48500244344956
20
-305.08046347233915
30
0
11
-505.48500244344956
21
-305.16146347233899
31
0
0
LINE
5
460
100
AcDbEntity
8
0
100
AcDbLine
10
-505.48500244344956
20
-305.16146347233899
30
0
11
-495.68400244344957
21
-305.16146347233899
31
0
0
ENDSEC
0
SECTION
2
OBJECTS
0
DICTIONARY
5
C
100
AcDbDictionary
3
ACAD_GROUP
350
D
3
ACAD_MLINESTYLE
350
17
0
DICTIONARY
5
D
100
AcDbDictionary
0
DICTIONARY
5
1A
330
C
100
AcDbDictionary
0
DICTIONARY
5
17
100
AcDbDictionary
0
ENDSEC
0
EOF
