0
SECTION
2
HEADER
9
$INSUNITS
70
4
9
$ACADVER
1
AC1014
9
$HANDSEED
5
FFFF
0
ENDSEC
0
SECTION
2
TABLES
0
TABLE
2
VPORT
5
8
100
AcDbSymbolTable
0
ENDTAB
0
TABLE
2
LTYPE
5
5
100
AcDbSymbolTable
0
LTYPE
5
14
100
AcDbSymbolTableRecord
100
AcDbLinetypeTableRecord
2
BYBLOCK
70
0
0
LTYPE
5
15
100
AcDbSymbolTableRecord
100
AcDbLinetypeTableRecord
2
BYLAYER
70
0
0
ENDTAB
0
TABLE
2
LAYER
5
2
100
AcDbSymbolTable
70
2
0
LAYER
5
50
100
AcDbSymbolTableRecord
100
AcDbLayerTableRecord
2
0
70
0
6
CONTINUOUS
0
ENDTAB
0
TABLE
2
STYLE
5
3
100
AcDbSymbolTable
70
1
0
STYLE
5
11
100
AcDbSymbolTableRecord
100
AcDbTextStyleTableRecord
2
STANDARD
70
0
0
ENDTAB
0
TABLE
2
VIEW
5
6
100
AcDbSymbolTable
70
0
0
ENDTAB
0
TABLE
2
UCS
5
7
100
AcDbSymbolTable
70
0
0
ENDTAB
0
TABLE
2
APPID
5
9
100
AcDbSymbolTable
70
2
0
APPID
5
12
100
AcDbSymbolTableRecord
100
AcDbRegAppTableRecord
2
ACAD
70
0
0
ENDTAB
0
TABLE
2
DIMSTYLE
5
A
100
AcDbSymbolTable
70
1
0
ENDTAB
0
TABLE
2
BLOCK_RECORD
5
1
100
AcDbSymbolTable
70
1
0
BLOCK_RECORD
5
1F
100
AcDbSymbolTableRecord
100
AcDbBlockTableRecord
2
*MODEL_SPACE
0
BLOCK_RECORD
5
1B
100
AcDbSymbolTableRecord
100
AcDbBlockTableRecord
2
*PAPER_SPACE
0
ENDTAB
0
ENDSEC
0
SECTION
2
BLOCKS
0
BLOCK
5
20
100
AcDbEntity
100
AcDbBlockBegin
2
*MODEL_SPACE
0
ENDBLK
5
21
100
AcDbEntity
100
AcDbBlockEnd
0
BLOCK
5
1C
100
AcDbEntity
100
AcDbBlockBegin
2
*PAPER_SPACE
0
ENDBLK
5
1D
100
AcDbEntity
100
AcDbBlockEnd
0
ENDSEC
0
SECTION
2
ENTITIES
0
LINE
5
100
100
AcDbEntity
8
0
100
AcDbLine
10
-518.05030244344971
20
43.830000000000126
30
0
11
-522.96850244344967
21
43.830000000000126
31
0
0
LINE
5
101
100
AcDbEntity
8
0
100
AcDbLine
10
-522.96850244344967
20
43.830000000000126
30
0
11
-523.02080244344961
21
43.80110000000019
31
0
0
LINE
5
102
100
AcDbEntity
8
0
100
AcDbLine
10
-523.02080244344961
20
43.80110000000019
30
0
11
-523.04980244344972
21
43.74750000000023
31
0
0
LINE
5
103
100
AcDbEntity
8
0
100
AcDbLine
10
-523.04980244344972
20
43.74750000000023
30
0
11
-523.04980244344972
21
33.713800000000191
31
1.1093356479670479e-30
0
LINE
5
104
100
AcDbEntity
8
0
100
AcDbLine
10
-523.04980244344972
20
33.713800000000191
30
1.1093356479670479e-30
11
-523.02080244344961
21
33.660100000000199
31
0
0
LINE
5
105
100
AcDbEntity
8
0
100
AcDbLine
10
-523.02080244344961
20
33.660100000000199
30
0
11
-522.96850244344967
21
33.629800000000245
31
0
0
LINE
5
106
100
AcDbEntity
8
0
100
AcDbLine
10
-522.96850244344967
20
33.629800000000245
30
0
11
-518.05030244344971
21
33.629800000000245
31
0
0
LINE
5
107
100
AcDbEntity
8
0
100
AcDbLine
10
-518.05030244344971
20
33.629800000000245
30
0
11
-518.05030244344971
21
23.83070000000021
31
-9.8607613152626476e-31
0
LINE
5
108
100
AcDbEntity
8
0
100
AcDbLine
10
-518.05030244344971
20
23.83070000000021
30
-9.8607613152626476e-31
11
-517.96760244344966
21
23.83070000000021
31
0
0
LINE
5
109
100
AcDbEntity
8
0
100
AcDbLine
10
-517.96760244344966
20
23.83070000000021
30
0
11
-518.02130244344971
21
23.801400000000147
31
0
0
LINE
5
110
100
AcDbEntity
8
0
100
AcDbLine
10
-518.02130244344971
20
23.801400000000147
30
0
11
-518.05030244344971
21
23.747800000000186
31
0
0
LINE
5
111
100
AcDbEntity
8
0
100
AcDbLine
10
-518.05030244344971
20
23.747800000000186
30
0
11
-518.05030244344971
21
23.83070000000021
31
-9.8607613152626476e-31
0
LINE
5
112
100
AcDbEntity
8
0
100
AcDbLine
10
-518.05030244344971
20
23.83070000000021
30
-9.8607613152626476e-31
11
-522.96850244344967
21
23.83070000000021
31
0
0
LINE
5
113
100
AcDbEntity
8
0
100
AcDbLine
10
-522.96850244344967
20
23.83070000000021
30
0
11
-523.02080244344961
21
23.801400000000147
31
0
0
LINE
5
114
100
AcDbEntity
8
0
100
AcDbLine
10
-523.02080244344961
20
23.801400000000147
30
0
11
-523.04980244344972
21
23.747800000000186
31
0
0
LINE
5
115
100
AcDbEntity
8
0
100
AcDbLine
10
-523.04980244344972
20
23.747800000000186
30
0
11
-523.04980244344972
21
5.1140000000001207
31
0
0
LINE
5
116
100
AcDbEntity
8
0
100
AcDbLine
10
-523.04980244344972
20
5.1140000000001207
30
0
11
-523.05020244344962
21
5.1140000000001198
31
0
0
LINE
5
117
100
AcDbEntity
8
0
100
AcDbLine
10
-523.05020244344962
20
5.1140000000001198
30
0
11
-523.05020244344962
21
5.0299000000001417
31
0
0
LINE
5
118
100
AcDbEntity
8
0
100
AcDbLine
10
-523.05020244344962
20
5.0299000000001417
30
0
11
-505.65070244344963
21
5.0299000000001417
31
0
0
LINE
5
119
100
AcDbEntity
8
0
100
AcDbLine
10
-505.65070244344963
20
5.0299000000001417
30
0
11
-505.65070244344963
21
0.11310000000026021
31
0
0
LINE
5
120
100
AcDbEntity
8
0
100
AcDbLine
10
-505.65070244344963
20
0.11310000000026021
30
0
11
-505.62170244344969
21
0.059400000000126435
31
0
0
LINE
5
121
100
AcDbEntity
8
0
100
AcDbLine
10
-505.62170244344969
20
0.059400000000126435
30
0
11
-505.56800244344964
21
0.030400000000158488
31
0
0
LINE
5
122
100
AcDbEntity
8
0
100
AcDbLine
10
-505.56800244344964
20
0.030400000000158488
30
0
11
-495.53300244344967
21
0.030400000000158491
31
0
0
LINE
5
123
100
AcDbEntity
8
0
100
AcDbLine
10
-495.53300244344967
20
0.030400000000158491
30
0
11
-495.47940244344966
21
0.059400000000126435
31
0
0
LINE
5
124
100
AcDbEntity
8
0
100
AcDbLine
10
-495.47940244344966
20
0.059400000000126435
30
0
11
-495.45040244344966
21
0.11310000000026063
31
0
0
LINE
5
125
100
AcDbEntity
8
0
100
AcDbLine
10
-495.45040244344966
20
0.11310000000026063
30
0
11
-495.45040244344966
21
5.0299000000001417
31
0
0
LINE
5
126
100
AcDbEntity
8
0
100
AcDbLine
10
-495.45040244344966
20
5.0299000000001417
30
0
11
-485.64990244344972
21
5.0299000000001417
31
0
0
LINE
5
127
100
AcDbEntity
8
0
100
AcDbLine
10
-485.64990244344972
20
5.0299000000001417
30
0
11
-485.64990244344972
21
0.11310000000026021
31
0
0
LINE
5
128
100
AcDbEntity
8
0
100
AcDbLine
10
-485.64990244344972
20
0.11310000000026021
30
0
11
-485.6210024434497
21
0.059400000000126435
31
0
0
LINE
5
129
100
AcDbEntity
8
0
100
AcDbLine
10
-485.6210024434497
20
0.059400000000126435
30
0
11
-485.56840244344971
21
0.030400000000158488
31
0
0
LINE
5
130
100
AcDbEntity
8
0
100
AcDbLine
10
-485.56840244344971
20
0.030400000000158488
30
0
11
-475.53370244344967
21
0.030400000000158491
31
0
0
LINE
5
131
100
AcDbEntity
8
0
100
AcDbLine
10
-475.53370244344967
20
0.030400000000158491
30
0
11
-475.48000244344968
21
0.059400000000126435
31
0
0
LINE
5
132
100
AcDbEntity
8
0
100
AcDbLine
10
-475.48000244344968
20
0.059400000000126435
30
0
11
-475.44970244344967
21
0.11310000000026063
31
0
0
LINE
5
133
100
AcDbEntity
8
0
100
AcDbLine
10
-475.44970244344967
20
0.11310000000026063
30
0
11
-475.44970244344967
21
5.0299000000001417
31
0
0
LINE
5
134
100
AcDbEntity
8
0
100
AcDbLine
10
-475.44970244344967
20
5.0299000000001417
30
0
11
-465.65020244344964
21
5.0299000000001417
31
0
0
LINE
5
135
100
AcDbEntity
8
0
100
AcDbLine
10
-465.65020244344964
20
5.0299000000001417
30
0
11
-465.65020244344964
21
0.11310000000026021
31
0
0
LINE
5
136
100
AcDbEntity
8
0
100
AcDbLine
10
-465.65020244344964
20
0.11310000000026021
30
0
11
-465.62130244344962
21
0.059400000000126435
31
0
0
LINE
5
137
100
AcDbEntity
8
0
100
AcDbLine
10
-465.62130244344962
20
0.059400000000126435
30
0
11
-465.56770244344966
21
0.030400000000158488
31
0
0
LINE
5
138
100
AcDbEntity
8
0
100
AcDbLine
10
-465.56770244344966
20
0.030400000000158488
30
0
11
-455.53430244344963
21
0.030400000000158491
31
0
0
LINE
5
139
100
AcDbEntity
8
0
100
AcDbLine
10
-455.53430244344963
20
0.030400000000158491
30
0
11
-455.48040244344969
21
0.059400000000126435
31
0
0
LINE
5
140
100
AcDbEntity
8
0
100
AcDbLine
10
-455.48040244344969
20
0.059400000000126435
30
0
11
-455.4500024434497
21
0.11310000000026063
31
0
0
LINE
5
141
100
AcDbEntity
8
0
100
AcDbLine
10
-455.4500024434497
20
0.11310000000026063
30
0
11
-455.4500024434497
21
5.0299000000001417
31
0
0
LINE
5
142
100
AcDbEntity
8
0
100
AcDbLine
10
-455.4500024434497
20
5.0299000000001417
30
0
11
-445.65090244344964
21
5.0299000000001417
31
0
0
LINE
5
143
100
AcDbEntity
8
0
100
AcDbLine
10
-445.65090244344964
20
5.0299000000001417
30
0
11
-445.65090244344964
21
0.11310000000026021
31
0
0
LINE
5
144
100
AcDbEntity
8
0
100
AcDbLine
10
-445.65090244344964
20
0.11310000000026021
30
0
11
-445.62200244344967
21
0.059400000000126435
31
0
0
LINE
5
145
100
AcDbEntity
8
0
100
AcDbLine
10
-445.62200244344967
20
0.059400000000126435
30
0
11
-445.5684024434496
21
0.030400000000158488
31
0
0
LINE
5
146
100
AcDbEntity
8
0
100
AcDbLine
10
-445.5684024434496
20
0.030400000000158488
30
0
11
-435.53330244344966
21
0.030400000000158491
31
0
0
LINE
5
147
100
AcDbEntity
8
0
100
AcDbLine
10
-435.53330244344966
20
0.030400000000158491
30
0
11
-435.47960244344961
21
0.059400000000126435
31
0
0
LINE
5
148
100
AcDbEntity
8
0
100
AcDbLine
10
-435.47960244344961
20
0.059400000000126435
30
0
11
-435.45070244344964
21
0.11310000000026063
31
0
0
LINE
5
149
100
AcDbEntity
8
0
100
AcDbLine
10
-435.45070244344964
20
0.11310000000026063
30
0
11
-435.45070244344964
21
5.0299000000001417
31
0
0
LINE
5
150
100
AcDbEntity
8
0
100
AcDbLine
10
-435.45070244344964
20
5.0299000000001417
30
0
11
-425.65020244344964
21
5.0299000000001417
31
0
0
LINE
5
151
100
AcDbEntity
8
0
100
AcDbLine
10
-425.65020244344964
20
5.0299000000001417
30
0
11
-425.65020244344964
21
0.11310000000026021
31
0
0
LINE
5
152
100
AcDbEntity
8
0
100
AcDbLine
10
-425.65020244344964
20
0.11310000000026021
30
0
11
-425.62120244344965
21
0.059400000000126435
31
0
0
LINE
5
153
100
AcDbEntity
8
0
100
AcDbLine
10
-425.62120244344965
20
0.059400000000126435
30
0
11
-425.56820244344965
21
0.030400000000158488
31
0
0
LINE
5
154
100
AcDbEntity
8
0
100
AcDbLine
10
-425.56820244344965
20
0.030400000000158488
30
0
11
-415.53420244344966
21
0.030400000000158491
31
0
0
LINE
5
155
100
AcDbEntity
8
0
100
AcDbLine
10
-415.53420244344966
20
0.030400000000158491
30
0
11
-415.48020244344968
21
0.059400000000126435
31
0
0
LINE
5
156
100
AcDbEntity
8
0
100
AcDbLine
10
-415.48020244344968
20
0.059400000000126435
30
0
11
-415.45020244344971
21
0.11310000000026063
31
0
0
LINE
5
157
100
AcDbEntity
8
0
100
AcDbLine
10
-415.45020244344971
20
0.11310000000026063
30
0
11
-415.45020244344971
21
5.0299000000001417
31
0
0
LINE
5
158
100
AcDbEntity
8
0
100
AcDbLine
10
-415.45020244344971
20
5.0299000000001417
30
0
11
-405.65020244344964
21
5.0299000000001417
31
0
0
LINE
5
159
100
AcDbEntity
8
0
100
AcDbLine
10
-405.65020244344964
20
5.0299000000001417
30
0
11
-405.65020244344964
21
0.11310000000026021
31
0
0
LINE
5
160
100
AcDbEntity
8
0
100
AcDbLine
10
-405.65020244344964
20
0.11310000000026021
30
0
11
-405.62120244344965
21
0.059400000000126435
31
0
0
LINE
5
161
100
AcDbEntity
8
0
100
AcDbLine
10
-405.62120244344965
20
0.059400000000126435
30
0
11
-405.56820244344965
21
0.030400000000158488
31
0
0
LINE
5
162
100
AcDbEntity
8
0
100
AcDbLine
10
-405.56820244344965
20
0.030400000000158488
30
0
11
-395.53320244344968
21
0.030400000000158491
31
0
0
LINE
5
163
100
AcDbEntity
8
0
100
AcDbLine
10
-395.53320244344968
20
0.030400000000158491
30
0
11
-395.47920244344965
21
0.059400000000126435
31
0
0
LINE
5
164
100
AcDbEntity
8
0
100
AcDbLine
10
-395.47920244344965
20
0.059400000000126435
30
0
11
-395.45020244344971
21
0.11310000000026063
31
0
0
LINE
5
165
100
AcDbEntity
8
0
100
AcDbLine
10
-395.45020244344971
20
0.11310000000026063
30
0
11
-395.45020244344971
21
5.0299000000001417
31
0
0
LINE
5
166
100
AcDbEntity
8
0
100
AcDbLine
10
-395.45020244344971
20
5.0299000000001417
30
0
11
-385.65020244344964
21
5.0299000000001417
31
0
0
LINE
5
167
100
AcDbEntity
8
0
100
AcDbLine
10
-385.65020244344964
20
5.0299000000001417
30
0
11
-385.65020244344964
21
0.11310000000026021
31
0
0
LINE
5
168
100
AcDbEntity
8
0
100
AcDbLine
10
-385.65020244344964
20
0.11310000000026021
30
0
11
-385.62120244344965
21
0.059400000000126435
31
0
0
LINE
5
169
100
AcDbEntity
8
0
100
AcDbLine
10
-385.62120244344965
20
0.059400000000126435
30
0
11
-385.56820244344971
21
0.030400000000158488
31
0
0
LINE
5
170
100
AcDbEntity
8
0
100
AcDbLine
10
-385.56820244344971
20
0.030400000000158488
30
0
11
-375.53320244344968
21
0.030400000000158491
31
0
0
LINE
5
171
100
AcDbEntity
8
0
100
AcDbLine
10
-375.53320244344968
20
0.030400000000158491
30
0
11
-375.48020244344968
21
0.059400000000126435
31
0
0
LINE
5
172
100
AcDbEntity
8
0
100
AcDbLine
10
-375.48020244344968
20
0.059400000000126435
30
0
11
-375.45120244344963
21
0.11310000000026063
31
0
0
LINE
5
173
100
AcDbEntity
8
0
100
AcDbLine
10
-375.45120244344963
20
0.11310000000026063
30
0
11
-375.45120244344963
21
5.0299000000001417
31
0
0
LINE
5
174
100
AcDbEntity
8
0
100
AcDbLine
10
-375.45120244344963
20
5.0299000000001417
30
0
11
-365.65020244344964
21
5.0299000000001417
31
0
0
LINE
5
175
100
AcDbEntity
8
0
100
AcDbLine
10
-365.65020244344964
20
5.0299000000001417
30
0
11
-365.65020244344964
21
0.11310000000026021
31
0
0
LINE
5
176
100
AcDbEntity
8
0
100
AcDbLine
10
-365.65020244344964
20
0.11310000000026021
30
0
11
-365.62120244344959
21
0.059400000000126435
31
0
0
LINE
5
177
100
AcDbEntity
8
0
100
AcDbLine
10
-365.62120244344959
20
0.059400000000126435
30
0
11
-365.56720244344967
21
0.030400000000158488
31
0
0
LINE
5
178
100
AcDbEntity
8
0
100
AcDbLine
10
-365.56720244344967
20
0.030400000000158488
30
0
11
-355.53420244344971
21
0.030400000000158491
31
0
0
LINE
5
179
100
AcDbEntity
8
0
100
AcDbLine
10
-355.53420244344971
20
0.030400000000158491
30
0
11
-355.48020244344963
21
0.059400000000126435
31
0
0
LINE
5
180
100
AcDbEntity
8
0
100
AcDbLine
10
-355.48020244344963
20
0.059400000000126435
30
0
11
-355.4502024434496
21
0.11310000000026063
31
0
0
LINE
5
181
100
AcDbEntity
8
0
100
AcDbLine
10
-355.4502024434496
20
0.11310000000026063
30
0
11
-355.4502024434496
21
5.0299000000001417
31
0
0
LINE
5
182
100
AcDbEntity
8
0
100
AcDbLine
10
-355.4502024434496
20
5.0299000000001417
30
0
11
-345.64920244344967
21
5.0299000000001417
31
0
0
LINE
5
183
100
AcDbEntity
8
0
100
AcDbLine
10
-345.64920244344967
20
5.0299000000001417
30
0
11
-345.64920244344967
21
0.11310000000026021
31
0
0
LINE
5
184
100
AcDbEntity
8
0
100
AcDbLine
10
-345.64920244344967
20
0.11310000000026021
30
0
11
-345.62020244344967
21
0.059400000000126435
31
0
0
LINE
5
185
100
AcDbEntity
8
0
100
AcDbLine
10
-345.62020244344967
20
0.059400000000126435
30
0
11
-345.56820244344971
21
0.030400000000158488
31
0
0
LINE
5
186
100
AcDbEntity
8
0
100
AcDbLine
10
-345.56820244344971
20
0.030400000000158488
30
0
11
-335.53320244344968
21
0.030400000000158491
31
0
0
LINE
5
187
100
AcDbEntity
8
0
100
AcDbLine
10
-335.53320244344968
20
0.030400000000158491
30
0
11
-335.47920244344965
21
0.059400000000126435
31
0
0
LINE
5
188
100
AcDbEntity
8
0
100
AcDbLine
10
-335.47920244344965
20
0.059400000000126435
30
0
11
-335.4502024434496
21
0.11310000000026063
31
0
0
LINE
5
189
100
AcDbEntity
8
0
100
AcDbLine
10
-335.4502024434496
20
0.11310000000026063
30
0
11
-335.4502024434496
21
5.0299000000001417
31
0
0
LINE
5
190
100
AcDbEntity
8
0
100
AcDbLine
10
-335.4502024434496
20
5.0299000000001417
30
0
11
-325.65020244344964
21
5.0299000000001417
31
0
0
LINE
5
191
100
AcDbEntity
8
0
100
AcDbLine
10
-325.65020244344964
20
5.0299000000001417
30
0
11
-325.65020244344964
21
0.11310000000026021
31
0
0
LINE
5
192
100
AcDbEntity
8
0
100
AcDbLine
10
-325.65020244344964
20
0.11310000000026021
30
0
11
-325.62120244344959
21
0.059400000000126435
31
0
0
LINE
5
193
100
AcDbEntity
8
0
100
AcDbLine
10
-325.62120244344959
20
0.059400000000126435
30
0
11
-325.56820244344971
21
0.030400000000158488
31
0
0
LINE
5
194
100
AcDbEntity
8
0
100
AcDbLine
10
-325.56820244344971
20
0.030400000000158488
30
0
11
-315.53420244344966
21
0.030400000000158491
31
0
0
LINE
5
195
100
AcDbEntity
8
0
100
AcDbLine
10
-315.53420244344966
20
0.030400000000158491
30
0
11
-315.48020244344963
21
0.059400000000126435
31
0
0
LINE
5
196
100
AcDbEntity
8
0
100
AcDbLine
10
-315.48020244344963
20
0.059400000000126435
30
0
11
-315.45020244344965
21
0.11310000000026063
31
0
0
LINE
5
197
100
AcDbEntity
8
0
100
AcDbLine
10
-315.45020244344965
20
0.11310000000026063
30
0
11
-315.45020244344965
21
5.0299000000001417
31
0
0
LINE
5
198
100
AcDbEntity
8
0
100
AcDbLine
10
-315.45020244344965
20
5.0299000000001417
30
0
11
-305.65020244344964
21
5.0299000000001417
31
0
0
LINE
5
199
100
AcDbEntity
8
0
100
AcDbLine
10
-305.65020244344964
20
5.0299000000001417
30
0
11
-305.65020244344964
21
0.11310000000026021
31
0
0
LINE
5
200
100
AcDbEntity
8
0
100
AcDbLine
10
-305.65020244344964
20
0.11310000000026021
30
0
11
-305.62120244344965
21
0.059400000000126435
31
0
0
LINE
5
201
100
AcDbEntity
8
0
100
AcDbLine
10
-305.62120244344965
20
0.059400000000126435
30
0
11
-305.56820244344965
21
0.030400000000158488
31
0
0
LINE
5
202
100
AcDbEntity
8
0
100
AcDbLine
10
-305.56820244344965
20
0.030400000000158488
30
0
11
-295.53420244344966
21
0.030400000000158491
31
0
0
LINE
5
203
100
AcDbEntity
8
0
100
AcDbLine
10
-295.53420244344966
20
0.030400000000158491
30
0
11
-295.48020244344963
21
0.059400000000126435
31
0
0
LINE
5
204
100
AcDbEntity
8
0
100
AcDbLine
10
-295.48020244344963
20
0.059400000000126435
30
0
11
-295.45020244344965
21
0.11310000000026063
31
0
0
LINE
5
205
100
AcDbEntity
8
0
100
AcDbLine
10
-295.45020244344965
20
0.11310000000026063
30
0
11
-295.45020244344965
21
5.0299000000001417
31
0
0
LINE
5
206
100
AcDbEntity
8
0
100
AcDbLine
10
-295.45020244344965
20
5.0299000000001417
30
0
11
-285.64920244344967
21
5.0299000000001417
31
0
0
LINE
5
207
100
AcDbEntity
8
0
100
AcDbLine
10
-285.64920244344967
20
5.0299000000001417
30
0
11
-285.64920244344967
21
0.11310000000026021
31
0
0
LINE
5
208
100
AcDbEntity
8
0
100
AcDbLine
10
-285.64920244344967
20
0.11310000000026021
30
0
11
-285.62020244344967
21
0.059400000000126435
31
0
0
LINE
5
209
100
AcDbEntity
8
0
100
AcDbLine
10
-285.62020244344967
20
0.059400000000126435
30
0
11
-285.56820244344965
21
0.030400000000158488
31
0
0
LINE
5
210
100
AcDbEntity
8
0
100
AcDbLine
10
-285.56820244344965
20
0.030400000000158488
30
0
11
-275.53320244344968
21
0.030400000000158491
31
0
0
LINE
5
211
100
AcDbEntity
8
0
100
AcDbLine
10
-275.53320244344968
20
0.030400000000158491
30
0
11
-275.48020244344963
21
0.059400000000126435
31
0
0
LINE
5
212
100
AcDbEntity
8
0
100
AcDbLine
10
-275.48020244344963
20
0.059400000000126435
30
0
11
-275.45120244344963
21
0.11310000000026063
31
0
0
LINE
5
213
100
AcDbEntity
8
0
100
AcDbLine
10
-275.45120244344963
20
0.11310000000026063
30
0
11
-275.45120244344963
21
5.0299000000001417
31
0
0
LINE
5
214
100
AcDbEntity
8
0
100
AcDbLine
10
-275.45120244344963
20
5.0299000000001417
30
0
11
-265.6502024434497
21
5.0299000000001417
31
0
0
LINE
5
215
100
AcDbEntity
8
0
100
AcDbLine
10
-265.6502024434497
20
5.0299000000001417
30
0
11
-265.6502024434497
21
0.11310000000026021
31
0
0
LINE
5
216
100
AcDbEntity
8
0
100
AcDbLine
10
-265.6502024434497
20
0.11310000000026021
30
0
11
-265.62120244344959
21
0.059400000000126435
31
0
0
LINE
5
217
100
AcDbEntity
8
0
100
AcDbLine
10
-265.62120244344959
20
0.059400000000126435
30
0
11
-265.56720244344967
21
0.030400000000158488
31
0
0
LINE
5
218
100
AcDbEntity
8
0
100
AcDbLine
10
-265.56720244344967
20
0.030400000000158488
30
0
11
-255.53420244344971
21
0.030400000000158491
31
0
0
LINE
5
219
100
AcDbEntity
8
0
100
AcDbLine
10
-255.53420244344971
20
0.030400000000158491
30
0
11
-255.48020244344966
21
0.059400000000126435
31
0
0
LINE
5
220
100
AcDbEntity
8
0
100
AcDbLine
10
-255.48020244344966
20
0.059400000000126435
30
0
11
-255.4502024434496
21
0.11310000000026063
31
0
0
LINE
5
221
100
AcDbEntity
8
0
100
AcDbLine
10
-255.4502024434496
20
0.11310000000026063
30
0
11
-255.4502024434496
21
5.0299000000001417
31
0
0
LINE
5
222
100
AcDbEntity
8
0
100
AcDbLine
10
-255.4502024434496
20
5.0299000000001417
30
0
11
-245.65020244344967
21
5.0299000000001417
31
0
0
LINE
5
223
100
AcDbEntity
8
0
100
AcDbLine
10
-245.65020244344967
20
5.0299000000001417
30
0
11
-245.65020244344967
21
0.11310000000026021
31
0
0
LINE
5
224
100
AcDbEntity
8
0
100
AcDbLine
10
-245.65020244344967
20
0.11310000000026021
30
0
11
-245.62120244344959
21
0.059400000000126435
31
0
0
LINE
5
225
100
AcDbEntity
8
0
100
AcDbLine
10
-245.62120244344959
20
0.059400000000126435
30
0
11
-245.56820244344962
21
0.030400000000158488
31
0
0
LINE
5
226
100
AcDbEntity
8
0
100
AcDbLine
10
-245.56820244344962
20
0.030400000000158488
30
0
11
-235.53320244344968
21
0.030400000000158491
31
0
0
LINE
5
227
100
AcDbEntity
8
0
100
AcDbLine
10
-235.53320244344968
20
0.030400000000158491
30
0
11
-235.47920244344968
21
0.059400000000126435
31
0
0
LINE
5
228
100
AcDbEntity
8
0
100
AcDbLine
10
-235.47920244344968
20
0.059400000000126435
30
0
11
-235.4502024434496
21
0.11310000000026063
31
0
0
LINE
5
229
100
AcDbEntity
8
0
100
AcDbLine
10
-235.4502024434496
20
0.11310000000026063
30
0
11
-235.4502024434496
21
5.0299000000001417
31
0
0
LINE
5
230
100
AcDbEntity
8
0
100
AcDbLine
10
-235.4502024434496
20
5.0299000000001417
30
0
11
-218.13420244344965
21
5.0299000000001417
31
0
0
LINE
5
231
100
AcDbEntity
8
0
100
AcDbLine
10
-218.13420244344965
20
5.0299000000001417
30
0
11
-218.08020244344962
21
5.0603000000001277
31
0
0
LINE
5
232
100
AcDbEntity
8
0
100
AcDbLine
10
-218.08020244344962
20
5.0603000000001277
30
0
11
-218.05020244344968
21
5.1140000000001198
31
0
0
LINE
5
233
100
AcDbEntity
8
0
100
AcDbLine
10
-218.05020244344968
20
5.1140000000001198
30
0
11
-218.05020244344968
21
23.747800000000186
31
0
0
LINE
5
234
100
AcDbEntity
8
0
100
AcDbLine
10
-218.05020244344968
20
23.747800000000186
30
0
11
-218.08020244344962
21
23.801400000000147
31
0
0
LINE
5
235
100
AcDbEntity
8
0
100
AcDbLine
10
-218.08020244344962
20
23.801400000000147
30
0
11
-218.13420244344965
21
23.83070000000021
31
0
0
LINE
5
236
100
AcDbEntity
8
0
100
AcDbLine
10
-218.13420244344965
20
23.83070000000021
30
0
11
-223.05120244344963
21
23.83070000000021
31
0
0
LINE
5
237
100
AcDbEntity
8
0
100
AcDbLine
10
-223.05120244344963
20
23.83070000000021
30
0
11
-223.05120244344963
21
33.629800000000245
31
9.8607613152626476e-31
0
LINE
5
238
100
AcDbEntity
8
0
100
AcDbLine
10
-223.05120244344963
20
33.629800000000245
30
9.8607613152626476e-31
11
-218.13420244344965
21
33.629800000000245
31
0
0
LINE
5
239
100
AcDbEntity
8
0
100
AcDbLine
10
-218.13420244344965
20
33.629800000000245
30
0
11
-218.08020244344962
21
33.660100000000199
31
0
0
LINE
5
240
100
AcDbEntity
8
0
100
AcDbLine
10
-218.08020244344962
20
33.660100000000199
30
0
11
-218.05020244344968
21
33.713800000000191
31
0
0
LINE
5
241
100
AcDbEntity
8
0
100
AcDbLine
10
-218.05020244344968
20
33.713800000000191
30
0
11
-218.05020244344968
21
43.747500000000237
31
-1.1093356479670479e-30
0
LINE
5
242
100
AcDbEntity
8
0
100
AcDbLine
10
-218.05020244344968
20
43.747500000000237
30
-1.1093356479670479e-30
11
-218.08020244344962
21
43.80110000000019
31
0
0
LINE
5
243
100
AcDbEntity
8
0
100
AcDbLine
10
-218.08020244344962
20
43.80110000000019
30
0
11
-218.13420244344965
21
43.830000000000126
31
0
0
LINE
5
244
100
AcDbEntity
8
0
100
AcDbLine
10
-218.13420244344965
20
43.830000000000126
30
0
11
-223.05120244344963
21
43.830000000000126
31
0
0
LINE
5
245
100
AcDbEntity
8
0
100
AcDbLine
10
-223.05120244344963
20
43.830000000000126
30
0
11
-223.05120244344963
21
53.629100000000165
31
0
0
LINE
5
246
100
AcDbEntity
8
0
100
AcDbLine
10
-223.05120244344963
20
53.629100000000165
30
0
11
-218.13420244344965
21
53.629100000000165
31
0
0
LINE
5
247
100
AcDbEntity
8
0
100
AcDbLine
10
-218.13420244344965
20
53.629100000000165
30
0
11
-218.08020244344962
21
53.659500000000151
31
0
0
LINE
5
248
100
AcDbEntity
8
0
100
AcDbLine
10
-218.08020244344962
20
53.659500000000151
30
0
11
-218.05020244344968
21
53.713400000000206
31
0
0
LINE
5
249
100
AcDbEntity
8
0
100
AcDbLine
10
-218.05020244344968
20
53.713400000000206
30
0
11
-218.05020244344968
21
63.748200000000168
31
-2.4651903288156619e-31
0
LINE
5
250
100
AcDbEntity
8
0
100
AcDbLine
10
-218.05020244344968
20
63.748200000000168
30
-2.4651903288156619e-31
11
-218.08020244344962
21
63.800400000000252
31
0
0
LINE
5
251
100
AcDbEntity
8
0
100
AcDbLine
10
-218.08020244344962
20
63.800400000000252
30
0
11
-218.13420244344965
21
63.82940000000022
31
0
0
LINE
5
252
100
AcDbEntity
8
0
100
AcDbLine
10
-218.13420244344965
20
63.82940000000022
30
0
11
-223.05120244344963
21
63.82940000000022
31
0
0
LINE
5
253
100
AcDbEntity
8
0
100
AcDbLine
10
-223.05120244344963
20
63.82940000000022
30
0
11
-223.05120244344963
21
73.630200000000229
31
0
0
LINE
5
254
100
AcDbEntity
8
0
100
AcDbLine
10
-223.05120244344963
20
73.630200000000229
30
0
11
-218.13420244344965
21
73.630200000000229
31
0
0
LINE
5
255
100
AcDbEntity
8
0
100
AcDbLine
10
-218.13420244344965
20
73.630200000000229
30
0
11
-218.08020244344962
21
73.660600000000215
31
0
0
LINE
5
256
100
AcDbEntity
8
0
100
AcDbLine
10
-218.08020244344962
20
73.660600000000215
30
0
11
-218.05020244344968
21
73.714200000000176
31
0
0
LINE
5
257
100
AcDbEntity
8
0
100
AcDbLine
10
-218.05020244344968
20
73.714200000000176
30
0
11
-218.05020244344968
21
83.748000000000246
31
0
0
LINE
5
258
100
AcDbEntity
8
0
100
AcDbLine
10
-218.05020244344968
20
83.748000000000246
30
0
11
-218.08020244344962
21
83.802000000000191
31
0
0
LINE
5
259
100
AcDbEntity
8
0
100
AcDbLine
10
-218.08020244344962
20
83.802000000000191
30
0
11
-218.13420244344965
21
83.830000000000268
31
0
0
LINE
5
260
100
AcDbEntity
8
0
100
AcDbLine
10
-218.13420244344965
20
83.830000000000268
30
0
11
-223.05120244344963
21
83.830000000000268
31
0
0
LINE
5
261
100
AcDbEntity
8
0
100
AcDbLine
10
-223.05120244344963
20
83.830000000000268
30
0
11
-223.05120244344963
21
93.630000000000166
31
0
0
LINE
5
262
100
AcDbEntity
8
0
100
AcDbLine
10
-223.05120244344963
20
93.630000000000166
30
0
11
-218.13420244344965
21
93.630000000000166
31
0
0
LINE
5
263
100
AcDbEntity
8
0
100
AcDbLine
10
-218.13420244344965
20
93.630000000000166
30
0
11
-218.08020244344962
21
93.660000000000167
31
0
0
LINE
5
264
100
AcDbEntity
8
0
100
AcDbLine
10
-218.08020244344962
20
93.660000000000167
30
0
11
-218.05020244344968
21
93.714000000000254
31
0
0
LINE
5
265
100
AcDbEntity
8
0
100
AcDbLine
10
-218.05020244344968
20
93.714000000000254
30
0
11
-218.05020244344968
21
103.74900000000014
31
0
0
LINE
5
266
100
AcDbEntity
8
0
100
AcDbLine
10
-218.05020244344968
20
103.74900000000014
30
0
11
-218.08020244344962
21
103.80100000000016
31
0
0
LINE
5
267
100
AcDbEntity
8
0
100
AcDbLine
10
-218.08020244344962
20
103.80100000000016
30
0
11
-218.13420244344965
21
103.83000000000027
31
0
0
LINE
5
268
100
AcDbEntity
8
0
100
AcDbLine
10
-218.13420244344965
20
103.83000000000027
30
0
11
-223.05120244344963
21
103.83000000000027
31
0
0
LINE
5
269
100
AcDbEntity
8
0
100
AcDbLine
10
-223.05120244344963
20
103.83000000000027
30
0
11
-223.05120244344963
21
113.63000000000017
31
0
0
LINE
5
270
100
AcDbEntity
8
0
100
AcDbLine
10
-223.05120244344963
20
113.63000000000017
30
0
11
-218.13420244344965
21
113.63000000000017
31
0
0
LINE
5
271
100
AcDbEntity
8
0
100
AcDbLine
10
-218.13420244344965
20
113.63000000000017
30
0
11
-218.08020244344962
21
113.65900000000028
31
0
0
LINE
5
272
100
AcDbEntity
8
0
100
AcDbLine
10
-218.08020244344962
20
113.65900000000028
30
0
11
-218.05020244344968
21
113.71300000000022
31
0
0
LINE
5
273
100
AcDbEntity
8
0
100
AcDbLine
10
-218.05020244344968
20
113.71300000000022
30
0
11
-218.05020244344968
21
123.74800000000025
31
0
0
LINE
5
274
100
AcDbEntity
8
0
100
AcDbLine
10
-218.05020244344968
20
123.74800000000025
30
0
11
-218.08020244344962
21
123.80200000000019
31
0
0
LINE
5
275
100
AcDbEntity
8
0
100
AcDbLine
10
-218.08020244344962
20
123.80200000000019
30
0
11
-218.13420244344965
21
123.83100000000016
31
0
0
LINE
5
276
100
AcDbEntity
8
0
100
AcDbLine
10
-218.13420244344965
20
123.83100000000016
30
0
11
-223.05120244344963
21
123.83100000000016
31
0
0
LINE
5
277
100
AcDbEntity
8
0
100
AcDbLine
10
-223.05120244344963
20
123.83100000000016
30
0
11
-223.05120244344963
21
133.63000000000017
31
0
0
LINE
5
278
100
AcDbEntity
8
0
100
AcDbLine
10
-223.05120244344963
20
133.63000000000017
30
0
11
-218.13420244344965
21
133.63000000000017
31
0
0
LINE
5
279
100
AcDbEntity
8
0
100
AcDbLine
10
-218.13420244344965
20
133.63000000000017
30
0
11
-218.08020244344962
21
133.66000000000017
31
0
0
LINE
5
280
100
AcDbEntity
8
0
100
AcDbLine
10
-218.08020244344962
20
133.66000000000017
30
0
11
-218.05020244344968
21
133.71400000000011
31
0
0
LINE
5
281
100
AcDbEntity
8
0
100
AcDbLine
10
-218.05020244344968
20
133.71400000000011
30
0
11
-218.05020244344968
21
143.74700000000021
31
0
0
LINE
5
282
100
AcDbEntity
8
0
100
AcDbLine
10
-218.05020244344968
20
143.74700000000021
30
0
11
-218.08020244344962
21
143.80100000000016
31
0
0
LINE
5
283
100
AcDbEntity
8
0
100
AcDbLine
10
-218.08020244344962
20
143.80100000000016
30
0
11
-218.13420244344965
21
143.83000000000027
31
0
0
LINE
5
284
100
AcDbEntity
8
0
100
AcDbLine
10
-218.13420244344965
20
143.83000000000027
30
0
11
-223.05120244344963
21
143.83000000000027
31
0
0
LINE
5
285
100
AcDbEntity
8
0
100
AcDbLine
10
-223.05120244344963
20
143.83000000000027
30
0
11
-223.05120244344963
21
153.62900000000027
31
0
0
LINE
5
286
100
AcDbEntity
8
0
100
AcDbLine
10
-223.05120244344963
20
153.62900000000027
30
0
11
-218.13420244344965
21
153.62900000000027
31
0
0
LINE
5
287
100
AcDbEntity
8
0
100
AcDbLine
10
-218.13420244344965
20
153.62900000000027
30
0
11
-218.08020244344962
21
153.66000000000017
31
0
0
LINE
5
288
100
AcDbEntity
8
0
100
AcDbLine
10
-218.08020244344962
20
153.66000000000017
30
0
11
-218.05020244344968
21
153.71300000000022
31
0
0
LINE
5
289
100
AcDbEntity
8
0
100
AcDbLine
10
-218.05020244344968
20
153.71300000000022
30
0
11
-218.05020244344968
21
163.7480000000001
31
0
0
LINE
5
290
100
AcDbEntity
8
0
100
AcDbLine
10
-218.05020244344968
20
163.7480000000001
30
0
11
-218.08020244344962
21
163.80100000000016
31
0
0
LINE
5
291
100
AcDbEntity
8
0
100
AcDbLine
10
-218.08020244344962
20
163.80100000000016
30
0
11
-218.13420244344965
21
163.82900000000024
31
0
0
LINE
5
292
100
AcDbEntity
8
0
100
AcDbLine
10
-218.13420244344965
20
163.82900000000024
30
0
11
-223.05120244344963
21
163.82900000000024
31
0
0
LINE
5
293
100
AcDbEntity
8
0
100
AcDbLine
10
-223.05120244344963
20
163.82900000000024
30
0
11
-223.05120244344963
21
173.63000000000017
31
0
0
LINE
5
294
100
AcDbEntity
8
0
100
AcDbLine
10
-223.05120244344963
20
173.63000000000017
30
0
11
-218.13420244344965
21
173.63000000000017
31
0
0
LINE
5
295
100
AcDbEntity
8
0
100
AcDbLine
10
-218.13420244344965
20
173.63000000000017
30
0
11
-218.08020244344962
21
173.65900000000028
31
0
0
LINE
5
296
100
AcDbEntity
8
0
100
AcDbLine
10
-218.08020244344962
20
173.65900000000028
30
0
11
-218.05020244344968
21
173.71300000000022
31
0
0
LINE
5
297
100
AcDbEntity
8
0
100
AcDbLine
10
-218.05020244344968
20
173.71300000000022
30
0
11
-218.05020244344968
21
183.74800000000025
31
0
0
LINE
5
298
100
AcDbEntity
8
0
100
AcDbLine
10
-218.05020244344968
20
183.74800000000025
30
0
11
-218.08020244344962
21
183.80100000000016
31
0
0
LINE
5
299
100
AcDbEntity
8
0
100
AcDbLine
10
-218.08020244344962
20
183.80100000000016
30
0
11
-218.13420244344965
21
183.83000000000027
31
0
0
LINE
5
300
100
AcDbEntity
8
0
100
AcDbLine
10
-218.13420244344965
20
183.83000000000027
30
0
11
-223.05120244344963
21
183.83000000000027
31
0
0
LINE
5
301
100
AcDbEntity
8
0
100
AcDbLine
10
-223.05120244344963
20
183.83000000000027
30
0
11
-223.05120244344963
21
193.63000000000017
31
0
0
LINE
5
302
100
AcDbEntity
8
0
100
AcDbLine
10
-223.05120244344963
20
193.63000000000017
30
0
11
-218.13420244344965
21
193.63000000000017
31
0
0
LINE
5
303
100
AcDbEntity
8
0
100
AcDbLine
10
-218.13420244344965
20
193.63000000000017
30
0
11
-218.08020244344962
21
193.66000000000017
31
0
0
LINE
5
304
100
AcDbEntity
8
0
100
AcDbLine
10
-218.08020244344962
20
193.66000000000017
30
0
11
-218.05020244344968
21
193.71400000000025
31
0
0
LINE
5
305
100
AcDbEntity
8
0
100
AcDbLine
10
-218.05020244344968
20
193.71400000000025
30
0
11
-218.05020244344968
21
203.74800000000025
31
0
0
LINE
5
306
100
AcDbEntity
8
0
100
AcDbLine
10
-218.05020244344968
20
203.74800000000025
30
0
11
-218.08020244344962
21
203.80100000000016
31
0
0
LINE
5
307
100
AcDbEntity
8
0
100
AcDbLine
10
-218.08020244344962
20
203.80100000000016
30
0
11
-218.13420244344965
21
203.83000000000027
31
0
0
LINE
5
308
100
AcDbEntity
8
0
100
AcDbLine
10
-218.13420244344965
20
203.83000000000027
30
0
11
-223.05120244344963
21
203.83000000000027
31
0
0
LINE
5
309
100
AcDbEntity
8
0
100
AcDbLine
10
-223.05120244344963
20
203.83000000000027
30
0
11
-223.05120244344963
21
213.63000000000017
31
0
0
LINE
5
310
100
AcDbEntity
8
0
100
AcDbLine
10
-223.05120244344963
20
213.63000000000017
30
0
11
-218.13420244344965
21
213.63000000000017
31
0
0
LINE
5
311
100
AcDbEntity
8
0
100
AcDbLine
10
-218.13420244344965
20
213.63000000000017
30
0
11
-218.08020244344962
21
213.65900000000028
31
0
0
LINE
5
312
100
AcDbEntity
8
0
100
AcDbLine
10
-218.08020244344962
20
213.65900000000028
30
0
11
-218.05020244344968
21
213.71300000000022
31
0
0
LINE
5
313
100
AcDbEntity
8
0
100
AcDbLine
10
-218.05020244344968
20
213.71300000000022
30
0
11
-218.05020244344968
21
223.74800000000025
31
0
0
LINE
5
314
100
AcDbEntity
8
0
100
AcDbLine
10
-218.05020244344968
20
223.74800000000025
30
0
11
-218.08020244344962
21
223.80000000000013
31
0
0
LINE
5
315
100
AcDbEntity
8
0
100
AcDbLine
10
-218.08020244344962
20
223.80000000000013
30
0
11
-218.13420244344965
21
223.82900000000024
31
0
0
LINE
5
316
100
AcDbEntity
8
0
100
AcDbLine
10
-218.13420244344965
20
223.82900000000024
30
0
11
-223.05120244344963
21
223.82900000000024
31
0
0
LINE
5
317
100
AcDbEntity
8
0
100
AcDbLine
10
-223.05120244344963
20
223.82900000000024
30
0
11
-223.05120244344963
21
233.63000000000017
31
0
0
LINE
5
318
100
AcDbEntity
8
0
100
AcDbLine
10
-223.05120244344963
20
233.63000000000017
30
0
11
-218.13420244344965
21
233.63000000000017
31
0
0
LINE
5
319
100
AcDbEntity
8
0
100
AcDbLine
10
-218.13420244344965
20
233.63000000000017
30
0
11
-218.08020244344962
21
233.66000000000017
31
0
0
LINE
5
320
100
AcDbEntity
8
0
100
AcDbLine
10
-218.08020244344962
20
233.66000000000017
30
0
11
-218.05020244344968
21
233.71400000000025
31
0
0
LINE
5
321
100
AcDbEntity
8
0
100
AcDbLine
10
-218.05020244344968
20
233.71400000000025
30
0
11
-218.05020244344968
21
243.74700000000021
31
0
0
LINE
5
322
100
AcDbEntity
8
0
100
AcDbLine
10
-218.05020244344968
20
243.74700000000021
30
0
11
-218.08020244344962
21
243.80100000000016
31
0
0
LINE
5
323
100
AcDbEntity
8
0
100
AcDbLine
10
-218.08020244344962
20
243.80100000000016
30
0
11
-218.13420244344965
21
243.83000000000027
31
0
0
LINE
5
324
100
AcDbEntity
8
0
100
AcDbLine
10
-218.13420244344965
20
243.83000000000027
30
0
11
-223.05120244344963
21
243.83000000000027
31
0
0
LINE
5
325
100
AcDbEntity
8
0
100
AcDbLine
10
-223.05120244344963
20
243.83000000000027
30
0
11
-223.05120244344963
21
253.6310000000002
31
0
0
LINE
5
326
100
AcDbEntity
8
0
100
AcDbLine
10
-223.05120244344963
20
253.6310000000002
30
0
11
-218.13420244344965
21
253.6310000000002
31
0
0
LINE
5
327
100
AcDbEntity
8
0
100
AcDbLine
10
-218.13420244344965
20
253.6310000000002
30
0
11
-218.08020244344962
21
253.66000000000017
31
0
0
LINE
5
328
100
AcDbEntity
8
0
100
AcDbLine
10
-218.08020244344962
20
253.66000000000017
30
0
11
-218.05020244344968
21
253.71300000000022
31
0
0
LINE
5
329
100
AcDbEntity
8
0
100
AcDbLine
10
-218.05020244344968
20
253.71300000000022
30
0
11
-218.05020244344968
21
263.74900000000031
31
0
0
LINE
5
330
100
AcDbEntity
8
0
100
AcDbLine
10
-218.05020244344968
20
263.74900000000031
30
0
11
-218.08020244344962
21
263.80100000000016
31
0
0
LINE
5
331
100
AcDbEntity
8
0
100
AcDbLine
10
-218.08020244344962
20
263.80100000000016
30
0
11
-218.13420244344965
21
263.83000000000027
31
0
0
LINE
5
332
100
AcDbEntity
8
0
100
AcDbLine
10
-218.13420244344965
20
263.83000000000027
30
0
11
-223.05120244344963
21
263.83000000000027
31
0
0
LINE
5
333
100
AcDbEntity
8
0
100
AcDbLine
10
-223.05120244344963
20
263.83000000000027
30
0
11
-223.05120244344963
21
273.63000000000017
31
0
0
LINE
5
334
100
AcDbEntity
8
0
100
AcDbLine
10
-223.05120244344963
20
273.63000000000017
30
0
11
-218.13420244344965
21
273.63000000000017
31
0
0
LINE
5
335
100
AcDbEntity
8
0
100
AcDbLine
10
-218.13420244344965
20
273.63000000000017
30
0
11
-218.08020244344962
21
273.65900000000016
31
0
0
LINE
5
336
100
AcDbEntity
8
0
100
AcDbLine
10
-218.08020244344962
20
273.65900000000016
30
0
11
-218.05020244344968
21
273.71300000000025
31
0
0
LINE
5
337
100
AcDbEntity
8
0
100
AcDbLine
10
-218.05020244344968
20
273.71300000000025
30
0
11
-218.05020244344968
21
283.74800000000027
31
0
0
LINE
5
338
100
AcDbEntity
8
0
100
AcDbLine
10
-218.05020244344968
20
283.74800000000027
30
0
11
-218.08020244344962
21
283.80100000000016
31
0
0
LINE
5
339
100
AcDbEntity
8
0
100
AcDbLine
10
-218.08020244344962
20
283.80100000000016
30
0
11
-218.13420244344965
21
283.83000000000015
31
0
0
LINE
5
340
100
AcDbEntity
8
0
100
AcDbLine
10
-218.13420244344965
20
283.83000000000015
30
0
11
-223.05120244344963
21
283.83000000000015
31
0
0
LINE
5
341
100
AcDbEntity
8
0
100
AcDbLine
10
-223.05120244344963
20
283.83000000000015
30
0
11
-223.05120244344963
21
293.63000000000017
31
0
0
LINE
5
342
100
AcDbEntity
8
0
100
AcDbLine
10
-223.05120244344963
20
293.63000000000017
30
0
11
-218.13420244344965
21
293.63000000000017
31
0
0
LINE
5
343
100
AcDbEntity
8
0
100
AcDbLine
10
-218.13420244344965
20
293.63000000000017
30
0
11
-218.08020244344962
21
293.6600000000002
31
0
0
LINE
5
344
100
AcDbEntity
8
0
100
AcDbLine
10
-218.08020244344962
20
293.6600000000002
30
0
11
-218.05020244344968
21
293.71400000000028
31
0
0
LINE
5
345
100
AcDbEntity
8
0
100
AcDbLine
10
-218.05020244344968
20
293.71400000000028
30
0
11
-218.05020244344968
21
303.74700000000024
31
1.1093356479670479e-30
0
LINE
5
346
100
AcDbEntity
8
0
100
AcDbLine
10
-218.05020244344968
20
303.74700000000024
30
1.1093356479670479e-30
11
-218.08020244344962
21
303.80100000000016
31
0
0
LINE
5
347
100
AcDbEntity
8
0
100
AcDbLine
10
-218.08020244344962
20
303.80100000000016
30
0
11
-218.13420244344965
21
303.83000000000015
31
0
0
LINE
5
348
100
AcDbEntity
8
0
100
AcDbLine
10
-218.13420244344965
20
303.83000000000015
30
0
11
-223.05120244344963
21
303.83000000000015
31
0
0
LINE
5
349
100
AcDbEntity
8
0
100
AcDbLine
10
-223.05120244344963
20
303.83000000000015
30
0
11
-223.05120244344963
21
313.6290000000003
31
0
0
LINE
5
350
100
AcDbEntity
8
0
100
AcDbLine
10
-223.05120244344963
20
313.6290000000003
30
0
11
-218.13420244344965
21
313.6290000000003
31
0
0
LINE
5
351
100
AcDbEntity
8
0
100
AcDbLine
10
-218.13420244344965
20
313.6290000000003
30
0
11
-218.08020244344962
21
313.6600000000002
31
0
0
LINE
5
352
100
AcDbEntity
8
0
100
AcDbLine
10
-218.08020244344962
20
313.6600000000002
30
0
11
-218.05020244344968
21
313.71300000000025
31
0
0
LINE
5
353
100
AcDbEntity
8
0
100
AcDbLine
10
-218.05020244344968
20
313.71300000000025
30
0
11
-218.05020244344968
21
323.74800000000022
31
0
0
LINE
5
354
100
AcDbEntity
8
0
100
AcDbLine
10
-218.05020244344968
20
323.74800000000022
30
0
11
-218.08020244344962
21
323.80000000000024
31
0
0
LINE
5
355
100
AcDbEntity
8
0
100
AcDbLine
10
-218.08020244344962
20
323.80000000000024
30
0
11
-218.13420244344965
21
323.82900000000018
31
0
0
LINE
5
356
100
AcDbEntity
8
0
100
AcDbLine
10
-218.13420244344965
20
323.82900000000018
30
0
11
-223.05120244344963
21
323.82900000000018
31
0
0
LINE
5
357
100
AcDbEntity
8
0
100
AcDbLine
10
-223.05120244344963
20
323.82900000000018
30
0
11
-223.05120244344963
21
333.62800000000021
31
9.8607613152626476e-31
0
LINE
5
358
100
AcDbEntity
8
0
100
AcDbLine
10
-223.05120244344963
20
333.62800000000021
30
9.8607613152626476e-31
11
-218.13420244344965
21
333.62800000000021
31
0
0
LINE
5
359
100
AcDbEntity
8
0
100
AcDbLine
10
-218.13420244344965
20
333.62800000000021
30
0
11
-218.08020244344962
21
333.66000000000014
31
0
0
LINE
5
360
100
AcDbEntity
8
0
100
AcDbLine
10
-218.08020244344962
20
333.66000000000014
30
0
11
-218.05020244344968
21
333.71300000000019
31
0
0
LINE
5
361
100
AcDbEntity
8
0
100
AcDbLine
10
-218.05020244344968
20
333.71300000000019
30
0
11
-218.05020244344968
21
343.74600000000015
31
0
0
LINE
5
362
100
AcDbEntity
8
0
100
AcDbLine
10
-218.05020244344968
20
343.74600000000015
30
0
11
-218.08020244344962
21
343.80300000000022
31
0
0
LINE
5
363
100
AcDbEntity
8
0
100
AcDbLine
10
-218.08020244344962
20
343.80300000000022
30
0
11
-218.13420244344965
21
343.83100000000013
31
0
0
LINE
5
364
100
AcDbEntity
8
0
100
AcDbLine
10
-218.13420244344965
20
343.83100000000013
30
0
11
-223.05120244344963
21
343.83100000000013
31
0
0
LINE
5
365
100
AcDbEntity
8
0
100
AcDbLine
10
-223.05120244344963
20
343.83100000000013
30
0
11
-223.05120244344963
21
353.6310000000002
31
3.6977854932234928e-31
0
LINE
5
366
100
AcDbEntity
8
0
100
AcDbLine
10
-223.05120244344963
20
353.6310000000002
30
3.6977854932234928e-31
11
-218.13420244344965
21
353.6310000000002
31
0
0
LINE
5
367
100
AcDbEntity
8
0
100
AcDbLine
10
-218.13420244344965
20
353.6310000000002
30
0
11
-218.08020244344962
21
353.65900000000011
31
0
0
LINE
5
368
100
AcDbEntity
8
0
100
AcDbLine
10
-218.08020244344962
20
353.65900000000011
30
0
11
-218.05020244344968
21
353.71200000000016
31
0
0
LINE
5
369
100
AcDbEntity
8
0
100
AcDbLine
10
-218.05020244344968
20
353.71200000000016
30
0
11
-218.05020244344968
21
363.74900000000025
31
0
0
LINE
5
370
100
AcDbEntity
8
0
100
AcDbLine
10
-218.05020244344968
20
363.74900000000025
30
0
11
-218.08020244344962
21
363.80200000000013
31
0
0
LINE
5
371
100
AcDbEntity
8
0
100
AcDbLine
10
-218.08020244344962
20
363.80200000000013
30
0
11
-218.13420244344965
21
363.83000000000027
31
0
0
LINE
5
372
100
AcDbEntity
8
0
100
AcDbLine
10
-218.13420244344965
20
363.83000000000027
30
0
11
-223.05120244344963
21
363.83000000000027
31
0
0
LINE
5
373
100
AcDbEntity
8
0
100
AcDbLine
10
-223.05120244344963
20
363.83000000000027
30
0
11
-223.05120244344963
21
373.63000000000011
31
0
0
LINE
5
374
100
AcDbEntity
8
0
100
AcDbLine
10
-223.05120244344963
20
373.63000000000011
30
0
11
-218.13420244344965
21
373.63000000000011
31
0
0
LINE
5
375
100
AcDbEntity
8
0
100
AcDbLine
10
-218.13420244344965
20
373.63000000000011
30
0
11
-218.08020244344962
21
373.65800000000024
31
0
0
LINE
5
376
100
AcDbEntity
8
0
100
AcDbLine
10
-218.08020244344962
20
373.65800000000024
30
0
11
-218.05020244344968
21
373.71500000000015
31
0
0
LINE
5
377
100
AcDbEntity
8
0
100
AcDbLine
10
-218.05020244344968
20
373.71500000000015
30
0
11
-218.05020244344968
21
383.74800000000022
31
0
0
LINE
5
378
100
AcDbEntity
8
0
100
AcDbLine
10
-218.05020244344968
20
383.74800000000022
30
0
11
-218.08020244344962
21
383.80100000000016
31
0
0
LINE
5
379
100
AcDbEntity
8
0
100
AcDbLine
10
-218.08020244344962
20
383.80100000000016
30
0
11
-218.13420244344965
21
383.82900000000018
31
0
0
LINE
5
380
100
AcDbEntity
8
0
100
AcDbLine
10
-218.13420244344965
20
383.82900000000018
30
0
11
-223.05120244344963
21
383.82900000000018
31
0
0
LINE
5
381
100
AcDbEntity
8
0
100
AcDbLine
10
-223.05120244344963
20
383.82900000000018
30
0
11
-223.05120244344963
21
393.62900000000025
31
0
0
LINE
5
382
100
AcDbEntity
8
0
100
AcDbLine
10
-223.05120244344963
20
393.62900000000025
30
0
11
-218.13420244344965
21
393.62900000000025
31
0
0
LINE
5
383
100
AcDbEntity
8
0
100
AcDbLine
10
-218.13420244344965
20
393.62900000000025
30
0
11
-218.08020244344962
21
393.66100000000017
31
0
0
LINE
5
384
100
AcDbEntity
8
0
100
AcDbLine
10
-218.08020244344962
20
393.66100000000017
30
0
11
-218.05020244344968
21
393.71400000000023
31
0
0
LINE
5
385
100
AcDbEntity
8
0
100
AcDbLine
10
-218.05020244344968
20
393.71400000000023
30
0
11
-218.05020244344968
21
403.74700000000018
31
0
0
LINE
5
386
100
AcDbEntity
8
0
100
AcDbLine
10
-218.05020244344968
20
403.74700000000018
30
0
11
-218.08020244344962
21
403.80000000000024
31
0
0
LINE
5
387
100
AcDbEntity
8
0
100
AcDbLine
10
-218.08020244344962
20
403.80000000000024
30
0
11
-218.13420244344965
21
403.83100000000013
31
0
0
LINE
5
388
100
AcDbEntity
8
0
100
AcDbLine
10
-218.13420244344965
20
403.83100000000013
30
0
11
-223.05120244344963
21
403.83100000000013
31
0
0
LINE
5
389
100
AcDbEntity
8
0
100
AcDbLine
10
-223.05120244344963
20
403.83100000000013
30
0
11
-223.05120244344963
21
413.6310000000002
31
0
0
LINE
5
390
100
AcDbEntity
8
0
100
AcDbLine
10
-223.05120244344963
20
413.6310000000002
30
0
11
-218.13420244344965
21
413.6310000000002
31
0
0
LINE
5
391
100
AcDbEntity
8
0
100
AcDbLine
10
-218.13420244344965
20
413.6310000000002
30
0
11
-218.08020244344962
21
413.66000000000014
31
0
0
LINE
5
392
100
AcDbEntity
8
0
100
AcDbLine
10
-218.08020244344962
20
413.66000000000014
30
0
11
-218.05020244344968
21
413.71300000000019
31
0
0
LINE
5
393
100
AcDbEntity
8
0
100
AcDbLine
10
-218.05020244344968
20
413.71300000000019
30
0
11
-218.05020244344968
21
423.74900000000025
31
0
0
LINE
5
394
100
AcDbEntity
8
0
100
AcDbLine
10
-218.05020244344968
20
423.74900000000025
30
0
11
-218.08020244344962
21
423.80200000000013
31
0
0
LINE
5
395
100
AcDbEntity
8
0
100
AcDbLine
10
-218.08020244344962
20
423.80200000000013
30
0
11
-218.13420244344965
21
423.83000000000027
31
0
0
LINE
5
396
100
AcDbEntity
8
0
100
AcDbLine
10
-218.13420244344965
20
423.83000000000027
30
0
11
-223.05120244344963
21
423.83000000000027
31
0
0
LINE
5
397
100
AcDbEntity
8
0
100
AcDbLine
10
-223.05120244344963
20
423.83000000000027
30
0
11
-223.05120244344963
21
433.63000000000011
31
0
0
LINE
5
398
100
AcDbEntity
8
0
100
AcDbLine
10
-223.05120244344963
20
433.63000000000011
30
0
11
-218.13420244344965
21
433.63000000000011
31
0
0
LINE
5
399
100
AcDbEntity
8
0
100
AcDbLine
10
-218.13420244344965
20
433.63000000000011
30
0
11
-218.08020244344962
21
433.65900000000022
31
0
0
LINE
5
400
100
AcDbEntity
8
0
100
AcDbLine
10
-218.08020244344962
20
433.65900000000022
30
0
11
-218.05020244344968
21
433.71200000000016
31
0
0
LINE
5
401
100
AcDbEntity
8
0
100
AcDbLine
10
-218.05020244344968
20
433.71200000000016
30
0
11
-218.05020244344968
21
452.34900000000027
31
0
0
LINE
5
402
100
AcDbEntity
8
0
100
AcDbLine
10
-218.05020244344968
20
452.34900000000027
30
0
11
-218.05010244344965
21
452.34900000000027
31
0
0
LINE
5
403
100
AcDbEntity
8
0
100
AcDbLine
10
-218.05010244344965
20
452.34900000000027
30
0
11
-218.05010244344965
21
452.43000000000023
31
0
0
LINE
5
404
100
AcDbEntity
8
0
100
AcDbLine
10
-218.05010244344965
20
452.43000000000023
30
0
11
-218.05020244344968
21
452.43000000000023
31
0
0
LINE
5
405
100
AcDbEntity
8
0
100
AcDbLine
10
-218.05020244344968
20
452.43000000000023
30
0
11
-218.05020244344968
21
457.34800000000018
31
0
0
LINE
5
406
100
AcDbEntity
8
0
100
AcDbLine
10
-218.05020244344968
20
457.34800000000018
30
0
11
-218.08020244344962
21
457.40100000000012
31
0
0
LINE
5
407
100
AcDbEntity
8
0
100
AcDbLine
10
-218.08020244344962
20
457.40100000000012
30
0
11
-218.13420244344965
21
457.4290000000002
31
0
0
LINE
5
408
100
AcDbEntity
8
0
100
AcDbLine
10
-218.13420244344965
20
457.4290000000002
30
0
11
-235.56720244344967
21
457.4290000000002
31
0
0
LINE
5
409
100
AcDbEntity
8
0
100
AcDbLine
10
-235.56720244344967
20
457.4290000000002
30
0
11
-235.62120244344959
21
457.40100000000012
31
0
0
LINE
5
410
100
AcDbEntity
8
0
100
AcDbLine
10
-235.62120244344959
20
457.40100000000012
30
0
11
-235.65020244344967
21
457.34800000000018
31
0
0
LINE
5
411
100
AcDbEntity
8
0
100
AcDbLine
10
-235.65020244344967
20
457.34800000000018
30
0
11
-235.65020244344967
21
452.43000000000023
31
0
0
LINE
5
412
100
AcDbEntity
8
0
100
AcDbLine
10
-235.65020244344967
20
452.43000000000023
30
0
11
-245.45120244344963
21
452.43000000000023
31
0
0
LINE
5
413
100
AcDbEntity
8
0
100
AcDbLine
10
-245.45120244344963
20
452.43000000000023
30
0
11
-245.45120244344963
21
457.34800000000018
31
0
0
LINE
5
414
100
AcDbEntity
8
0
100
AcDbLine
10
-245.45120244344963
20
457.34800000000018
30
0
11
-245.48020244344966
21
457.40100000000012
31
0
0
LINE
5
415
100
AcDbEntity
8
0
100
AcDbLine
10
-245.48020244344966
20
457.40100000000012
30
0
11
-245.53320244344968
21
457.4290000000002
31
0
0
LINE
5
416
100
AcDbEntity
8
0
100
AcDbLine
10
-245.53320244344968
20
457.4290000000002
30
0
11
-255.56820244344962
21
457.4290000000002
31
0
0
LINE
5
417
100
AcDbEntity
8
0
100
AcDbLine
10
-255.56820244344962
20
457.4290000000002
30
0
11
-255.62120244344959
21
457.40100000000012
31
0
0
LINE
5
418
100
AcDbEntity
8
0
100
AcDbLine
10
-255.62120244344959
20
457.40100000000012
30
0
11
-255.65020244344967
21
457.34800000000018
31
0
0
LINE
5
419
100
AcDbEntity
8
0
100
AcDbLine
10
-255.65020244344967
20
457.34800000000018
30
0
11
-255.65020244344967
21
452.43000000000023
31
0
0
LINE
5
420
100
AcDbEntity
8
0
100
AcDbLine
10
-255.65020244344967
20
452.43000000000023
30
0
11
-265.4502024434496
21
452.43000000000023
31
0
0
LINE
5
421
100
AcDbEntity
8
0
100
AcDbLine
10
-265.4502024434496
20
452.43000000000023
30
0
11
-265.4502024434496
21
457.34800000000018
31
0
0
LINE
5
422
100
AcDbEntity
8
0
100
AcDbLine
10
-265.4502024434496
20
457.34800000000018
30
0
11
-265.47920244344971
21
457.40100000000012
31
0
0
LINE
5
423
100
AcDbEntity
8
0
100
AcDbLine
10
-265.47920244344971
20
457.40100000000012
30
0
11
-265.53320244344968
21
457.4290000000002
31
0
0
LINE
5
424
100
AcDbEntity
8
0
100
AcDbLine
10
-265.53320244344968
20
457.4290000000002
30
0
11
-275.56820244344965
21
457.4290000000002
31
0
0
LINE
5
425
100
AcDbEntity
8
0
100
AcDbLine
10
-275.56820244344965
20
457.4290000000002
30
0
11
-275.62120244344959
21
457.40100000000012
31
0
0
LINE
5
426
100
AcDbEntity
8
0
100
AcDbLine
10
-275.62120244344959
20
457.40100000000012
30
0
11
-275.6502024434497
21
457.34800000000018
31
0
0
LINE
5
427
100
AcDbEntity
8
0
100
AcDbLine
10
-275.6502024434497
20
457.34800000000018
30
0
11
-275.6502024434497
21
452.43000000000023
31
0
0
LINE
5
428
100
AcDbEntity
8
0
100
AcDbLine
10
-275.6502024434497
20
452.43000000000023
30
0
11
-285.45020244344965
21
452.43000000000023
31
0
0
LINE
5
429
100
AcDbEntity
8
0
100
AcDbLine
10
-285.45020244344965
20
452.43000000000023
30
0
11
-285.45020244344965
21
457.34800000000018
31
0
0
LINE
5
430
100
AcDbEntity
8
0
100
AcDbLine
10
-285.45020244344965
20
457.34800000000018
30
0
11
-285.48020244344963
21
457.40100000000012
31
0
0
LINE
5
431
100
AcDbEntity
8
0
100
AcDbLine
10
-285.48020244344963
20
457.40100000000012
30
0
11
-285.53420244344966
21
457.4290000000002
31
0
0
LINE
5
432
100
AcDbEntity
8
0
100
AcDbLine
10
-285.53420244344966
20
457.4290000000002
30
0
11
-295.56820244344965
21
457.4290000000002
31
0
0
LINE
5
433
100
AcDbEntity
8
0
100
AcDbLine
10
-295.56820244344965
20
457.4290000000002
30
0
11
-295.62120244344965
21
457.40100000000012
31
0
0
LINE
5
434
100
AcDbEntity
8
0
100
AcDbLine
10
-295.62120244344965
20
457.40100000000012
30
0
11
-295.65020244344964
21
457.34800000000018
31
0
0
LINE
5
435
100
AcDbEntity
8
0
100
AcDbLine
10
-295.65020244344964
20
457.34800000000018
30
0
11
-295.65020244344964
21
452.43000000000023
31
0
0
LINE
5
436
100
AcDbEntity
8
0
100
AcDbLine
10
-295.65020244344964
20
452.43000000000023
30
0
11
-305.45020244344965
21
452.43000000000023
31
0
0
LINE
5
437
100
AcDbEntity
8
0
100
AcDbLine
10
-305.45020244344965
20
452.43000000000023
30
0
11
-305.45020244344965
21
457.34800000000018
31
0
0
LINE
5
438
100
AcDbEntity
8
0
100
AcDbLine
10
-305.45020244344965
20
457.34800000000018
30
0
11
-305.47920244344965
21
457.40100000000012
31
0
0
LINE
5
439
100
AcDbEntity
8
0
100
AcDbLine
10
-305.47920244344965
20
457.40100000000012
30
0
11
-305.53320244344968
21
457.4290000000002
31
0
0
LINE
5
440
100
AcDbEntity
8
0
100
AcDbLine
10
-305.53320244344968
20
457.4290000000002
30
0
11
-315.56820244344965
21
457.4290000000002
31
0
0
LINE
5
441
100
AcDbEntity
8
0
100
AcDbLine
10
-315.56820244344965
20
457.4290000000002
30
0
11
-315.62020244344967
21
457.40100000000012
31
0
0
LINE
5
442
100
AcDbEntity
8
0
100
AcDbLine
10
-315.62020244344967
20
457.40100000000012
30
0
11
-315.64920244344967
21
457.34800000000018
31
0
0
LINE
5
443
100
AcDbEntity
8
0
100
AcDbLine
10
-315.64920244344967
20
457.34800000000018
30
0
11
-315.64920244344967
21
452.43000000000023
31
0
0
LINE
5
444
100
AcDbEntity
8
0
100
AcDbLine
10
-315.64920244344967
20
452.43000000000023
30
0
11
-325.4502024434496
21
452.43000000000023
31
0
0
LINE
5
445
100
AcDbEntity
8
0
100
AcDbLine
10
-325.4502024434496
20
452.43000000000023
30
0
11
-325.4502024434496
21
457.34800000000018
31
0
0
LINE
5
446
100
AcDbEntity
8
0
100
AcDbLine
10
-325.4502024434496
20
457.34800000000018
30
0
11
-325.48020244344963
21
457.40100000000012
31
0
0
LINE
5
447
100
AcDbEntity
8
0
100
AcDbLine
10
-325.48020244344963
20
457.40100000000012
30
0
11
-325.53420244344971
21
457.4290000000002
31
0
0
LINE
5
448
100
AcDbEntity
8
0
100
AcDbLine
10
-325.53420244344971
20
457.4290000000002
30
0
11
-335.56720244344967
21
457.4290000000002
31
0
0
LINE
5
449
100
AcDbEntity
8
0
100
AcDbLine
10
-335.56720244344967
20
457.4290000000002
30
0
11
-335.62120244344959
21
457.40100000000012
31
0
0
LINE
5
450
100
AcDbEntity
8
0
100
AcDbLine
10
-335.62120244344959
20
457.40100000000012
30
0
11
-335.65020244344964
21
457.34800000000018
31
0
0
LINE
5
451
100
AcDbEntity
8
0
100
AcDbLine
10
-335.65020244344964
20
457.34800000000018
30
0
11
-335.65020244344964
21
452.43000000000023
31
0
0
LINE
5
452
100
AcDbEntity
8
0
100
AcDbLine
10
-335.65020244344964
20
452.43000000000023
30
0
11
-345.44920244344962
21
452.43000000000023
31
0
0
LINE
5
453
100
AcDbEntity
8
0
100
AcDbLine
10
-345.44920244344962
20
452.43000000000023
30
0
11
-345.44920244344962
21
457.34800000000018
31
0
0
LINE
5
454
100
AcDbEntity
8
0
100
AcDbLine
10
-345.44920244344962
20
457.34800000000018
30
0
11
-345.48020244344963
21
457.40100000000012
31
0
0
LINE
5
455
100
AcDbEntity
8
0
100
AcDbLine
10
-345.48020244344963
20
457.40100000000012
30
0
11
-345.53320244344968
21
457.4290000000002
31
0
0
LINE
5
456
100
AcDbEntity
8
0
100
AcDbLine
10
-345.53320244344968
20
457.4290000000002
30
0
11
-355.56820244344971
21
457.4290000000002
31
0
0
LINE
5
457
100
AcDbEntity
8
0
100
AcDbLine
10
-355.56820244344971
20
457.4290000000002
30
0
11
-355.62120244344959
21
457.40100000000012
31
0
0
LINE
5
458
100
AcDbEntity
8
0
100
AcDbLine
10
-355.62120244344959
20
457.40100000000012
30
0
11
-355.65020244344964
21
457.34800000000018
31
0
0
LINE
5
459
100
AcDbEntity
8
0
100
AcDbLine
10
-355.65020244344964
20
457.34800000000018
30
0
11
-355.65020244344964
21
452.43000000000023
31
0
0
LINE
5
460
100
AcDbEntity
8
0
100
AcDbLine
10
-355.65020244344964
20
452.43000000000023
30
0
11
-365.4502024434496
21
452.43000000000023
31
0
0
LINE
5
461
100
AcDbEntity
8
0
100
AcDbLine
10
-365.4502024434496
20
452.43000000000023
30
0
11
-365.4502024434496
21
457.34800000000018
31
0
0
LINE
5
462
100
AcDbEntity
8
0
100
AcDbLine
10
-365.4502024434496
20
457.34800000000018
30
0
11
-365.47920244344965
21
457.40100000000012
31
0
0
LINE
5
463
100
AcDbEntity
8
0
100
AcDbLine
10
-365.47920244344965
20
457.40100000000012
30
0
11
-365.53320244344968
21
457.4290000000002
31
0
0
LINE
5
464
100
AcDbEntity
8
0
100
AcDbLine
10
-365.53320244344968
20
457.4290000000002
30
0
11
-375.56820244344971
21
457.4290000000002
31
0
0
LINE
5
465
100
AcDbEntity
8
0
100
AcDbLine
10
-375.56820244344971
20
457.4290000000002
30
0
11
-375.62220244344962
21
457.40100000000012
31
0
0
LINE
5
466
100
AcDbEntity
8
0
100
AcDbLine
10
-375.62220244344962
20
457.40100000000012
30
0
11
-375.65020244344964
21
457.34800000000018
31
0
0
LINE
5
467
100
AcDbEntity
8
0
100
AcDbLine
10
-375.65020244344964
20
457.34800000000018
30
0
11
-375.65020244344964
21
452.43000000000023
31
0
0
LINE
5
468
100
AcDbEntity
8
0
100
AcDbLine
10
-375.65020244344964
20
452.43000000000023
30
0
11
-385.45020244344971
21
452.43000000000023
31
0
0
LINE
5
469
100
AcDbEntity
8
0
100
AcDbLine
10
-385.45020244344971
20
452.43000000000023
30
0
11
-385.45020244344971
21
457.34800000000018
31
0
0
LINE
5
470
100
AcDbEntity
8
0
100
AcDbLine
10
-385.45020244344971
20
457.34800000000018
30
0
11
-385.48020244344968
21
457.40100000000012
31
0
0
LINE
5
471
100
AcDbEntity
8
0
100
AcDbLine
10
-385.48020244344968
20
457.40100000000012
30
0
11
-385.53420244344971
21
457.4290000000002
31
0
0
LINE
5
472
100
AcDbEntity
8
0
100
AcDbLine
10
-385.53420244344971
20
457.4290000000002
30
0
11
-395.56720244344967
21
457.4290000000002
31
0
0
LINE
5
473
100
AcDbEntity
8
0
100
AcDbLine
10
-395.56720244344967
20
457.4290000000002
30
0
11
-395.62120244344965
21
457.40100000000012
31
0
0
LINE
5
474
100
AcDbEntity
8
0
100
AcDbLine
10
-395.62120244344965
20
457.40100000000012
30
0
11
-395.65020244344964
21
457.34800000000018
31
0
0
LINE
5
475
100
AcDbEntity
8
0
100
AcDbLine
10
-395.65020244344964
20
457.34800000000018
30
0
11
-395.65020244344964
21
452.43000000000023
31
0
0
LINE
5
476
100
AcDbEntity
8
0
100
AcDbLine
10
-395.65020244344964
20
452.43000000000023
30
0
11
-405.45120244344963
21
452.43000000000023
31
0
0
LINE
5
477
100
AcDbEntity
8
0
100
AcDbLine
10
-405.45120244344963
20
452.43000000000023
30
0
11
-405.45120244344963
21
457.34800000000018
31
0
0
LINE
5
478
100
AcDbEntity
8
0
100
AcDbLine
10
-405.45120244344963
20
457.34800000000018
30
0
11
-405.48020244344968
21
457.40100000000012
31
0
0
LINE
5
479
100
AcDbEntity
8
0
100
AcDbLine
10
-405.48020244344968
20
457.40100000000012
30
0
11
-405.53320244344968
21
457.4290000000002
31
0
0
LINE
5
480
100
AcDbEntity
8
0
100
AcDbLine
10
-405.53320244344968
20
457.4290000000002
30
0
11
-415.56820244344965
21
457.4290000000002
31
0
0
LINE
5
481
100
AcDbEntity
8
0
100
AcDbLine
10
-415.56820244344965
20
457.4290000000002
30
0
11
-415.62220244344962
21
457.40100000000012
31
0
0
LINE
5
482
100
AcDbEntity
8
0
100
AcDbLine
10
-415.62220244344962
20
457.40100000000012
30
0
11
-415.65120244344968
21
457.34800000000018
31
0
0
LINE
5
483
100
AcDbEntity
8
0
100
AcDbLine
10
-415.65120244344968
20
457.34800000000018
30
0
11
-415.65120244344968
21
452.43000000000023
31
0
0
LINE
5
484
100
AcDbEntity
8
0
100
AcDbLine
10
-415.65120244344968
20
452.43000000000023
30
0
11
-425.45020244344971
21
452.43000000000023
31
0
0
LINE
5
485
100
AcDbEntity
8
0
100
AcDbLine
10
-425.45020244344971
20
452.43000000000023
30
0
11
-425.45020244344971
21
457.34800000000018
31
0
0
LINE
5
486
100
AcDbEntity
8
0
100
AcDbLine
10
-425.45020244344971
20
457.34800000000018
30
0
11
-425.48020244344968
21
457.40100000000012
31
0
0
LINE
5
487
100
AcDbEntity
8
0
100
AcDbLine
10
-425.48020244344968
20
457.40100000000012
30
0
11
-425.53420244344966
21
457.4290000000002
31
0
0
LINE
5
488
100
AcDbEntity
8
0
100
AcDbLine
10
-425.53420244344966
20
457.4290000000002
30
0
11
-435.56780244344964
21
457.4290000000002
31
0
0
LINE
5
489
100
AcDbEntity
8
0
100
AcDbLine
10
-435.56780244344964
20
457.4290000000002
30
0
11
-435.62140244344965
21
457.40100000000012
31
0
0
LINE
5
490
100
AcDbEntity
8
0
100
AcDbLine
10
-435.62140244344965
20
457.40100000000012
30
0
11
-435.65040244344965
21
457.34800000000018
31
0
0
LINE
5
491
100
AcDbEntity
8
0
100
AcDbLine
10
-435.65040244344965
20
457.34800000000018
30
0
11
-435.65040244344965
21
452.43000000000023
31
0
0
LINE
5
492
100
AcDbEntity
8
0
100
AcDbLine
10
-435.65040244344965
20
452.43000000000023
30
0
11
-445.44980244344964
21
452.43000000000023
31
0
0
LINE
5
493
100
AcDbEntity
8
0
100
AcDbLine
10
-445.44980244344964
20
452.43000000000023
30
0
11
-445.44980244344964
21
457.34800000000018
31
0
0
LINE
5
494
100
AcDbEntity
8
0
100
AcDbLine
10
-445.44980244344964
20
457.34800000000018
30
0
11
-445.48020244344968
21
457.40100000000012
31
0
0
LINE
5
495
100
AcDbEntity
8
0
100
AcDbLine
10
-445.48020244344968
20
457.40100000000012
30
0
11
-445.53380244344964
21
457.4290000000002
31
0
0
LINE
5
496
100
AcDbEntity
8
0
100
AcDbLine
10
-445.53380244344964
20
457.4290000000002
30
0
11
-455.56860244344966
21
457.4290000000002
31
0
0
LINE
5
497
100
AcDbEntity
8
0
100
AcDbLine
10
-455.56860244344966
20
457.4290000000002
30
0
11
-455.62110244344967
21
457.40100000000012
31
0
0
LINE
5
498
100
AcDbEntity
8
0
100
AcDbLine
10
-455.62110244344967
20
457.40100000000012
30
0
11
-455.65010244344967
21
457.34800000000018
31
0
0
LINE
5
499
100
AcDbEntity
8
0
100
AcDbLine
10
-455.65010244344967
20
457.34800000000018
30
0
11
-455.65010244344967
21
452.43000000000023
31
0
0
LINE
5
500
100
AcDbEntity
8
0
100
AcDbLine
10
-455.65010244344967
20
452.43000000000023
30
0
11
-465.45060244344967
21
452.43000000000023
31
0
0
LINE
5
501
100
AcDbEntity
8
0
100
AcDbLine
10
-465.45060244344967
20
452.43000000000023
30
0
11
-465.45060244344967
21
457.34800000000018
31
0
0
LINE
5
502
100
AcDbEntity
8
0
100
AcDbLine
10
-465.45060244344967
20
457.34800000000018
30
0
11
-465.47950244344969
21
457.40100000000012
31
0
0
LINE
5
503
100
AcDbEntity
8
0
100
AcDbLine
10
-465.47950244344969
20
457.40100000000012
30
0
11
-465.53310244344965
21
457.4290000000002
31
0
0
LINE
5
504
100
AcDbEntity
8
0
100
AcDbLine
10
-465.53310244344965
20
457.4290000000002
30
0
11
-475.56820244344971
21
457.4290000000002
31
0
0
LINE
5
505
100
AcDbEntity
8
0
100
AcDbLine
10
-475.56820244344971
20
457.4290000000002
30
0
11
-475.62040244344962
21
457.40100000000012
31
0
0
LINE
5
506
100
AcDbEntity
8
0
100
AcDbLine
10
-475.62040244344962
20
457.40100000000012
30
0
11
-475.64940244344967
21
457.34800000000018
31
0
0
LINE
5
507
100
AcDbEntity
8
0
100
AcDbLine
10
-475.64940244344967
20
457.34800000000018
30
0
11
-475.64940244344967
21
452.43000000000023
31
0
0
LINE
5
508
100
AcDbEntity
8
0
100
AcDbLine
10
-475.64940244344967
20
452.43000000000023
30
0
11
-485.44990244344967
21
452.43000000000023
31
0
0
LINE
5
509
100
AcDbEntity
8
0
100
AcDbLine
10
-485.44990244344967
20
452.43000000000023
30
0
11
-485.44990244344967
21
457.34800000000018
31
0
0
LINE
5
510
100
AcDbEntity
8
0
100
AcDbLine
10
-485.44990244344967
20
457.34800000000018
30
0
11
-485.48020244344968
21
457.40100000000012
31
0
0
LINE
5
511
100
AcDbEntity
8
0
100
AcDbLine
10
-485.48020244344968
20
457.40100000000012
30
0
11
-485.53420244344966
21
457.4290000000002
31
0
0
LINE
5
512
100
AcDbEntity
8
0
100
AcDbLine
10
-485.53420244344966
20
457.4290000000002
30
0
11
-495.56760244344963
21
457.4290000000002
31
0
0
LINE
5
513
100
AcDbEntity
8
0
100
AcDbLine
10
-495.56760244344963
20
457.4290000000002
30
0
11
-495.62120244344965
21
457.40100000000012
31
0
0
LINE
5
514
100
AcDbEntity
8
0
100
AcDbLine
10
-495.62120244344965
20
457.40100000000012
30
0
11
-495.65010244344967
21
457.34800000000018
31
0
0
LINE
5
515
100
AcDbEntity
8
0
100
AcDbLine
10
-495.65010244344967
20
457.34800000000018
30
0
11
-495.65010244344967
21
452.43000000000023
31
0
0
LINE
5
516
100
AcDbEntity
8
0
100
AcDbLine
10
-495.65010244344967
20
452.43000000000023
30
0
11
-505.45080244344967
21
452.43000000000023
31
0
0
LINE
5
517
100
AcDbEntity
8
0
100
AcDbLine
10
-505.45080244344967
20
452.43000000000023
30
0
11
-505.45080244344967
21
457.34800000000018
31
0
0
LINE
5
518
100
AcDbEntity
8
0
100
AcDbLine
10
-505.45080244344967
20
457.34800000000018
30
0
11
-505.47980244344961
21
457.40100000000012
31
0
0
LINE
5
519
100
AcDbEntity
8
0
100
AcDbLine
10
-505.47980244344961
20
457.40100000000012
30
0
11
-505.53350244344972
21
457.4290000000002
31
0
0
LINE
5
520
100
AcDbEntity
8
0
100
AcDbLine
10
-505.53350244344972
20
457.4290000000002
30
0
11
-522.96850244344967
21
457.4290000000002
31
0
0
LINE
5
521
100
AcDbEntity
8
0
100
AcDbLine
10
-522.96850244344967
20
457.4290000000002
30
0
11
-523.02080244344961
21
457.40100000000012
31
0
0
LINE
5
522
100
AcDbEntity
8
0
100
AcDbLine
10
-523.02080244344961
20
457.40100000000012
30
0
11
-523.04980244344972
21
457.34800000000018
31
0
0
LINE
5
523
100
AcDbEntity
8
0
100
AcDbLine
10
-523.04980244344972
20
457.34800000000018
30
0
11
-523.04980244344972
21
433.71200000000016
31
0
0
LINE
5
524
100
AcDbEntity
8
0
100
AcDbLine
10
-523.04980244344972
20
433.71200000000016
30
0
11
-523.02080244344961
21
433.65900000000022
31
0
0
LINE
5
525
100
AcDbEntity
8
0
100
AcDbLine
10
-523.02080244344961
20
433.65900000000022
30
0
11
-522.96850244344967
21
433.63000000000011
31
0
0
LINE
5
526
100
AcDbEntity
8
0
100
AcDbLine
10
-522.96850244344967
20
433.63000000000011
30
0
11
-518.05030244344971
21
433.63000000000011
31
0
0
LINE
5
527
100
AcDbEntity
8
0
100
AcDbLine
10
-518.05030244344971
20
433.63000000000011
30
0
11
-518.05030244344971
21
423.83000000000027
31
0
0
LINE
5
528
100
AcDbEntity
8
0
100
AcDbLine
10
-518.05030244344971
20
423.83000000000027
30
0
11
-522.96850244344967
21
423.83000000000027
31
0
0
LINE
5
529
100
AcDbEntity
8
0
100
AcDbLine
10
-522.96850244344967
20
423.83000000000027
30
0
11
-523.02080244344961
21
423.80200000000013
31
0
0
LINE
5
530
100
AcDbEntity
8
0
100
AcDbLine
10
-523.02080244344961
20
423.80200000000013
30
0
11
-523.04980244344972
21
423.74900000000025
31
0
0
LINE
5
531
100
AcDbEntity
8
0
100
AcDbLine
10
-523.04980244344972
20
423.74900000000025
30
0
11
-523.04980244344972
21
413.71300000000019
31
0
0
LINE
5
532
100
AcDbEntity
8
0
100
AcDbLine
10
-523.04980244344972
20
413.71300000000019
30
0
11
-523.02080244344961
21
413.66000000000014
31
0
0
LINE
5
533
100
AcDbEntity
8
0
100
AcDbLine
10
-523.02080244344961
20
413.66000000000014
30
0
11
-522.96850244344967
21
413.6310000000002
31
0
0
LINE
5
534
100
AcDbEntity
8
0
100
AcDbLine
10
-522.96850244344967
20
413.6310000000002
30
0
11
-518.05030244344971
21
413.6310000000002
31
0
0
LINE
5
535
100
AcDbEntity
8
0
100
AcDbLine
10
-518.05030244344971
20
413.6310000000002
30
0
11
-518.05030244344971
21
403.83100000000013
31
0
0
LINE
5
536
100
AcDbEntity
8
0
100
AcDbLine
10
-518.05030244344971
20
403.83100000000013
30
0
11
-522.96850244344967
21
403.83100000000013
31
0
0
LINE
5
537
100
AcDbEntity
8
0
100
AcDbLine
10
-522.96850244344967
20
403.83100000000013
30
0
11
-523.02080244344961
21
403.80000000000024
31
0
0
LINE
5
538
100
AcDbEntity
8
0
100
AcDbLine
10
-523.02080244344961
20
403.80000000000024
30
0
11
-523.04980244344972
21
403.74700000000018
31
0
0
LINE
5
539
100
AcDbEntity
8
0
100
AcDbLine
10
-523.04980244344972
20
403.74700000000018
30
0
11
-523.04980244344972
21
393.71400000000023
31
0
0
LINE
5
540
100
AcDbEntity
8
0
100
AcDbLine
10
-523.04980244344972
20
393.71400000000023
30
0
11
-523.02080244344961
21
393.66100000000017
31
0
0
LINE
5
541
100
AcDbEntity
8
0
100
AcDbLine
10
-523.02080244344961
20
393.66100000000017
30
0
11
-522.96850244344967
21
393.62900000000025
31
0
0
LINE
5
542
100
AcDbEntity
8
0
100
AcDbLine
10
-522.96850244344967
20
393.62900000000025
30
0
11
-518.05030244344971
21
393.62900000000025
31
0
0
LINE
5
543
100
AcDbEntity
8
0
100
AcDbLine
10
-518.05030244344971
20
393.62900000000025
30
0
11
-518.05030244344971
21
383.82900000000018
31
0
0
LINE
5
544
100
AcDbEntity
8
0
100
AcDbLine
10
-518.05030244344971
20
383.82900000000018
30
0
11
-522.96850244344967
21
383.82900000000018
31
0
0
LINE
5
545
100
AcDbEntity
8
0
100
AcDbLine
10
-522.96850244344967
20
383.82900000000018
30
0
11
-523.02080244344961
21
383.80100000000016
31
0
0
LINE
5
546
100
AcDbEntity
8
0
100
AcDbLine
10
-523.02080244344961
20
383.80100000000016
30
0
11
-523.04980244344972
21
383.74800000000022
31
0
0
LINE
5
547
100
AcDbEntity
8
0
100
AcDbLine
10
-523.04980244344972
20
383.74800000000022
30
0
11
-523.04980244344972
21
373.71500000000015
31
0
0
LINE
5
548
100
AcDbEntity
8
0
100
AcDbLine
10
-523.04980244344972
20
373.71500000000015
30
0
11
-523.02080244344961
21
373.65800000000024
31
0
0
LINE
5
549
100
AcDbEntity
8
0
100
AcDbLine
10
-523.02080244344961
20
373.65800000000024
30
0
11
-522.96850244344967
21
373.63000000000011
31
0
0
LINE
5
550
100
AcDbEntity
8
0
100
AcDbLine
10
-522.96850244344967
20
373.63000000000011
30
0
11
-518.05030244344971
21
373.63000000000011
31
0
0
LINE
5
551
100
AcDbEntity
8
0
100
AcDbLine
10
-518.05030244344971
20
373.63000000000011
30
0
11
-518.05030244344971
21
363.83000000000027
31
0
0
LINE
5
552
100
AcDbEntity
8
0
100
AcDbLine
10
-518.05030244344971
20
363.83000000000027
30
0
11
-522.96850244344967
21
363.83000000000027
31
0
0
LINE
5
553
100
AcDbEntity
8
0
100
AcDbLine
10
-522.96850244344967
20
363.83000000000027
30
0
11
-523.02080244344961
21
363.80200000000013
31
0
0
LINE
5
554
100
AcDbEntity
8
0
100
AcDbLine
10
-523.02080244344961
20
363.80200000000013
30
0
11
-523.04980244344972
21
363.74900000000025
31
0
0
LINE
5
555
100
AcDbEntity
8
0
100
AcDbLine
10
-523.04980244344972
20
363.74900000000025
30
0
11
-523.04980244344972
21
353.71200000000016
31
0
0
LINE
5
556
100
AcDbEntity
8
0
100
AcDbLine
10
-523.04980244344972
20
353.71200000000016
30
0
11
-523.02080244344961
21
353.65900000000011
31
0
0
LINE
5
557
100
AcDbEntity
8
0
100
AcDbLine
10
-523.02080244344961
20
353.65900000000011
30
0
11
-522.96850244344967
21
353.6310000000002
31
0
0
LINE
5
558
100
AcDbEntity
8
0
100
AcDbLine
10
-522.96850244344967
20
353.6310000000002
30
0
11
-518.05030244344971
21
353.6310000000002
31
0
0
LINE
5
559
100
AcDbEntity
8
0
100
AcDbLine
10
-518.05030244344971
20
353.6310000000002
30
0
11
-518.05030244344971
21
343.83100000000013
31
-3.6977854932234928e-31
0
LINE
5
560
100
AcDbEntity
8
0
100
AcDbLine
10
-518.05030244344971
20
343.83100000000013
30
-3.6977854932234928e-31
11
-522.96850244344967
21
343.83100000000013
31
0
0
LINE
5
561
100
AcDbEntity
8
0
100
AcDbLine
10
-522.96850244344967
20
343.83100000000013
30
0
11
-523.02080244344961
21
343.80300000000022
31
0
0
LINE
5
562
100
AcDbEntity
8
0
100
AcDbLine
10
-523.02080244344961
20
343.80300000000022
30
0
11
-523.04980244344972
21
343.74600000000015
31
0
0
LINE
5
563
100
AcDbEntity
8
0
100
AcDbLine
10
-523.04980244344972
20
343.74600000000015
30
0
11
-523.04980244344972
21
333.71300000000019
31
0
0
LINE
5
564
100
AcDbEntity
8
0
100
AcDbLine
10
-523.04980244344972
20
333.71300000000019
30
0
11
-523.02080244344961
21
333.66000000000014
31
0
0
LINE
5
565
100
AcDbEntity
8
0
100
AcDbLine
10
-523.02080244344961
20
333.66000000000014
30
0
11
-522.96850244344967
21
333.62800000000021
31
0
0
LINE
5
566
100
AcDbEntity
8
0
100
AcDbLine
10
-522.96850244344967
20
333.62800000000021
30
0
11
-518.05030244344971
21
333.62800000000021
31
0
0
LINE
5
567
100
AcDbEntity
8
0
100
AcDbLine
10
-518.05030244344971
20
333.62800000000021
30
0
11
-518.05030244344971
21
323.82900000000018
31
-9.8607613152626476e-31
0
LINE
5
568
100
AcDbEntity
8
0
100
AcDbLine
10
-518.05030244344971
20
323.82900000000018
30
-9.8607613152626476e-31
11
-522.96850244344967
21
323.82900000000018
31
0
0
LINE
5
569
100
AcDbEntity
8
0
100
AcDbLine
10
-522.96850244344967
20
323.82900000000018
30
0
11
-523.02080244344961
21
323.80000000000024
31
0
0
LINE
5
570
100
AcDbEntity
8
0
100
AcDbLine
10
-523.02080244344961
20
323.80000000000024
30
0
11
-523.04980244344972
21
323.74800000000022
31
0
0
LINE
5
571
100
AcDbEntity
8
0
100
AcDbLine
10
-523.04980244344972
20
323.74800000000022
30
0
11
-523.04980244344972
21
313.71300000000019
31
0
0
LINE
5
572
100
AcDbEntity
8
0
100
AcDbLine
10
-523.04980244344972
20
313.71300000000019
30
0
11
-523.02080244344961
21
313.6600000000002
31
0
0
LINE
5
573
100
AcDbEntity
8
0
100
AcDbLine
10
-523.02080244344961
20
313.6600000000002
30
0
11
-522.96850244344967
21
313.6290000000003
31
0
0
LINE
5
574
100
AcDbEntity
8
0
100
AcDbLine
10
-522.96850244344967
20
313.6290000000003
30
0
11
-518.05030244344971
21
313.6290000000003
31
0
0
LINE
5
575
100
AcDbEntity
8
0
100
AcDbLine
10
-518.05030244344971
20
313.6290000000003
30
0
11
-518.05030244344971
21
303.83000000000015
31
0
0
LINE
5
576
100
AcDbEntity
8
0
100
AcDbLine
10
-518.05030244344971
20
303.83000000000015
30
0
11
-522.96850244344967
21
303.83000000000015
31
0
0
LINE
5
577
100
AcDbEntity
8
0
100
AcDbLine
10
-522.96850244344967
20
303.83000000000015
30
0
11
-523.02080244344961
21
303.80100000000016
31
0
0
LINE
5
578
100
AcDbEntity
8
0
100
AcDbLine
10
-523.02080244344961
20
303.80100000000016
30
0
11
-523.04980244344972
21
303.74700000000024
31
0
0
LINE
5
579
100
AcDbEntity
8
0
100
AcDbLine
10
-523.04980244344972
20
303.74700000000024
30
0
11
-523.04980244344972
21
293.71400000000028
31
-1.1093356479670479e-30
0
LINE
5
580
100
AcDbEntity
8
0
100
AcDbLine
10
-523.04980244344972
20
293.71400000000028
30
-1.1093356479670479e-30
11
-523.02080244344961
21
293.6600000000002
31
0
0
LINE
5
581
100
AcDbEntity
8
0
100
AcDbLine
10
-523.02080244344961
20
293.6600000000002
30
0
11
-522.96850244344967
21
293.63000000000017
31
0
0
LINE
5
582
100
AcDbEntity
8
0
100
AcDbLine
10
-522.96850244344967
20
293.63000000000017
30
0
11
-518.05030244344971
21
293.63000000000017
31
0
0
LINE
5
583
100
AcDbEntity
8
0
100
AcDbLine
10
-518.05030244344971
20
293.63000000000017
30
0
11
-518.05030244344971
21
283.83000000000015
31
0
0
LINE
5
584
100
AcDbEntity
8
0
100
AcDbLine
10
-518.05030244344971
20
283.83000000000015
30
0
11
-522.96850244344967
21
283.83000000000015
31
0
0
LINE
5
585
100
AcDbEntity
8
0
100
AcDbLine
10
-522.96850244344967
20
283.83000000000015
30
0
11
-523.02080244344961
21
283.80100000000016
31
0
0
LINE
5
586
100
AcDbEntity
8
0
100
AcDbLine
10
-523.02080244344961
20
283.80100000000016
30
0
11
-523.04980244344972
21
283.74800000000027
31
0
0
LINE
5
587
100
AcDbEntity
8
0
100
AcDbLine
10
-523.04980244344972
20
283.74800000000027
30
0
11
-523.04980244344972
21
273.71300000000025
31
0
0
LINE
5
588
100
AcDbEntity
8
0
100
AcDbLine
10
-523.04980244344972
20
273.71300000000025
30
0
11
-523.02080244344961
21
273.65900000000016
31
0
0
LINE
5
589
100
AcDbEntity
8
0
100
AcDbLine
10
-523.02080244344961
20
273.65900000000016
30
0
11
-522.96850244344967
21
273.63000000000017
31
0
0
LINE
5
590
100
AcDbEntity
8
0
100
AcDbLine
10
-522.96850244344967
20
273.63000000000017
30
0
11
-518.05030244344971
21
273.63000000000017
31
0
0
LINE
5
591
100
AcDbEntity
8
0
100
AcDbLine
10
-518.05030244344971
20
273.63000000000017
30
0
11
-518.05030244344971
21
263.83000000000027
31
0
0
LINE
5
592
100
AcDbEntity
8
0
100
AcDbLine
10
-518.05030244344971
20
263.83000000000027
30
0
11
-522.96850244344967
21
263.83000000000027
31
0
0
LINE
5
593
100
AcDbEntity
8
0
100
AcDbLine
10
-522.96850244344967
20
263.83000000000027
30
0
11
-523.02080244344961
21
263.80100000000016
31
0
0
LINE
5
594
100
AcDbEntity
8
0
100
AcDbLine
10
-523.02080244344961
20
263.80100000000016
30
0
11
-523.04980244344972
21
263.74900000000031
31
0
0
LINE
5
595
100
AcDbEntity
8
0
100
AcDbLine
10
-523.04980244344972
20
263.74900000000031
30
0
11
-523.04980244344972
21
253.71300000000022
31
0
0
LINE
5
596
100
AcDbEntity
8
0
100
AcDbLine
10
-523.04980244344972
20
253.71300000000022
30
0
11
-523.02080244344961
21
253.66000000000017
31
0
0
LINE
5
597
100
AcDbEntity
8
0
100
AcDbLine
10
-523.02080244344961
20
253.66000000000017
30
0
11
-522.96850244344967
21
253.6310000000002
31
0
0
LINE
5
598
100
AcDbEntity
8
0
100
AcDbLine
10
-522.96850244344967
20
253.6310000000002
30
0
11
-518.05030244344971
21
253.6310000000002
31
0
0
LINE
5
599
100
AcDbEntity
8
0
100
AcDbLine
10
-518.05030244344971
20
253.6310000000002
30
0
11
-518.05030244344971
21
243.83000000000027
31
0
0
LINE
5
600
100
AcDbEntity
8
0
100
AcDbLine
10
-518.05030244344971
20
243.83000000000027
30
0
11
-522.96850244344967
21
243.83000000000027
31
0
0
LINE
5
601
100
AcDbEntity
8
0
100
AcDbLine
10
-522.96850244344967
20
243.83000000000027
30
0
11
-523.02080244344961
21
243.80100000000016
31
0
0
LINE
5
602
100
AcDbEntity
8
0
100
AcDbLine
10
-523.02080244344961
20
243.80100000000016
30
0
11
-523.04980244344972
21
243.74700000000021
31
0
0
LINE
5
603
100
AcDbEntity
8
0
100
AcDbLine
10
-523.04980244344972
20
243.74700000000021
30
0
11
-523.04980244344972
21
233.71400000000025
31
0
0
LINE
5
604
100
AcDbEntity
8
0
100
AcDbLine
10
-523.04980244344972
20
233.71400000000025
30
0
11
-523.02080244344961
21
233.66000000000017
31
0
0
LINE
5
605
100
AcDbEntity
8
0
100
AcDbLine
10
-523.02080244344961
20
233.66000000000017
30
0
11
-522.96850244344967
21
233.63000000000017
31
0
0
LINE
5
606
100
AcDbEntity
8
0
100
AcDbLine
10
-522.96850244344967
20
233.63000000000017
30
0
11
-518.05030244344971
21
233.63000000000017
31
0
0
LINE
5
607
100
AcDbEntity
8
0
100
AcDbLine
10
-518.05030244344971
20
233.63000000000017
30
0
11
-518.05030244344971
21
223.82900000000024
31
0
0
LINE
5
608
100
AcDbEntity
8
0
100
AcDbLine
10
-518.05030244344971
20
223.82900000000024
30
0
11
-522.96850244344967
21
223.82900000000024
31
0
0
LINE
5
609
100
AcDbEntity
8
0
100
AcDbLine
10
-522.96850244344967
20
223.82900000000024
30
0
11
-523.02080244344961
21
223.80000000000013
31
0
0
LINE
5
610
100
AcDbEntity
8
0
100
AcDbLine
10
-523.02080244344961
20
223.80000000000013
30
0
11
-523.04980244344972
21
223.74800000000025
31
0
0
LINE
5
611
100
AcDbEntity
8
0
100
AcDbLine
10
-523.04980244344972
20
223.74800000000025
30
0
11
-523.04980244344972
21
213.71300000000022
31
0
0
LINE
5
612
100
AcDbEntity
8
0
100
AcDbLine
10
-523.04980244344972
20
213.71300000000022
30
0
11
-523.02080244344961
21
213.65900000000028
31
0
0
LINE
5
613
100
AcDbEntity
8
0
100
AcDbLine
10
-523.02080244344961
20
213.65900000000028
30
0
11
-522.96850244344967
21
213.63000000000017
31
0
0
LINE
5
614
100
AcDbEntity
8
0
100
AcDbLine
10
-522.96850244344967
20
213.63000000000017
30
0
11
-518.05030244344971
21
213.63000000000017
31
0
0
LINE
5
615
100
AcDbEntity
8
0
100
AcDbLine
10
-518.05030244344971
20
213.63000000000017
30
0
11
-518.05030244344971
21
203.83000000000027
31
0
0
LINE
5
616
100
AcDbEntity
8
0
100
AcDbLine
10
-518.05030244344971
20
203.83000000000027
30
0
11
-522.96850244344967
21
203.83000000000027
31
0
0
LINE
5
617
100
AcDbEntity
8
0
100
AcDbLine
10
-522.96850244344967
20
203.83000000000027
30
0
11
-523.02080244344961
21
203.80100000000016
31
0
0
LINE
5
618
100
AcDbEntity
8
0
100
AcDbLine
10
-523.02080244344961
20
203.80100000000016
30
0
11
-523.04980244344972
21
203.74800000000025
31
0
0
LINE
5
619
100
AcDbEntity
8
0
100
AcDbLine
10
-523.04980244344972
20
203.74800000000025
30
0
11
-523.04980244344972
21
193.71400000000025
31
0
0
LINE
5
620
100
AcDbEntity
8
0
100
AcDbLine
10
-523.04980244344972
20
193.71400000000025
30
0
11
-523.02080244344961
21
193.66000000000017
31
0
0
LINE
5
621
100
AcDbEntity
8
0
100
AcDbLine
10
-523.02080244344961
20
193.66000000000017
30
0
11
-522.96850244344967
21
193.63000000000017
31
0
0
LINE
5
622
100
AcDbEntity
8
0
100
AcDbLine
10
-522.96850244344967
20
193.63000000000017
30
0
11
-518.05030244344971
21
193.63000000000017
31
0
0
LINE
5
623
100
AcDbEntity
8
0
100
AcDbLine
10
-518.05030244344971
20
193.63000000000017
30
0
11
-518.05030244344971
21
183.83000000000027
31
0
0
LINE
5
624
100
AcDbEntity
8
0
100
AcDbLine
10
-518.05030244344971
20
183.83000000000027
30
0
11
-522.96850244344967
21
183.83000000000027
31
0
0
LINE
5
625
100
AcDbEntity
8
0
100
AcDbLine
10
-522.96850244344967
20
183.83000000000027
30
0
11
-523.02080244344961
21
183.80100000000016
31
0
0
LINE
5
626
100
AcDbEntity
8
0
100
AcDbLine
10
-523.02080244344961
20
183.80100000000016
30
0
11
-523.04980244344972
21
183.74800000000025
31
0
0
LINE
5
627
100
AcDbEntity
8
0
100
AcDbLine
10
-523.04980244344972
20
183.74800000000025
30
0
11
-523.04980244344972
21
173.71300000000022
31
0
0
LINE
5
628
100
AcDbEntity
8
0
100
AcDbLine
10
-523.04980244344972
20
173.71300000000022
30
0
11
-523.02080244344961
21
173.65900000000028
31
0
0
LINE
5
629
100
AcDbEntity
8
0
100
AcDbLine
10
-523.02080244344961
20
173.65900000000028
30
0
11
-522.96850244344967
21
173.63000000000017
31
0
0
LINE
5
630
100
AcDbEntity
8
0
100
AcDbLine
10
-522.96850244344967
20
173.63000000000017
30
0
11
-518.05030244344971
21
173.63000000000017
31
0
0
LINE
5
631
100
AcDbEntity
8
0
100
AcDbLine
10
-518.05030244344971
20
173.63000000000017
30
0
11
-518.05030244344971
21
163.82900000000024
31
0
0
LINE
5
632
100
AcDbEntity
8
0
100
AcDbLine
10
-518.05030244344971
20
163.82900000000024
30
0
11
-522.96850244344967
21
163.82900000000024
31
0
0
LINE
5
633
100
AcDbEntity
8
0
100
AcDbLine
10
-522.96850244344967
20
163.82900000000024
30
0
11
-523.02080244344961
21
163.80100000000016
31
0
0
LINE
5
634
100
AcDbEntity
8
0
100
AcDbLine
10
-523.02080244344961
20
163.80100000000016
30
0
11
-523.04980244344972
21
163.7480000000001
31
0
0
LINE
5
635
100
AcDbEntity
8
0
100
AcDbLine
10
-523.04980244344972
20
163.7480000000001
30
0
11
-523.04980244344972
21
153.71300000000022
31
0
0
LINE
5
636
100
AcDbEntity
8
0
100
AcDbLine
10
-523.04980244344972
20
153.71300000000022
30
0
11
-523.02080244344961
21
153.66000000000017
31
0
0
LINE
5
637
100
AcDbEntity
8
0
100
AcDbLine
10
-523.02080244344961
20
153.66000000000017
30
0
11
-522.96850244344967
21
153.62900000000027
31
0
0
LINE
5
638
100
AcDbEntity
8
0
100
AcDbLine
10
-522.96850244344967
20
153.62900000000027
30
0
11
-518.05030244344971
21
153.62900000000027
31
0
0
LINE
5
639
100
AcDbEntity
8
0
100
AcDbLine
10
-518.05030244344971
20
153.62900000000027
30
0
11
-518.05030244344971
21
143.83000000000027
31
0
0
LINE
5
640
100
AcDbEntity
8
0
100
AcDbLine
10
-518.05030244344971
20
143.83000000000027
30
0
11
-522.96850244344967
21
143.83000000000027
31
0
0
LINE
5
641
100
AcDbEntity
8
0
100
AcDbLine
10
-522.96850244344967
20
143.83000000000027
30
0
11
-523.02080244344961
21
143.80100000000016
31
0
0
LINE
5
642
100
AcDbEntity
8
0
100
AcDbLine
10
-523.02080244344961
20
143.80100000000016
30
0
11
-523.04980244344972
21
143.74700000000021
31
0
0
LINE
5
643
100
AcDbEntity
8
0
100
AcDbLine
10
-523.04980244344972
20
143.74700000000021
30
0
11
-523.04980244344972
21
133.71400000000011
31
0
0
LINE
5
644
100
AcDbEntity
8
0
100
AcDbLine
10
-523.04980244344972
20
133.71400000000011
30
0
11
-523.02080244344961
21
133.66000000000017
31
0
0
LINE
5
645
100
AcDbEntity
8
0
100
AcDbLine
10
-523.02080244344961
20
133.66000000000017
30
0
11
-522.96850244344967
21
133.63000000000017
31
0
0
LINE
5
646
100
AcDbEntity
8
0
100
AcDbLine
10
-522.96850244344967
20
133.63000000000017
30
0
11
-518.05030244344971
21
133.63000000000017
31
0
0
LINE
5
647
100
AcDbEntity
8
0
100
AcDbLine
10
-518.05030244344971
20
133.63000000000017
30
0
11
-518.05030244344971
21
123.83100000000016
31
0
0
LINE
5
648
100
AcDbEntity
8
0
100
AcDbLine
10
-518.05030244344971
20
123.83100000000016
30
0
11
-522.96850244344967
21
123.83100000000016
31
0
0
LINE
5
649
100
AcDbEntity
8
0
100
AcDbLine
10
-522.96850244344967
20
123.83100000000016
30
0
11
-523.02080244344961
21
123.80200000000019
31
0
0
LINE
5
650
100
AcDbEntity
8
0
100
AcDbLine
10
-523.02080244344961
20
123.80200000000019
30
0
11
-523.04980244344972
21
123.74800000000025
31
0
0
LINE
5
651
100
AcDbEntity
8
0
100
AcDbLine
10
-523.04980244344972
20
123.74800000000025
30
0
11
-523.04980244344972
21
113.71300000000022
31
0
0
LINE
5
652
100
AcDbEntity
8
0
100
AcDbLine
10
-523.04980244344972
20
113.71300000000022
30
0
11
-523.02080244344961
21
113.65900000000028
31
0
0
LINE
5
653
100
AcDbEntity
8
0
100
AcDbLine
10
-523.02080244344961
20
113.65900000000028
30
0
11
-522.96850244344967
21
113.63000000000017
31
0
0
LINE
5
654
100
AcDbEntity
8
0
100
AcDbLine
10
-522.96850244344967
20
113.63000000000017
30
0
11
-518.05030244344971
21
113.63000000000017
31
0
0
LINE
5
655
100
AcDbEntity
8
0
100
AcDbLine
10
-518.05030244344971
20
113.63000000000017
30
0
11
-518.05030244344971
21
103.83000000000027
31
0
0
LINE
5
656
100
AcDbEntity
8
0
100
AcDbLine
10
-518.05030244344971
20
103.83000000000027
30
0
11
-522.96850244344967
21
103.83000000000027
31
0
0
LINE
5
657
100
AcDbEntity
8
0
100
AcDbLine
10
-522.96850244344967
20
103.83000000000027
30
0
11
-523.02080244344961
21
103.80100000000016
31
0
0
LINE
5
658
100
AcDbEntity
8
0
100
AcDbLine
10
-523.02080244344961
20
103.80100000000016
30
0
11
-523.04980244344972
21
103.74900000000014
31
0
0
LINE
5
659
100
AcDbEntity
8
0
100
AcDbLine
10
-523.04980244344972
20
103.74900000000014
30
0
11
-523.04980244344972
21
93.714000000000254
31
0
0
LINE
5
660
100
AcDbEntity
8
0
100
AcDbLine
10
-523.04980244344972
20
93.714000000000254
30
0
11
-523.02080244344961
21
93.660000000000167
31
0
0
LINE
5
661
100
AcDbEntity
8
0
100
AcDbLine
10
-523.02080244344961
20
93.660000000000167
30
0
11
-522.96850244344967
21
93.630000000000166
31
0
0
LINE
5
662
100
AcDbEntity
8
0
100
AcDbLine
10
-522.96850244344967
20
93.630000000000166
30
0
11
-518.05030244344971
21
93.630000000000166
31
0
0
LINE
5
663
100
AcDbEntity
8
0
100
AcDbLine
10
-518.05030244344971
20
93.630000000000166
30
0
11
-518.05030244344971
21
83.830000000000268
31
0
0
LINE
5
664
100
AcDbEntity
8
0
100
AcDbLine
10
-518.05030244344971
20
83.830000000000268
30
0
11
-522.96850244344967
21
83.830000000000268
31
0
0
LINE
5
665
100
AcDbEntity
8
0
100
AcDbLine
10
-522.96850244344967
20
83.830000000000268
30
0
11
-523.02080244344961
21
83.802000000000191
31
0
0
LINE
5
666
100
AcDbEntity
8
0
100
AcDbLine
10
-523.02080244344961
20
83.802000000000191
30
0
11
-523.04980244344972
21
83.748000000000246
31
0
0
LINE
5
667
100
AcDbEntity
8
0
100
AcDbLine
10
-523.04980244344972
20
83.748000000000246
30
0
11
-523.04980244344972
21
73.714200000000176
31
0
0
LINE
5
668
100
AcDbEntity
8
0
100
AcDbLine
10
-523.04980244344972
20
73.714200000000176
30
0
11
-523.02080244344961
21
73.660600000000215
31
0
0
LINE
5
669
100
AcDbEntity
8
0
100
AcDbLine
10
-523.02080244344961
20
73.660600000000215
30
0
11
-522.96850244344967
21
73.630200000000229
31
0
0
LINE
5
670
100
AcDbEntity
8
0
100
AcDbLine
10
-522.96850244344967
20
73.630200000000229
30
0
11
-518.05030244344971
21
73.630200000000229
31
0
0
LINE
5
671
100
AcDbEntity
8
0
100
AcDbLine
10
-518.05030244344971
20
73.630200000000229
30
0
11
-518.05030244344971
21
63.82940000000022
31
0
0
LINE
5
672
100
AcDbEntity
8
0
100
AcDbLine
10
-518.05030244344971
20
63.82940000000022
30
0
11
-522.96850244344967
21
63.82940000000022
31
0
0
LINE
5
673
100
AcDbEntity
8
0
100
AcDbLine
10
-522.96850244344967
20
63.82940000000022
30
0
11
-523.02080244344961
21
63.800400000000252
31
0
0
LINE
5
674
100
AcDbEntity
8
0
100
AcDbLine
10
-523.02080244344961
20
63.800400000000252
30
0
11
-523.04980244344972
21
63.748200000000168
31
0
0
LINE
5
675
100
AcDbEntity
8
0
100
AcDbLine
10
-523.04980244344972
20
63.748200000000168
30
0
11
-523.04980244344972
21
53.713400000000206
31
2.4651903288156619e-31
0
LINE
5
676
100
AcDbEntity
8
0
100
AcDbLine
10
-523.04980244344972
20
53.713400000000206
30
2.4651903288156619e-31
11
-523.02080244344961
21
53.659500000000151
31
0
0
LINE
5
677
100
AcDbEntity
8
0
100
AcDbLine
10
-523.02080244344961
20
53.659500000000151
30
0
11
-522.96850244344967
21
53.629100000000165
31
0
0
LINE
5
678
100
AcDbEntity
8
0
100
AcDbLine
10
-522.96850244344967
20
53.629100000000165
30
0
11
-518.05030244344971
21
53.629100000000165
31
0
0
LINE
5
679
100
AcDbEntity
8
0
100
AcDbLine
10
-518.05030244344971
20
53.629100000000165
30
0
11
-518.05030244344971
21
43.830000000000126
31
0
0
LWPOLYLINE
5
680
100
AcDbEntity
8
0
100
AcDbPolyline
90
4
70
1
43
0.0
10
-470.5507524434496
20
386.41608067308624
10
-470.5507524434496
20
384.41608067308619
10
-270.5507524434496
20
384.41608067308619
10
-270.5507524434496
20
386.41608067308624
0
LWPOLYLINE
5
681
100
AcDbEntity
8
0
100
AcDbPolyline
90
4
70
1
43
0.0
10
-470.5507524434496
20
415.71928067308619
10
-270.5507524434496
20
415.71928067308619
10
-270.5507524434496
20
417.71928067308625
10
-470.5507524434496
20
417.71928067308625
0
LWPOLYLINE
5
682
100
AcDbEntity
8
0
100
AcDbPolyline
90
4
70
1
43
0.0
10
-470.5507524434496
20
375.9816806730862
10
-470.5507524434496
20
373.9816806730862
10
-270.5507524434496
20
373.9816806730862
10
-270.5507524434496
20
375.9816806730862
0
LWPOLYLINE
5
683
100
AcDbEntity
8
0
100
AcDbPolyline
90
4
70
1
43
0.0
10
-470.5507524434496
20
396.85048067308622
10
-470.5507524434496
20
394.85048067308617
10
-270.5507524434496
20
394.85048067308617
10
-270.5507524434496
20
396.85048067308622
0
LWPOLYLINE
5
684
100
AcDbEntity
8
0
100
AcDbPolyline
90
4
70
1
43
0.0
10
-470.5507524434496
20
407.28488067308626
10
-470.5507524434496
20
405.28488067308621
10
-270.5507524434496
20
405.28488067308621
10
-270.5507524434496
20
407.28488067308626
0
LWPOLYLINE
5
685
100
AcDbEntity
8
0
100
AcDbPolyline
90
4
70
1
43
0.0
10
-470.5507524434496
20
365.54728067308622
10
-470.5507524434496
20
363.54728067308622
10
-270.5507524434496
20
363.54728067308622
10
-270.5507524434496
20
365.54728067308622
0
ENDSEC
0
SECTION
2
OBJECTS
0
DICTIONARY
5
C
100
AcDbDictionary
3
ACAD_GROUP
350
D
3
ACAD_MLINESTYLE
350
17
0
DICTIONARY
5
D
100
AcDbDictionary
0
DICTIONARY
5
1A
330
C
100
AcDbDictionary
0
DICTIONARY
5
17
100
AcDbDictionary
0
ENDSEC
0
EOF
