0
SECTION
2
HEADER
9
$INSUNITS
70
1
9
$ACADVER
1
AC1014
9
$HANDSEED
5
FFFF
0
ENDSEC
0
SECTION
2
TABLES
0
TABLE
2
VPORT
5
8
100
AcDbSymbolTable
0
ENDTAB
0
TABLE
2
LTYPE
5
5
100
AcDbSymbolTable
0
LTYPE
5
14
100
AcDbSymbolTableRecord
100
AcDbLinetypeTableRecord
2
BYBLOCK
70
0
0
LTYPE
5
15
100
AcDbSymbolTableRecord
100
AcDbLinetypeTableRecord
2
BYLAYER
70
0
0
ENDTAB
0
TABLE
2
LAYER
5
2
100
AcDbSymbolTable
70
2
0
LAYER
5
50
100
AcDbSymbolTableRecord
100
AcDbLayerTableRecord
2
0
70
0
6
CONTINUOUS
0
ENDTAB
0
TABLE
2
STYLE
5
3
100
AcDbSymbolTable
70
1
0
STYLE
5
11
100
AcDbSymbolTableRecord
100
AcDbTextStyleTableRecord
2
STANDARD
70
0
0
ENDTAB
0
TABLE
2
VIEW
5
6
100
AcDbSymbolTable
70
0
0
ENDTAB
0
TABLE
2
UCS
5
7
100
AcDbSymbolTable
70
0
0
ENDTAB
0
TABLE
2
APPID
5
9
100
AcDbSymbolTable
70
2
0
APPID
5
12
100
AcDbSymbolTableRecord
100
AcDbRegAppTableRecord
2
ACAD
70
0
0
ENDTAB
0
TABLE
2
DIMSTYLE
5
A
100
AcDbSymbolTable
70
1
0
ENDTAB
0
TABLE
2
BLOCK_RECORD
5
1
100
AcDbSymbolTable
70
1
0
BLOCK_RECORD
5
1F
100
AcDbSymbolTableRecord
100
AcDbBlockTableRecord
2
*MODEL_SPACE
0
BLOCK_RECORD
5
1B
100
AcDbSymbolTableRecord
100
AcDbBlockTableRecord
2
*PAPER_SPACE
0
ENDTAB
0
ENDSEC
0
SECTION
2
BLOCKS
0
BLOCK
5
20
100
AcDbEntity
100
AcDbBlockBegin
2
*MODEL_SPACE
0
ENDBLK
5
21
100
AcDbEntity
100
AcDbBlockEnd
0
BLOCK
5
1C
100
AcDbEntity
100
AcDbBlockBegin
2
*PAPER_SPACE
0
ENDBLK
5
1D
100
AcDbEntity
100
AcDbBlockEnd
0
ENDSEC
0
SECTION
2
ENTITIES
0
LWPOLYLINE
5
100
100
AcDbEntity
8
0
100
AcDbPolyline
90
256
70
1
43
0.0
10
-0.043802854330708581
20
-19.249495669291338
10
-0.030543142519685137
20
-19.344256692913387
10
-0.019627340157480324
20
-19.439748818897638
10
-0.011085296456692881
20
-19.535942913385828
10
-0.0049468700787401879
20
-19.632808661417325
10
-0.0012419190944880376
20
-19.730315748031497
10
-3.0036986231607443e-07
20
-19.828435826771653
10
-0.0012419190944880376
20
-19.926555905511808
10
-0.0049468700787401879
20
-20.02406456692913
10
-0.011085296456692881
20
-20.12092992125984
10
-0.019627340157480324
20
-20.217124015748031
10
-0.030543142519685137
20
-20.312615354330706
10
-0.043802854330708581
20
-20.407378346456689
10
-0.059376606299212542
20
-20.501377559055115
10
-0.077234543307086664
20
-20.594583464566927
10
-0.09734682283464563
20
-20.686970078740156
10
-0.11968356299212596
20
-20.778505905511807
10
-0.14421492913385836
20
-20.869159842519682
10
-0.17091105118110222
20
-20.958905511811022
10
-0.19974207480314954
20
-21.047709448818892
10
-0.23067812204724411
20
-21.135542125984248
10
-0.2636893700787401
20
-21.222373228346456
10
-0.29874595275590554
20
-21.30817559055118
10
-0.33581801181102361
20
-21.392918503937008
10
-0.37487566929133859
20
-21.476570078740153
10
-0.4158890551181102
20
-21.559104724409444
10
-0.45882842519685052
20
-21.640485433070864
10
-0.50366377952755903
20
-21.720691732283463
10
-0.5503653149606299
20
-21.7996842519685
10
-0.59890318897637784
20
-21.877438976377952
10
-0.64924751968503935
20
-21.953925196850392
10
-0.70136842519685028
20
-22.029113779527556
10
-0.75523618110236213
20
-22.102971259842519
10
-0.81082082677165357
20
-22.175470866141726
10
-0.86809248031496045
20
-22.246583858267716
10
-0.92702129921259846
20
-22.316277165354329
10
-0.98757736220472425
20
-22.384520866141731
10
-1.0497311023622045
20
-22.451287401574799
10
-1.1134522440944878
20
-22.516546850393702
10
-1.1787111023622048
20
-22.580268503937006
10
-1.2454780708661417
20
-22.642420866141734
10
-1.3137230314960631
20
-22.702977952755905
10
-1.3834161811023622
20
-22.761905511811019
10
-1.4545275590551179
20
-22.819177952755901
10
-1.5270275196850394
20
-22.87476299212598
10
-1.6008859055118112
20
-22.928630314960628
10
-1.6760731496062993
20
-22.980752755905513
10
-1.7525593307086615
20
-23.031097244094486
10
-1.8303144094488188
20
-23.079634645669284
10
-1.9093088582677165
20
-23.126336220472442
10
-1.9895124015748031
20
-23.171170472440945
10
-2.070895511811023
20
-23.214111417322833
10
-2.1534284645669288
20
-23.255122440944881
10
-2.2370808661417318
20
-23.294180314960631
10
-2.3218231496062987
20
-23.331253149606297
10
-2.4076254724409445
20
-23.36630984251968
10
-2.4944581889763775
20
-23.399321653543304
10
-2.5822911417322834
20
-23.43025748031496
10
-2.6710942913385827
20
-23.459088188976377
10
-2.7608385039370078
20
-23.485785039370075
10
-2.8514931102362207
20
-23.510316929133857
10
-2.9430287401574802
20
-23.532652362204725
10
-3.0354152755905508
20
-23.552764960629922
10
-3.128622755905512
20
-23.570621653543306
10
-3.2226220078740155
20
-23.586197637795273
10
-3.3173826771653534
20
-23.599457086614173
10
-3.4128750787401576
20
-23.610371259842516
10
-3.5090691338582678
20
-23.618913779527553
10
-3.6059348031496059
20
-23.625053149606302
10
-3.7034426771653535
20
-23.628756299212597
10
-3.8015626771653537
20
-23.62999881889764
10
-3.8996827165354326
20
-23.628756299212597
10
-3.9971905511811023
20
-23.625053149606302
10
-4.0940562992125979
20
-23.618913779527553
10
-4.1902503937007873
20
-23.610371259842516
10
-4.2857425196850398
20
-23.599457086614173
10
-4.3805035433070865
20
-23.586197637795276
10
-4.4745027559055108
20
-23.570621653543306
10
-4.5677102362204716
20
-23.552764960629922
10
-4.6600968503937006
20
-23.532652362204725
10
-4.7516322834645663
20
-23.510316929133861
10
-4.8422866141732293
20
-23.485785039370075
10
-4.9320307086614168
20
-23.459088188976377
10
-5.0208342519685027
20
-23.43025748031496
10
-5.1086673228346458
20
-23.399321653543304
10
-5.1954999999999982
20
-23.36630984251968
10
-5.2813023622047233
20
-23.331253149606297
10
-5.3660452755905501
20
-23.294180314960627
10
-5.4496976377952731
20
-23.255122440944881
10
-5.5322303149606293
20
-23.214111417322833
10
-5.613612992125983
20
-23.171170472440945
10
-5.6938165354330703
20
-23.126336220472442
10
-5.7728106299212589
20
-23.079634645669287
10
-5.8505665354330691
20
-23.031097244094486
10
-5.9270523622047238
20
-22.98075275590551
10
-6.0022397637795262
20
-22.928630314960628
10
-6.0760980314960618
20
-22.87476299212598
10
-6.1485976377952749
20
-22.819177952755904
10
-6.2197094488188966
20
-22.761905511811019
10
-6.2894023622047239
20
-22.702977952755905
10
-6.3576476377952753
20
-22.642420866141734
10
-6.4244153543307077
20
-22.580268503937006
10
-6.4896736220472437
20
-22.516546850393702
10
-6.5533944881889754
20
-22.451287401574799
10
-6.6155488188976364
20
-22.384520866141727
10
-6.6761047244094476
20
-22.316277165354329
10
-6.7350334645669294
20
-22.246583858267716
10
-6.7923059055118093
20
-22.175470866141726
10
-6.8478897637795262
20
-22.102971259842523
10
-6.9017582677165352
20
-22.029113779527556
10
-6.9538783464566922
20
-21.953925196850392
10
-7.0042228346456685
20
-21.877438976377952
10
-7.0527614173228343
20
-21.799684251968497
10
-7.0994625984251956
20
-21.720691732283463
10
-7.1442984251968502
20
-21.640485433070864
10
-7.1872381889763775
20
-21.55910472440944
10
-7.2282503937007885
20
-21.476570078740149
10
-7.267308267716535
20
-21.392918503937008
10
-7.3043799212598426
20
-21.30817559055118
10
-7.339436614173227
20
-21.222373228346456
10
-7.3724480314960621
20
-21.135542125984252
10
-7.4033842519685029
20
-21.047709448818892
10
-7.4322149606299215
20
-20.958905511811022
10
-7.4589110236220471
20
-20.869159842519682
10
-7.4834417322834641
20
-20.778505905511807
10
-7.5057779527559045
20
-20.68697007874016
10
-7.5258905511811021
20
-20.594583464566927
10
-7.5437484251968492
20
-20.501377559055115
10
-7.5593224409448805
20
-20.407378346456689
10
-7.5725826771653528
20
-20.312615354330706
10
-7.5834980314960623
20
-20.217124015748027
10
-7.5920405511811015
20
-20.12092992125984
10
-7.5981787401574801
20
-20.02406456692913
10
-7.601883464566928
20
-19.926555905511808
10
-7.6031251968503932
20
-19.828435826771653
10
-7.601883464566928
20
-19.730315748031497
10
-7.5981787401574801
20
-19.632808661417325
10
-7.5920405511811015
20
-19.535942913385824
10
-7.5834980314960623
20
-19.439748818897634
10
-7.5725826771653528
20
-19.344256692913387
10
-7.5593224409448805
20
-19.249495669291338
10
-7.5437484251968492
20
-19.1554968503937
10
-7.5258905511811021
20
-19.062288582677162
10
-7.5057779527559045
20
-18.969901968503933
10
-7.4834417322834641
20
-18.878367322834645
10
-7.4589110236220462
20
-18.787712204724411
10
-7.4322149606299215
20
-18.697968897637793
10
-7.4033842519685029
20
-18.609164960629922
10
-7.3724480314960621
20
-18.521331889763779
10
-7.339436614173227
20
-18.4345
10
-7.3043799212598408
20
-18.348697637795272
10
-7.2673082677165333
20
-18.263954724409448
10
-7.2282503937007867
20
-18.180301574803146
10
-7.1872381889763757
20
-18.097769685039371
10
-7.1442984251968502
20
-18.016386220472437
10
-7.0994625984251956
20
-17.936182677165352
10
-7.0527614173228343
20
-17.857188976377952
10
-7.0042228346456685
20
-17.779433070866141
10
-6.9538783464566922
20
-17.702946850393701
10
-6.9017582677165352
20
-17.627760629921262
10
-6.8478897637795262
20
-17.553901968503936
10
-6.7923059055118093
20
-17.481402362204722
10
-6.7350334645669294
20
-17.410290157480311
10
-6.6761047244094476
20
-17.340597244094486
10
-6.6155488188976364
20
-17.272351968503937
10
-6.5533944881889754
20
-17.205584645669287
10
-6.4896736220472437
20
-17.140326377952757
10
-6.4244153543307077
20
-17.076605905511812
10
-6.3576476377952753
20
-17.014450787401572
10
-6.2894023622047239
20
-16.953895275590554
10
-6.2197094488188966
20
-16.894966141732283
10
-6.1485976377952749
20
-16.837694094488189
10
-6.0760980314960618
20
-16.782109842519688
10
-6.0022397637795262
20
-16.728241732283465
10
-5.9270523622047238
20
-16.676121653543309
10
-5.8505665354330691
20
-16.625777165354332
10
-5.7728106299212589
20
-16.577238582677161
10
-5.6938165354330703
20
-16.530537007874017
10
-5.613612992125983
20
-16.485701574803148
10
-5.5322303149606293
20
-16.442761811023619
10
-5.4496976377952731
20
-16.401749212598425
10
-5.3660452755905501
20
-16.362691732283462
10
-5.2813023622047242
20
-16.325620078740158
10
-5.1955
20
-16.290562992125984
10
-5.1086673228346458
20
-16.257552362204724
10
-5.0208342519685027
20
-16.226615748031499
10
-4.9320307086614168
20
-16.197785039370078
10
-4.8422866141732293
20
-16.171089370078739
10
-4.7516322834645672
20
-16.146557480314961
10
-4.6600968503937015
20
-16.124222047244096
10
-4.5677102362204716
20
-16.104109055118109
10
-4.4745027559055108
20
-16.08625157480315
10
-4.3805035433070865
20
-16.070676771653542
10
-4.2857425196850398
20
-16.057417322834649
10
-4.1902503937007873
20
-16.046501968503936
10
-4.0940562992125979
20
-16.037959448818899
10
-3.9971905511811019
20
-16.031820866141729
10
-3.8996827165354326
20
-16.028115748031492
10
-3.8015626771653537
20
-16.026874409448819
10
-3.7034426771653535
20
-16.028115748031492
10
-3.6059348031496059
20
-16.031820866141729
10
-3.5090691338582678
20
-16.037959448818899
10
-3.4128750787401576
20
-16.046501968503936
10
-3.3173826771653543
20
-16.057417322834649
10
-3.2226220078740155
20
-16.070676771653542
10
-3.1286227559055124
20
-16.08625157480315
10
-3.0354152755905508
20
-16.104109055118109
10
-2.9430287401574802
20
-16.124222047244093
10
-2.8514931102362207
20
-16.146557480314961
10
-2.7608385039370078
20
-16.171089370078743
10
-2.6710942913385827
20
-16.197785039370078
10
-2.5822911417322834
20
-16.226615748031499
10
-2.4944581889763775
20
-16.257552362204724
10
-2.4076254724409445
20
-16.290562992125984
10
-2.3218231496062987
20
-16.325620078740158
10
-2.2370808661417323
20
-16.362691732283466
10
-2.1534284645669288
20
-16.401749212598421
10
-2.070895511811023
20
-16.442761811023619
10
-1.9895124015748031
20
-16.485701574803148
10
-1.909308858267716
20
-16.530537007874017
10
-1.8303144094488188
20
-16.577238582677161
10
-1.7525593307086615
20
-16.625777165354332
10
-1.6760731496062993
20
-16.676121653543309
10
-1.6008859055118112
20
-16.728241732283465
10
-1.5270275196850391
20
-16.782109842519684
10
-1.4545275590551181
20
-16.837694094488189
10
-1.3834161811023622
20
-16.894966141732287
10
-1.3137230314960631
20
-16.953895275590554
10
-1.2454780708661417
20
-17.014450787401572
10
-1.1787111023622048
20
-17.076605905511812
10
-1.1134522440944878
20
-17.140326377952761
10
-1.0497311023622045
20
-17.205584645669287
10
-0.98757736220472425
20
-17.272351968503937
10
-0.92702129921259846
20
-17.340597244094486
10
-0.86809248031496045
20
-17.410290157480311
10
-0.81082082677165357
20
-17.481402362204722
10
-0.75523618110236213
20
-17.553901968503936
10
-0.70136842519685028
20
-17.627760629921262
10
-0.64924751968503935
20
-17.702946850393701
10
-0.59890318897637784
20
-17.779433070866141
10
-0.5503653149606299
20
-17.857188976377952
10
-0.50366377952755903
20
-17.936182677165352
10
-0.45882842519685052
20
-18.016386220472437
10
-0.4158890551181102
20
-18.097769685039371
10
-0.37487566929133859
20
-18.180301574803146
10
-0.33581801181102361
20
-18.263954724409448
10
-0.29874595275590554
20
-18.348697637795272
10
-0.2636893700787401
20
-18.4345
10
-0.23067812204724411
20
-18.521331889763776
10
-0.19974207480314954
20
-18.609164960629919
10
-0.17091105118110239
20
-18.697968897637793
10
-0.14421492913385836
20
-18.787712204724411
10
-0.11968356299212596
20
-18.878367322834645
10
-0.09734682283464563
20
-18.969901968503933
10
-0.077234543307086664
20
-19.062288582677162
10
-0.059376606299212542
20
-19.1554968503937
0
LWPOLYLINE
5
101
100
AcDbEntity
8
0
100
AcDbPolyline
90
68
70
1
43
0.0
10
-1.7466523058861829
20
-17.929161707214863
10
-1.2813900051093818
20
-17.463956993295781
10
-1.2808807086614173
20
-17.464331496062993
10
-1.2754107086614173
20
-17.466166535433072
10
-1.2698148031496062
20
-17.466312992125982
10
-1.2644458267716532
20
-17.464914566929131
10
-1.2596561417322831
20
-17.462116141732281
10
-1.2557983464566931
20
-17.458063385826769
10
-1.2532250787401573
20
-17.452900787401575
10
-1.2522889763779528
20
-17.446772047244092
10
-1.2532250787401573
20
-17.440598818897637
10
-1.2557983464566931
20
-17.435401181102364
10
-1.2596561417322831
20
-17.431323622047245
10
-1.2644458267716534
20
-17.428509448818897
10
-1.2698148031496062
20
-17.427100393700783
10
-1.275410708661417
20
-17.427240944881891
10
-1.2808807086614171
20
-17.42907440944882
10
-1.2858722834645668
20
-17.432743700787402
10
-1.4058306692913385
20
-17.312744488188976
10
-1.4021579133858266
20
-17.307796850393704
10
-1.4003240157480314
20
-17.302357874015748
10
-1.4001831102362201
20
-17.296781889763775
10
-1.4015894488188976
20
-17.291424409448815
10
-1.4043976377952756
20
-17.28664015748031
10
-1.4084616141732285
20
-17.282783464566929
10
-1.4136359448818898
20
-17.280208661417323
10
-1.4197751968503938
20
-17.27927125984252
10
-1.4259141732283462
20
-17.280208661417323
10
-1.431087874015748
20
-17.282783464566929
10
-1.4351498031496062
20
-17.28664015748031
10
-1.437953897637795
20
-17.291425590551178
10
-1.4393537795275586
20
-17.296783070866145
10
-1.4392029921259841
20
-17.30235905511811
10
-1.4373551181102362
20
-17.307798031496066
10
-1.4369879185811787
20
-17.308290116621293
10
-1.9022379234921936
20
-17.773622256613759
10
-1.9027592913385827
20
-17.773240551181097
10
-1.9082389370078738
20
-17.771404724409447
10
-1.9138360236220471
20
-17.771257874015745
10
-1.9192004724409444
20
-17.772656692913383
10
-1.9239822047244091
20
-17.77545472440945
10
-1.9278314566929131
20
-17.779507480314962
10
-1.9303975196850394
20
-17.784671259842515
10
-1.9313307480314958
20
-17.790798818897638
10
-1.9303975196850391
20
-17.796972047244093
10
-1.9278314566929131
20
-17.802168503937004
10
-1.9239823622047241
20
-17.80624015748031
10
-1.9192006299212598
20
-17.809045669291336
10
-1.9138363385826771
20
-17.810438188976377
10
-1.9082392125984249
20
-17.810272440944882
10
-1.9027595669291335
20
-17.808404330708665
10
-1.8977474409448816
20
-17.804687795275591
10
-1.7777890551181101
20
-17.924687007874017
10
-1.7814801574803147
20
-17.92968149606299
10
-1.7833280314960627
20
-17.935154330708659
10
-1.7834788188976378
20
-17.940755511811023
10
-1.7820789370078738
20
-17.946128740157476
10
-1.7792748425196852
20
-17.950922440944879
10
-1.775212913385827
20
-17.954783858267714
10
-1.7700392125984248
20
-17.957359842519683
10
-1.7639002362204721
20
-17.958297244094485
10
-1.7577474803149604
20
-17.957359842519683
10
-1.7525632283464567
20
-17.95478385826771
10
-1.7484932283464569
20
-17.950922440944879
10
-1.745683267716535
20
-17.946128740157476
10
-1.74427874015748
20
-17.940754330708661
10
-1.7444256299212595
20
-17.935154330708659
10
-1.7462694488188977
20
-17.929680314960631
0
LWPOLYLINE
5
102
100
AcDbEntity
8
0
100
AcDbPolyline
90
68
70
1
43
0.0
10
-5.4340547244094477
20
-19.971475590551176
10
-5.428731102362204
20
-19.972880314960626
10
-5.4231783464566918
20
-19.97275275590551
10
-5.4177437007873994
20
-19.970950787401573
10
-5.4127748031496061
20
-19.96732559055118
10
-5.4091338582677162
20
-19.962344488188975
10
-5.4073122047244091
20
-19.956902755905507
10
-5.407167716535433
20
-19.951347244094489
10
-5.4085547244094476
20
-19.946024803149605
10
-5.4113307086614162
20
-19.941281102362204
10
-5.4153515748031502
20
-19.93746299212598
10
-5.420473228346455
20
-19.934919291338581
10
-5.4210527559055111
20
-19.934831134996383
10
-5.4210527559055111
20
-19.722183582049979
10
-5.420473228346455
20
-19.722095275590551
10
-5.4153515748031502
20
-19.719550787401573
10
-5.4113307086614162
20
-19.715733464566927
10
-5.4085547244094476
20
-19.71099015748031
10
-5.4071677165354313
20
-19.705666535433068
10
-5.4073122047244082
20
-19.700110629921255
10
-5.4091338582677162
20
-19.694668110236222
10
-5.4127748031496061
20
-19.689687795275592
10
-5.4177437007873994
20
-19.686017322834644
10
-5.4231783464566918
20
-19.684179133858269
10
-5.428731102362204
20
-19.684027559055117
10
-5.4340543307086611
20
-19.685415354330708
10
-5.4387999999999987
20
-19.688196850393698
10
-5.4426200787401555
20
-19.692226771653541
10
-5.4451673228346458
20
-19.697354724409443
10
-5.4460944881889768
20
-19.70343779527559
10
-5.6160665354330703
20
-19.70343779527559
10
-5.6169944881889755
20
-19.697354724409443
10
-5.6195460629921259
20
-19.692226771653541
10
-5.6233708661417321
20
-19.688196850393698
10
-5.6281200787401566
20
-19.685415354330708
10
-5.6334444881889736
20
-19.684027559055121
10
-5.6389937007873998
20
-19.684179133858269
10
-5.6444196850393702
20
-19.686017322834648
10
-5.6493720472440927
20
-19.689687795275592
10
-5.6530137795275577
20
-19.694668110236222
10
-5.6548350393700781
20
-19.700110629921255
10
-5.6549799212598399
20
-19.705666535433068
10
-5.6535929133858254
20
-19.71099015748031
10
-5.6508169291338577
20
-19.715733464566927
10
-5.6467960629921254
20
-19.719550787401577
10
-5.6416740157480305
20
-19.722095275590551
10
-5.6410944881889762
20
-19.722183582049979
10
-5.6410944881889762
20
-19.934831134996383
10
-5.6416740157480305
20
-19.934919291338581
10
-5.6467960629921254
20
-19.93746299212598
10
-5.6508169291338577
20
-19.941281102362204
10
-5.6535929133858254
20
-19.946024803149605
10
-5.6549799212598399
20
-19.951347244094489
10
-5.6548350393700781
20
-19.956902755905507
10
-5.6530137795275577
20
-19.962344488188975
10
-5.6493720472440927
20
-19.96732559055118
10
-5.6444196850393702
20
-19.970950787401573
10
-5.6389937007873998
20
-19.97275275590551
10
-5.6334444881889736
20
-19.972880314960626
10
-5.6281200787401566
20
-19.971475590551176
10
-5.6233708661417321
20
-19.968684645669292
10
-5.6195460629921259
20
-19.964651181102361
10
-5.6169944881889755
20
-19.959520866141727
10
-5.6160665354330703
20
-19.953438976377949
10
-5.4460944881889759
20
-19.953438976377949
10
-5.4451673228346458
20
-19.959520866141727
10
-5.4426208661417315
20
-19.964651181102365
10
-5.4388007874015738
20
-19.968684645669292
0
LWPOLYLINE
5
103
100
AcDbEntity
8
0
100
AcDbPolyline
90
68
70
1
43
0.0
10
-6.1986570866141717
20
-17.286640157480313
10
-6.2014645669291326
20
-17.291424409448815
10
-6.20287125984252
20
-17.296781889763775
10
-6.202732677165355
20
-17.302357874015748
10
-6.20090157480315
20
-17.307796850393704
10
-6.1972338582677162
20
-17.312744488188976
10
-6.3171783464566929
20
-17.432743700787402
10
-6.3221740157480308
20
-17.42907440944882
10
-6.3276468503937009
20
-17.427240944881888
10
-6.3332421259842517
20
-17.427100393700783
10
-6.3386110236220468
20
-17.428509448818897
10
-6.343399212598424
20
-17.431323622047245
10
-6.34725433070866
20
-17.435401181102364
10
-6.3498259842519689
20
-17.440598818897637
10
-6.3507614173228344
20
-17.446772047244092
10
-6.3498259842519689
20
-17.452900787401575
10
-6.34725433070866
20
-17.458063385826769
10
-6.3433992125984249
20
-17.462116141732281
10
-6.3386110236220468
20
-17.464914566929131
10
-6.3332421259842517
20
-17.466312992125982
10
-6.3276468503937009
20
-17.466166535433072
10
-6.32217401574803
20
-17.464331496062993
10
-6.3216621827793471
20
-17.463955436580996
10
-5.8564003164774396
20
-17.929158887311967
10
-5.8567858267716524
20
-17.929680314960631
10
-5.8586338582677175
20
-17.935154330708659
10
-5.8587838582677172
20
-17.940754330708661
10
-5.8573842519685044
20
-17.946128740157476
10
-5.8545799212598428
20
-17.950922440944879
10
-5.8505177165354327
20
-17.954783858267714
10
-5.8453440944881878
20
-17.957359842519686
10
-5.8392059055118102
20
-17.958297244094489
10
-5.8330531496062985
20
-17.957359842519686
10
-5.8278685039370064
20
-17.954783858267714
10
-5.8237992125984244
20
-17.950922440944879
10
-5.8209889763779525
20
-17.946128740157476
10
-5.8195842519685037
20
-17.940755511811023
10
-5.8197311023622023
20
-17.935154330708659
10
-5.8215748031496055
20
-17.92968149606299
10
-5.8252614173228334
20
-17.924687007874017
10
-5.7053169291338577
20
-17.804687795275591
10
-5.7003208661417322
20
-17.808404330708665
10
-5.6948484251968488
20
-17.810272440944878
10
-5.6892527559055113
20
-17.810438188976377
10
-5.6838846456692904
20
-17.809045669291336
10
-5.6790964566929141
20
-17.80624015748031
10
-5.6752409448818897
20
-17.802168503937004
10
-5.6726685039370066
20
-17.796972047244093
10
-5.6717334645669277
20
-17.790798818897638
10
-5.6726685039370066
20
-17.784671259842515
10
-5.6752409448818897
20
-17.779507480314962
10
-5.6790964566929141
20
-17.77545472440945
10
-5.6838846456692904
20
-17.772656692913383
10
-5.6892527559055113
20
-17.771257874015745
10
-5.6948484251968488
20
-17.771404724409447
10
-5.7003208661417322
20
-17.773240551181097
10
-5.7008324355977669
20
-17.773616266494749
10
-6.1660763690822433
20
-17.308290238476161
10
-6.1657090551181097
20
-17.307798031496066
10
-6.1638610236220464
20
-17.30235905511811
10
-6.1637110236220476
20
-17.296783070866145
10
-6.1651106299212595
20
-17.291425590551178
10
-6.1679149606299211
20
-17.28664015748031
10
-6.1719771653543294
20
-17.282783464566929
10
-6.1771507874015734
20
-17.280208661417323
10
-6.1832889763779502
20
-17.27927125984252
10
-6.1894232283464561
20
-17.280208661417323
10
-6.1945948818897634
20
-17.282783464566929
0
LWPOLYLINE
5
104
100
AcDbEntity
8
0
100
AcDbPolyline
90
68
70
1
43
0.0
10
-3.9104984251968498
20
-18.214631496062992
10
-3.9079512992125975
20
-18.209516929133855
10
-3.9078633222521022
20
-18.208939763779526
10
-3.6952007759751719
20
-18.208939763779526
10
-3.6951127952755902
20
-18.209516929133855
10
-3.6925653937007867
20
-18.214632677165355
10
-3.6887449606299207
20
-18.218643307086616
10
-3.6839991338582672
20
-18.221409055118112
10
-3.6786762598425193
20
-18.222789763779524
10
-3.6731233464566921
20
-18.222639370078738
10
-3.6676887401574798
20
-18.220820472440945
10
-3.6627197244094489
20
-18.217189370078735
10
-3.6590786614173223
20
-18.212247637795279
10
-3.6572577952755898
20
-18.206824409448817
10
-3.6571148425196851
20
-18.201271259842517
10
-3.6585061417322833
20
-18.195938976377949
10
-3.6612884645669288
20
-18.191179921259838
10
-3.6653191338582674
20
-18.187346062992123
10
-3.670454842519685
20
-18.184788188976377
10
-3.6765529527559049
20
-18.183855511811021
10
-3.6765529527559049
20
-18.013995275590553
10
-3.670454842519685
20
-18.013065354330703
10
-3.6653191338582674
20
-18.010506299212597
10
-3.6612884645669288
20
-18.006672440944875
10
-3.6585061417322833
20
-18.001913385826771
10
-3.6571148425196851
20
-17.996581102362203
10
-3.6572577952755898
20
-17.991027952755903
10
-3.6590786614173223
20
-17.985604330708657
10
-3.6627197244094489
20
-17.980661417322832
10
-3.667688149606299
20
-17.97699212598425
10
-3.6731227559055113
20
-17.975153937007871
10
-3.6786756692913385
20
-17.975002362204719
10
-3.6839991338582672
20
-17.976391338582676
10
-3.688744685039369
20
-17.979172834645667
10
-3.6925650787401572
20
-17.983201574803147
10
-3.6951127952755902
20
-17.988329133858262
10
-3.6952014272418117
20
-17.988911023622045
10
-3.9078626710131412
20
-17.988911023622048
10
-3.9079512992125975
20
-17.988329133858265
10
-3.9104984251968498
20
-17.983201574803147
10
-3.9143182283464566
20
-17.979172834645667
10
-3.9190631889763776
20
-17.976391338582676
10
-3.9243848425196846
20
-17.975002362204719
10
-3.9299353543307083
20
-17.975153937007871
10
-3.9353666535433072
20
-17.97699212598425
10
-3.940330708661417
20
-17.980661417322832
10
-3.9439716535433074
20
-17.985604330708657
10
-3.9457929133858265
20
-17.991027952755903
10
-3.9459385826771651
20
-17.996581102362203
10
-3.9445511811023617
20
-18.001913385826771
10
-3.9417751968503927
20
-18.006672440944875
10
-3.9377547244094484
20
-18.010506299212597
10
-3.9326324015748022
20
-18.013065354330706
10
-3.9265529133858266
20
-18.013995275590553
10
-3.9265529133858257
20
-18.183855511811021
10
-3.9326324015748022
20
-18.184788188976377
10
-3.9377547244094488
20
-18.187346062992123
10
-3.9417751968503927
20
-18.191179921259838
10
-3.9445511811023617
20
-18.195938976377949
10
-3.9459385826771651
20
-18.201271259842517
10
-3.9457929133858265
20
-18.206824409448821
10
-3.9439716535433074
20
-18.212247637795279
10
-3.940330708661417
20
-18.217189370078735
10
-3.9353666535433072
20
-18.220820472440941
10
-3.9299353543307083
20
-18.222639370078738
10
-3.9243848425196846
20
-18.222788582677161
10
-3.9190631889763776
20
-18.221409055118112
10
-3.9143182283464566
20
-18.218643307086616
0
LWPOLYLINE
5
105
100
AcDbEntity
8
0
100
AcDbPolyline
90
68
70
1
43
0.0
10
-6.3332421259842517
20
-22.190642913385826
10
-6.3386110236220468
20
-22.192048818897636
10
-6.3433992125984249
20
-22.194862598425193
10
-6.34725433070866
20
-22.198933464566924
10
-6.3498259842519689
20
-22.204109448818894
10
-6.3507614173228344
20
-22.210241732283464
10
-6.3498259842519689
20
-22.216371653543309
10
-6.34725433070866
20
-22.221535433070866
10
-6.343399212598424
20
-22.225587007874012
10
-6.3386110236220459
20
-22.228386220472437
10
-6.3332421259842517
20
-22.229785039370082
10
-6.3276468503937009
20
-22.229638188976374
10
-6.3221740157480308
20
-22.227802362204724
10
-6.3171783464566929
20
-22.224130708661416
10
-6.1972338582677162
20
-22.344131889763776
10
-6.2009015748031491
20
-22.349125590551182
10
-6.202732677165355
20
-22.354599212598423
10
-6.20287125984252
20
-22.360200787401578
10
-6.2014645669291326
20
-22.365573622047247
10
-6.1986570866141717
20
-22.370367716535434
10
-6.1945948818897634
20
-22.374229133858268
10
-6.1894232283464561
20
-22.376805118110234
10
-6.1832889763779502
20
-22.377742125984248
10
-6.1771507874015734
20
-22.376805118110234
10
-6.1719771653543294
20
-22.374229133858268
10
-6.1679149606299211
20
-22.370367716535434
10
-6.1651106299212595
20
-22.365573622047243
10
-6.1637110236220476
20
-22.360198425196852
10
-6.1638610236220464
20
-22.354596850393698
10
-6.1657090551181097
20
-22.349125590551182
10
-6.1660945228473807
20
-22.348604123755312
10
-5.7008335562303065
20
-21.883398809797352
10
-5.7003208661417322
20
-21.883775590551178
10
-5.6948484251968488
20
-21.885611417322835
10
-5.6892527559055113
20
-21.885757874015745
10
-5.6838846456692904
20
-21.884359448818891
10
-5.6790964566929141
20
-21.881562598425194
10
-5.6752409448818897
20
-21.87750866141732
10
-5.6726685039370066
20
-21.872344881889763
10
-5.6717334645669277
20
-21.866217322834643
10
-5.6726685039370066
20
-21.860044094488188
10
-5.6752409448818897
20
-21.854846456692911
10
-5.6790964566929141
20
-21.850768503937008
10
-5.6838846456692904
20
-21.847954724409448
10
-5.6892527559055113
20
-21.846546456692913
10
-5.6948484251968488
20
-21.846685826771655
10
-5.7003208661417322
20
-21.84851929133858
10
-5.7053169291338577
20
-21.852188582677165
10
-5.8252614173228334
20
-21.732187401574794
10
-5.8215748031496055
20
-21.727201181102355
10
-5.8197311023622023
20
-21.721744094488187
10
-5.8195842519685037
20
-21.716166929133855
10
-5.8209889763779525
20
-21.710817716535434
10
-5.8237992125984244
20
-21.70604803149606
10
-5.8278685039370064
20
-21.702207874015748
10
-5.8330531496062985
20
-21.699648818897632
10
-5.8392059055118102
20
-21.698716535433068
10
-5.8453440944881878
20
-21.699648818897632
10
-5.8505177165354327
20
-21.702207874015748
10
-5.8545799212598428
20
-21.70604803149606
10
-5.8573842519685044
20
-21.710817716535434
10
-5.8587838582677163
20
-21.716166929133855
10
-5.8586338582677158
20
-21.721744094488187
10
-5.8567858267716524
20
-21.727201181102359
10
-5.856403091726186
20
-21.727718120352741
10
-6.3216430144416602
20
-22.193041320798883
10
-6.32217401574803
20
-22.192647244094484
10
-6.3276468503936991
20
-22.190792125984249
0
LWPOLYLINE
5
106
100
AcDbEntity
8
0
100
AcDbPolyline
90
68
70
1
43
0.0
10
-1.9536778346456689
20
-19.96732559055118
10
-1.9500414173228346
20
-19.962344488188975
10
-1.9482234251968502
20
-19.956902755905507
10
-1.9480805905511807
20
-19.951347244094489
10
-1.949469488188976
20
-19.946024803149605
10
-1.9522464173228344
20
-19.941281102362204
10
-1.9562677559055117
20
-19.93746299212598
10
-1.961389960629921
20
-19.934919291338581
10
-1.9619696062992125
20
-19.934831118742714
10
-1.9619696062992125
20
-19.722183598331327
10
-1.961389960629921
20
-19.722095275590551
10
-1.9562677559055117
20
-19.719550787401573
10
-1.9522464173228344
20
-19.715733464566927
10
-1.949469488188976
20
-19.71099015748031
10
-1.9480805905511807
20
-19.705666535433068
10
-1.9482234251968504
20
-19.700110629921255
10
-1.9500414173228346
20
-19.694668110236222
10
-1.9536778346456689
20
-19.689687795275592
10
-1.9586465354330709
20
-19.686017322834644
10
-1.9640812992125982
20
-19.684179133858269
10
-1.9696342125984247
20
-19.684027559055117
10
-1.974957401574803
20
-19.685415354330708
10
-1.9797030708661416
20
-19.688196850393698
10
-1.9835234645669293
20
-19.692226771653541
10
-1.9860707874015744
20
-19.697354724409443
10
-1.9869972440944879
20
-19.70343779527559
10
-2.156969488188976
20
-19.70343779527559
10
-2.157895866141732
20
-19.697354724409443
10
-2.1604432677165355
20
-19.692226771653541
10
-2.1642637007874015
20
-19.688196850393698
10
-2.1690095275590551
20
-19.685415354330708
10
-2.1743326771653542
20
-19.684027559055121
10
-2.1798856299212597
20
-19.684179133858269
10
-2.1853201968503932
20
-19.686017322834648
10
-2.1902889370078737
20
-19.689687795275592
10
-2.193925511811023
20
-19.694668110236222
10
-2.1957431889763779
20
-19.700110629921255
10
-2.1958860236220472
20
-19.705666535433068
10
-2.1944971259842516
20
-19.71099015748031
10
-2.1917203543307084
20
-19.715733464566927
10
-2.1876989763779524
20
-19.719550787401573
10
-2.1825769291338579
20
-19.722095275590551
10
-2.1819971653543306
20
-19.722183614612039
10
-2.1819971653543306
20
-19.934831102489674
10
-2.1825769291338579
20
-19.934919291338581
10
-2.1876989763779524
20
-19.93746299212598
10
-2.1917203543307084
20
-19.941281102362204
10
-2.1944971259842516
20
-19.946024803149605
10
-2.1958860236220472
20
-19.951347244094489
10
-2.1957431889763779
20
-19.956902755905507
10
-2.193925511811023
20
-19.962344488188975
10
-2.1902889370078737
20
-19.96732559055118
10
-2.1853201968503932
20
-19.970950787401573
10
-2.1798856299212597
20
-19.97275275590551
10
-2.1743326771653542
20
-19.972880314960626
10
-2.1690095275590551
20
-19.971475590551176
10
-2.164263700787401
20
-19.968684645669292
10
-2.1604432677165355
20
-19.964651181102365
10
-2.157895866141732
20
-19.959520866141727
10
-2.156969488188976
20
-19.953438976377949
10
-1.9869972440944879
20
-19.953438976377949
10
-1.9860707874015744
20
-19.959520866141727
10
-1.9835234645669293
20
-19.964651181102365
10
-1.9797030708661416
20
-19.968684645669292
10
-1.974957401574803
20
-19.971475590551176
10
-1.9696342125984252
20
-19.972880314960626
10
-1.9640812992125984
20
-19.97275275590551
10
-1.9586465354330704
20
-19.970950787401573
0
LWPOLYLINE
5
107
100
AcDbEntity
8
0
100
AcDbPolyline
90
68
70
1
43
0.0
10
-1.0305090944881889
20
-19.742779921259839
10
-1.024369527559055
20
-19.743717322834648
10
-1.024369527559055
20
-19.913302362204725
10
-1.0305090944881889
20
-19.914239763779527
10
-1.0356833858267718
20
-19.916815748031496
10
-1.039746062992126
20
-19.92067834645669
10
-1.0425503937007872
20
-19.925472047244096
10
-1.0439501968503937
20
-19.930845275590549
10
-1.0437991732283463
20
-19.936444094488184
10
-1.041950748031496
20
-19.94191811023622
10
-1.0382583858267715
20
-19.946910236220472
10
-1.0332672834645669
20
-19.950580708661416
10
-1.0277976377952753
20
-19.95241653543307
10
-1.0222020472440945
20
-19.952562992125983
10
-1.0168330708661417
20
-19.951164566929133
10
-1.0120433858267714
20
-19.948366535433067
10
-1.0081857480314957
20
-19.944313779527555
10
-1.0056126377952754
20
-19.939151181102361
10
-1.0055167660935698
20
-19.938523622047246
10
-0.34753467779825015
20
-19.938523622047246
10
-0.34743909842519677
20
-19.939151181102364
10
-0.34487281102362205
20
-19.944313779527558
10
-0.34102357086614171
20
-19.948366535433063
10
-0.33624161023622035
20
-19.95116456692913
10
-0.33087703937007884
20
-19.952562992125983
10
-0.32527998818897641
20
-19.95241653543307
10
-0.31980060236220464
20
-19.95058070866142
10
-0.31478902362204719
20
-19.946910236220472
10
-0.311101720472441
20
-19.941916929133857
10
-0.3092568307086615
20
-19.936444094488184
10
-0.30910788582677162
20
-19.93084409448819
10
-0.31050847244094487
20
-19.92547086614173
10
-0.31331218110236225
20
-19.920675984251972
10
-0.31737259842519688
20
-19.916814173228346
10
-0.32254331889763782
20
-19.914239763779527
10
-0.32867792125984252
20
-19.913302362204725
10
-0.32867792125984252
20
-19.743717322834648
10
-0.32254331889763782
20
-19.742779921259839
10
-0.31737259842519688
20
-19.74020393700787
10
-0.31331218110236225
20
-19.736342519685039
10
-0.31050847244094487
20
-19.731547244094486
10
-0.30910788582677162
20
-19.726173228346457
10
-0.3092568307086615
20
-19.720573228346453
10
-0.311101720472441
20
-19.715100393700787
10
-0.31478902362204719
20
-19.710108267716535
10
-0.31980060236220464
20
-19.706399212598427
10
-0.32527998818897641
20
-19.704544094488188
10
-0.33087703937007884
20
-19.704395275590549
10
-0.33624161023622051
20
-19.705803149606297
10
-0.34102357086614171
20
-19.708617322834645
10
-0.34487281102362205
20
-19.712686614173229
10
-0.34743909842519677
20
-19.717863779527558
10
-0.34753548433460513
20
-19.718497244094486
10
-1.0055159489581427
20
-19.718497244094483
10
-1.0056126377952754
20
-19.717863779527558
10
-1.0081857480314957
20
-19.712686614173229
10
-1.0120433858267714
20
-19.708617322834645
10
-1.0168330708661417
20
-19.705803149606297
10
-1.0222020472440947
20
-19.704395275590553
10
-1.0277976377952753
20
-19.704544094488185
10
-1.0332672834645669
20
-19.706399212598424
10
-1.0382583858267715
20
-19.710108267716535
10
-1.0419507480314958
20
-19.715100393700787
10
-1.043799173228346
20
-19.720574409448819
10
-1.0439501968503937
20
-19.726174409448817
10
-1.0425503937007874
20
-19.73154881889764
10
-1.039746062992126
20
-19.736342519685039
10
-1.0356833858267718
20
-19.74020393700787
0
LWPOLYLINE
5
108
100
AcDbEntity
8
0
100
AcDbPolyline
90
68
70
1
43
0.0
10
-3.9236281889763771
20
-22.596759842519681
10
-3.925472755905512
20
-22.602216929133856
10
-3.9256214566929133
20
-22.607796850393701
10
-3.9242211417322834
20
-22.613145669291338
10
-3.9214177952755902
20
-22.617913385826771
10
-3.917357677165354
20
-22.621753149606295
10
-3.9121874015748022
20
-22.624314566929133
10
-3.9115529527559048
20
-22.624410743042485
10
-3.9115529527559048
20
-23.282472341581638
10
-3.9121874015748022
20
-23.282569291338579
10
-3.917357677165354
20
-23.285147637795276
10
-3.9214177952755902
20
-23.289009055118107
10
-3.9242211417322834
20
-23.293803149606298
10
-3.9256214566929133
20
-23.299178346456692
10
-3.925472755905512
20
-23.304777559055122
10
-3.923628188976378
20
-23.310251181102362
10
-3.9199420472440951
20
-23.315242125984245
10
-3.914946023622047
20
-23.318914173228343
10
-3.9094738582677162
20
-23.320749999999993
10
-3.9038776771653545
20
-23.320894094488185
10
-3.8985094881889761
20
-23.319495669291339
10
-3.8937215748031497
20
-23.316698425196851
10
-3.8898657086614166
20
-23.312644488188976
10
-3.8872942519685036
20
-23.307483070866141
10
-3.8863586220472435
20
-23.301353149606296
10
-3.7167057874015739
20
-23.301353149606296
10
-3.7157704330708654
20
-23.307483070866141
10
-3.7131987007874008
20
-23.312644488188976
10
-3.7093425196850389
20
-23.316698425196851
10
-3.7045546456692913
20
-23.319495669291339
10
-3.6991870472440938
20
-23.320894094488185
10
-3.6935908267716528
20
-23.320749999999997
10
-3.6881187007874017
20
-23.318914173228343
10
-3.6831226377952757
20
-23.315242125984245
10
-3.6794316929133855
20
-23.310248818897637
10
-3.6775838188976371
20
-23.304777559055122
10
-3.6774330314960619
20
-23.299175984251971
10
-3.6788327559055114
20
-23.293803149606298
10
-3.6816367322834642
20
-23.289009055118107
10
-3.6856986220472434
20
-23.285145275590551
10
-3.6908722047244096
20
-23.282569291338579
10
-3.6915114566929135
20
-23.282471684039667
10
-3.6915114566929135
20
-22.624411395337376
10
-3.6908722047244096
20
-22.624314566929133
10
-3.685698622047243
20
-22.621753149606299
10
-3.6816367322834642
20
-22.617913385826771
10
-3.6788327559055114
20
-22.613145669291338
10
-3.6774330314960624
20
-22.607796850393704
10
-3.677583818897638
20
-22.60221692913386
10
-3.679431692913385
20
-22.596759842519681
10
-3.6831226377952757
20
-22.59177125984252
10
-3.6881187007874017
20
-22.588063779527555
10
-3.6935908267716533
20
-22.58620866141732
10
-3.6991870472440938
20
-22.586059448818894
10
-3.7045546456692904
20
-22.587467716535432
10
-3.7093425196850389
20
-22.590281496062989
10
-3.7131987007874017
20
-22.594352362204724
10
-3.7157704330708663
20
-22.59952834645669
10
-3.7167057874015739
20
-22.605660629921257
10
-3.8863586220472435
20
-22.605660629921257
10
-3.8872942519685036
20
-22.59952834645669
10
-3.8898657086614166
20
-22.594352362204724
10
-3.8937215748031497
20
-22.590281496062989
10
-3.8985094881889761
20
-22.587467716535432
10
-3.9038776771653545
20
-22.586059448818894
10
-3.9094738582677162
20
-22.58620866141732
10
-3.914946023622047
20
-22.588063779527555
10
-3.9199420472440942
20
-22.59177125984252
0
LWPOLYLINE
5
109
100
AcDbEntity
8
0
100
AcDbPolyline
90
68
70
1
43
0.0
10
-3.6951127952755902
20
-21.447359842519685
10
-3.6952007759751715
20
-21.44793700787401
10
-3.9078633222521031
20
-21.44793700787401
10
-3.9079512992125975
20
-21.447359842519685
10
-3.9104984251968498
20
-21.442246456692914
10
-3.9143182283464566
20
-21.438233464566924
10
-3.9190631889763776
20
-21.435467716535431
10
-3.9243848425196846
20
-21.434088188976375
10
-3.9299353543307083
20
-21.434237401574798
10
-3.9353666535433072
20
-21.436056299212598
10
-3.940330708661417
20
-21.439687007874014
10
-3.9439716535433074
20
-21.444668503937006
10
-3.9457929133858265
20
-21.450111023622043
10
-3.9459385826771651
20
-21.455666929133862
10
-3.9445511811023617
20
-21.460989370078735
10
-3.9417751968503927
20
-21.465732677165352
10
-3.9377547244094484
20
-21.469548818897639
10
-3.9326324015748022
20
-21.47209330708661
10
-3.9265529133858266
20
-21.473018503937006
10
-3.9265529133858257
20
-21.643020866141729
10
-3.9326324015748022
20
-21.643946062992125
10
-3.9377547244094484
20
-21.646490551181095
10
-3.9417751968503927
20
-21.650309055118107
10
-3.9445511811023617
20
-21.655052362204724
10
-3.9459385826771651
20
-21.660374803149605
10
-3.9457929133858265
20
-21.665930708661417
10
-3.9439716535433074
20
-21.671370866141729
10
-3.940330708661417
20
-21.676352362204721
10
-3.9353666535433072
20
-21.67998307086614
10
-3.9299353543307083
20
-21.681801968503933
10
-3.9243848425196846
20
-21.681951181102356
10
-3.9190631889763776
20
-21.680571653543307
10
-3.9143182283464566
20
-21.677805905511811
10
-3.9104984251968498
20
-21.673795275590553
10
-3.9079512992125975
20
-21.668679527559053
10
-3.9078633222521022
20
-21.668102362204724
10
-3.6952007759751719
20
-21.668102362204724
10
-3.6951127952755902
20
-21.668679527559053
10
-3.6925653937007867
20
-21.673795275590553
10
-3.6887449606299207
20
-21.677805905511811
10
-3.6839991338582672
20
-21.680571653543307
10
-3.6786762598425193
20
-21.681951181102356
10
-3.6731233464566921
20
-21.681801968503937
10
-3.6676887401574798
20
-21.67998307086614
10
-3.6627197244094489
20
-21.676352362204721
10
-3.6590786614173223
20
-21.671370866141729
10
-3.6572577952755898
20
-21.665930708661417
10
-3.6571148425196851
20
-21.660374803149608
10
-3.6585061417322833
20
-21.655052362204721
10
-3.6612884645669288
20
-21.650309055118107
10
-3.6653191338582674
20
-21.646490551181095
10
-3.670454842519685
20
-21.643946062992125
10
-3.6765529527559049
20
-21.643020866141729
10
-3.6765529527559049
20
-21.473018503937006
10
-3.670454842519685
20
-21.47209330708661
10
-3.6653191338582674
20
-21.469548818897639
10
-3.6612884645669288
20
-21.465732677165352
10
-3.6585061417322833
20
-21.460989370078735
10
-3.6571148425196851
20
-21.455666929133862
10
-3.6572577952755898
20
-21.450111023622046
10
-3.6590786614173223
20
-21.444668503937006
10
-3.6627197244094489
20
-21.439687007874014
10
-3.667688149606299
20
-21.436058661417324
10
-3.6731227559055113
20
-21.434239763779527
10
-3.6786756692913385
20
-21.4340905511811
10
-3.6839991338582672
20
-21.43547007874016
10
-3.688744685039369
20
-21.438235826771653
10
-3.6925650787401572
20
-21.442246456692914
0
LWPOLYLINE
5
110
100
AcDbEntity
8
0
100
AcDbPolyline
90
68
70
1
43
0.0
10
-3.9242205118110234
20
-17.043803149606298
10
-3.9256208661417324
20
-17.04917716535433
10
-3.9254721653543307
20
-17.054777559055118
10
-3.9236275984251967
20
-17.06025
10
-3.9199414566929134
20
-17.065242125984252
10
-3.914945393700787
20
-17.068912598425197
10
-3.9094732677165345
20
-17.070747244094484
10
-3.9038770866141728
20
-17.070895275590548
10
-3.8985088582677161
20
-17.069496850393698
10
-3.893720984251968
20
-17.066698425196851
10
-3.8898651181102357
20
-17.062644488188976
10
-3.8872936614173224
20
-17.057481889763778
10
-3.8863579921259839
20
-17.0513531496063
10
-3.7167055118110239
20
-17.0513531496063
10
-3.7157698425196846
20
-17.057481889763782
10
-3.7131983858267712
20
-17.062644488188976
10
-3.7093425196850385
20
-17.066698425196851
10
-3.7045546456692904
20
-17.069496850393698
10
-3.6991864173228337
20
-17.070895275590548
10
-3.6935902362204724
20
-17.070747244094484
10
-3.6881181102362208
20
-17.068912598425197
10
-3.683122362204724
20
-17.065242125984252
10
-3.6794311023622037
20
-17.060248818897637
10
-3.6775832283464562
20
-17.054775984251968
10
-3.6774324409448815
20
-17.049175984251967
10
-3.6788324803149597
20
-17.043803149606294
10
-3.6816364173228342
20
-17.039007874015748
10
-3.685698622047243
20
-17.035146456692914
10
-3.6908722047244087
20
-17.032569291338582
10
-3.6915111417322826
20
-17.032471727125653
10
-3.6915111417322826
20
-16.374410294421299
10
-3.6908722047244087
20
-16.37431338582677
10
-3.685698622047243
20
-16.371753149606295
10
-3.6816364173228342
20
-16.367913385826771
10
-3.6788324803149597
20
-16.363143307086609
10
-3.6774324409448815
20
-16.357795669291338
10
-3.6775832283464562
20
-16.352216929133856
10
-3.6794311023622037
20
-16.346758661417319
10
-3.683122362204724
20
-16.341771259842517
10
-3.6881181102362204
20
-16.338061417322834
10
-3.693590236220472
20
-16.336208661417324
10
-3.6991864173228337
20
-16.336059448818897
10
-3.7045546456692904
20
-16.337467716535429
10
-3.7093425196850385
20
-16.340280314960626
10
-3.7131983858267712
20
-16.344350787401574
10
-3.7157698425196846
20
-16.34952834645669
10
-3.716705511811023
20
-16.355660629921257
10
-3.8863579921259839
20
-16.355660629921257
10
-3.8872936614173224
20
-16.34952834645669
10
-3.8898651181102357
20
-16.344350787401574
10
-3.893720984251968
20
-16.340280314960626
10
-3.8985088582677161
20
-16.337467716535429
10
-3.9038770866141728
20
-16.336059448818897
10
-3.9094732677165345
20
-16.336208661417324
10
-3.914945393700787
20
-16.338061417322834
10
-3.9199414566929134
20
-16.341771259842517
10
-3.9236275984251976
20
-16.346759842519685
10
-3.9254721653543307
20
-16.352218110236219
10
-3.9256208661417324
20
-16.357796850393701
10
-3.9242205118110238
20
-16.363144488188976
10
-3.9214171653543297
20
-16.367913385826771
10
-3.9173570866141727
20
-16.371753149606295
10
-3.9121864960629917
20
-16.37431338582677
10
-3.9115520472440943
20
-16.374409684094374
10
-3.9115520472440943
20
-17.032472341581641
10
-3.9121864960629917
20
-17.032569291338582
10
-3.9173570866141727
20
-17.035146456692914
10
-3.9214171653543297
20
-17.039007874015748
0
LWPOLYLINE
5
111
100
AcDbEntity
8
0
100
AcDbPolyline
90
68
70
1
43
0.0
10
-6.5605137401574796
20
-19.73154881889764
10
-6.559113937007873
20
-19.726174409448817
10
-6.5592649606299194
20
-19.720574409448819
10
-6.5611133858267703
20
-19.715100393700787
10
-6.5648057480314943
20
-19.710108267716535
10
-6.5697968503936996
20
-19.706399212598424
10
-6.5752664960629899
20
-19.704544094488185
10
-6.5808620866141707
20
-19.704395275590553
10
-6.5862310629921241
20
-19.705803149606297
10
-6.5910207480314948
20
-19.708617322834645
10
-6.5948783858267701
20
-19.712686614173229
10
-6.5974514960629902
20
-19.717863779527558
10
-6.5975481849001225
20
-19.718497244094483
10
-7.2555286495236615
20
-19.718497244094486
10
-7.2556250354330691
20
-19.717863779527558
10
-7.2581913228346435
20
-19.712686614173229
10
-7.2620405629921247
20
-19.708617322834645
10
-7.2668225236220456
20
-19.705803149606297
10
-7.2721870944881886
20
-19.704395275590549
10
-7.2777841456692896
20
-19.704544094488188
10
-7.2832635314960621
20
-19.706399212598427
10
-7.2882751102362189
20
-19.710108267716535
10
-7.2919624133858258
20
-19.715100393700787
10
-7.2938073031496051
20
-19.720573228346453
10
-7.2939562480314937
20
-19.726173228346457
10
-7.292555661417321
20
-19.731547244094486
10
-7.2897519527559052
20
-19.736342519685039
10
-7.2856915354330694
20
-19.74020393700787
10
-7.2805208149606271
20
-19.742779921259839
10
-7.2743862125984222
20
-19.743717322834648
10
-7.2743862125984222
20
-19.913302362204725
10
-7.2805208149606271
20
-19.914239763779527
10
-7.2856915354330694
20
-19.916814173228346
10
-7.2897519527559052
20
-19.920675984251972
10
-7.292555661417321
20
-19.92547086614173
10
-7.2939562480314937
20
-19.93084409448819
10
-7.2938073031496051
20
-19.936444094488184
10
-7.2919624133858258
20
-19.941916929133857
10
-7.2882751102362189
20
-19.946910236220472
10
-7.2832635314960621
20
-19.95058070866142
10
-7.2777841456692896
20
-19.95241653543307
10
-7.2721870944881886
20
-19.952562992125983
10
-7.2668225236220456
20
-19.95116456692913
10
-7.2620405629921247
20
-19.948366535433063
10
-7.2581913228346435
20
-19.944313779527558
10
-7.2556250354330691
20
-19.939151181102364
10
-7.2555294560600156
20
-19.938523622047246
10
-6.5975473677646956
20
-19.938523622047246
10
-6.5974514960629902
20
-19.939151181102361
10
-6.5948783858267701
20
-19.944313779527555
10
-6.5910207480314948
20
-19.948366535433067
10
-6.5862310629921241
20
-19.951164566929133
10
-6.5808620866141707
20
-19.952562992125983
10
-6.5752664960629899
20
-19.95241653543307
10
-6.5697968503936996
20
-19.950580708661416
10
-6.5648057480314943
20
-19.946910236220472
10
-6.5611133858267703
20
-19.94191811023622
10
-6.5592649606299194
20
-19.936444094488184
10
-6.559113937007873
20
-19.930845275590549
10
-6.5605137401574796
20
-19.925472047244096
10
-6.5633180708661412
20
-19.92067834645669
10
-6.5673807480314945
20
-19.916815748031496
10
-6.5725550393700765
20
-19.914239763779527
10
-6.5786946062992113
20
-19.913302362204725
10
-6.5786946062992113
20
-19.743717322834648
10
-6.5725550393700765
20
-19.742779921259839
10
-6.5673807480314945
20
-19.74020393700787
10
-6.5633180708661412
20
-19.736342519685039
0
LWPOLYLINE
5
112
100
AcDbEntity
8
0
100
AcDbPolyline
90
68
70
1
43
0.0
10
-1.9138360236220471
20
-21.885757874015741
10
-1.9082389370078738
20
-21.885611417322835
10
-1.9027592913385827
20
-21.883775590551178
10
-1.9022366333168697
20
-21.883392715263646
10
-1.4369695264552615
20
-22.348604326594799
10
-1.4373548031496062
20
-22.349125590551182
10
-1.4392026771653541
20
-22.354599212598423
10
-1.4393536220472438
20
-22.360200787401578
10
-1.437953897637795
20
-22.365573622047243
10
-1.4351498031496062
20
-22.370367716535434
10
-1.431087716535433
20
-22.374229133858268
10
-1.4259140157480314
20
-22.376805118110234
10
-1.4197750393700785
20
-22.377742125984248
10
-1.4136359448818896
20
-22.376805118110234
10
-1.4084614566929132
20
-22.374229133858268
10
-1.4043973228346458
20
-22.370367716535434
10
-1.4015891732283463
20
-22.365573622047243
10
-1.4001828346456691
20
-22.360198425196852
10
-1.4003238582677164
20
-22.354596850393698
10
-1.4021579133858266
20
-22.349125590551186
10
-1.4058305511811025
20
-22.344131889763776
10
-1.285872125984252
20
-22.224130708661416
10
-1.2808805905511809
20
-22.227802362204724
10
-1.2754105511811022
20
-22.229638188976374
10
-1.2698148031496064
20
-22.229785039370078
10
-1.2644456692913384
20
-22.228386220472437
10
-1.2596559842519686
20
-22.225587007874012
10
-1.2557981102362203
20
-22.221535433070866
10
-1.2532249212598425
20
-22.216371653543309
10
-1.2522888188976378
20
-22.210241732283468
10
-1.2532249212598425
20
-22.204109448818894
10
-1.2557981102362203
20
-22.198933464566924
10
-1.2596559842519686
20
-22.194862598425193
10
-1.2644456692913386
20
-22.192048818897636
10
-1.2698148031496062
20
-22.190642913385826
10
-1.2754105511811022
20
-22.190792125984249
10
-1.2808805905511809
20
-22.192647244094484
10
-1.2814090329582568
20
-22.193039746531479
10
-1.7466493113500279
20
-21.727715400839759
10
-1.7462691338582674
20
-21.727201181102355
10
-1.7444253149606301
20
-21.721744094488187
10
-1.7442784251968502
20
-21.716166929133855
10
-1.7456829527559052
20
-21.710817716535434
10
-1.7484929133858267
20
-21.70604803149606
10
-1.7525629527559055
20
-21.702207874015748
10
-1.7577471653543308
20
-21.699648818897632
10
-1.7638999606299213
20
-21.698716535433068
10
-1.7700388976377948
20
-21.699648818897632
10
-1.7752126377952751
20
-21.702207874015748
10
-1.7792745275590551
20
-21.70604803149606
10
-1.7820787795275592
20
-21.710817716535434
10
-1.7834785039370078
20
-21.716166929133855
10
-1.7833277165354329
20
-21.721744094488187
10
-1.7814798425196849
20
-21.727201181102359
10
-1.7777888976377951
20
-21.732187401574794
10
-1.8977471653543307
20
-21.852188582677165
10
-1.9027589763779524
20
-21.84851929133858
10
-1.9082386220472436
20
-21.846685826771655
10
-1.9138357086614173
20
-21.846546456692913
10
-1.91920031496063
20
-21.847954724409444
10
-1.9239822047244091
20
-21.850768503937008
10
-1.9278312992125983
20
-21.854846456692911
10
-1.9303975196850394
20
-21.860044094488188
10
-1.9313306299212596
20
-21.866217322834643
10
-1.9303975196850394
20
-21.872344881889763
10
-1.9278312992125983
20
-21.877508661417323
10
-1.9239822047244091
20
-21.881562598425194
10
-1.9192003149606298
20
-21.884359448818891
0
ENDSEC
0
SECTION
2
OBJECTS
0
DICTIONARY
5
C
100
AcDbDictionary
3
ACAD_GROUP
350
D
3
ACAD_MLINESTYLE
350
17
0
DICTIONARY
5
D
100
AcDbDictionary
0
DICTIONARY
5
1A
330
C
100
AcDbDictionary
0
DICTIONARY
5
17
100
AcDbDictionary
0
ENDSEC
0
EOF
