0
SECTION
2
HEADER
9
$INSUNITS
70
1
9
$ACADVER
1
AC1014
9
$HANDSEED
5
FFFF
0
ENDSEC
0
SECTION
2
TABLES
0
TABLE
2
VPORT
5
8
100
AcDbSymbolTable
0
ENDTAB
0
TABLE
2
LTYPE
5
5
100
AcDbSymbolTable
0
LTYPE
5
14
100
AcDbSymbolTableRecord
100
AcDbLinetypeTableRecord
2
BYBLOCK
70
0
0
LTYPE
5
15
100
AcDbSymbolTableRecord
100
AcDbLinetypeTableRecord
2
BYLAYER
70
0
0
ENDTAB
0
TABLE
2
LAYER
5
2
100
AcDbSymbolTable
70
2
0
LAYER
5
50
100
AcDbSymbolTableRecord
100
AcDbLayerTableRecord
2
0
70
0
6
CONTINUOUS
0
ENDTAB
0
TABLE
2
STYLE
5
3
100
AcDbSymbolTable
70
1
0
STYLE
5
11
100
AcDbSymbolTableRecord
100
AcDbTextStyleTableRecord
2
STANDARD
70
0
0
ENDTAB
0
TABLE
2
VIEW
5
6
100
AcDbSymbolTable
70
0
0
ENDTAB
0
TABLE
2
UCS
5
7
100
AcDbSymbolTable
70
0
0
ENDTAB
0
TABLE
2
APPID
5
9
100
AcDbSymbolTable
70
2
0
APPID
5
12
100
AcDbSymbolTableRecord
100
AcDbRegAppTableRecord
2
ACAD
70
0
0
ENDTAB
0
TABLE
2
DIMSTYLE
5
A
100
AcDbSymbolTable
70
1
0
ENDTAB
0
TABLE
2
BLOCK_RECORD
5
1
100
AcDbSymbolTable
70
1
0
BLOCK_RECORD
5
1F
100
AcDbSymbolTableRecord
100
AcDbBlockTableRecord
2
*MODEL_SPACE
0
BLOCK_RECORD
5
1B
100
AcDbSymbolTableRecord
100
AcDbBlockTableRecord
2
*PAPER_SPACE
0
ENDTAB
0
ENDSEC
0
SECTION
2
BLOCKS
0
BLOCK
5
20
100
AcDbEntity
100
AcDbBlockBegin
2
*MODEL_SPACE
0
ENDBLK
5
21
100
AcDbEntity
100
AcDbBlockEnd
0
BLOCK
5
1C
100
AcDbEntity
100
AcDbBlockBegin
2
*PAPER_SPACE
0
ENDBLK
5
1D
100
AcDbEntity
100
AcDbBlockEnd
0
ENDSEC
0
SECTION
2
ENTITIES
0
LWPOLYLINE
5
100
100
AcDbEntity
8
0
100
AcDbPolyline
90
526
70
1
43
0.0
10
-7.6232973706555347
20
-22.902544521906947
10
-7.2555846211531358
20
-22.902544521906943
10
-7.2473045478208897
20
-22.909001608521123
10
-7.2409045675059289
20
-22.91754412820616
10
-7.2460027446712836
20
-22.951411451040805
10
-7.252275854907503
20
-22.984906332930567
10
-7.259704114750023
20
-23.018004758127418
10
-7.2682679612067158
20
-23.050680348678597
10
-7.2779476068760083
20
-23.082913419544742
10
-7.2887233352224641
20
-23.114678380174663
10
-7.3005753667185278
20
-23.145948065214036
10
-7.3134840635689216
20
-23.176703183324275
10
-7.3274297092382126
20
-23.206920506158912
10
-7.3423924100256146
20
-23.236573262064429
10
-7.3583526383720708
20
-23.265637041591987
10
-7.3752905596319138
20
-23.29409019119829
10
-7.3931865832539616
20
-23.321911844741599
10
-7.4120207564823062
20
-23.349072474662854
10
-7.431773669868134
20
-23.375550427418762
10
-7.4524253234114415
20
-23.401322474662855
10
-7.47395626829333
20
-23.426366175450251
10
-7.4963465045138031
20
-23.450655151828208
10
-7.5195761501830942
20
-23.474168143954195
10
-7.5436260714429375
20
-23.496878380174667
10
-7.5684760714429373
20
-23.518764600647106
10
-7.5941067801043545
20
-23.539802395922692
10
-7.6204982367972676
20
-23.55996814395419
10
-7.6476307958523861
20
-23.579237435292775
10
-7.6754845360098667
20
-23.597586254190418
10
-7.7040400084508116
20
-23.61499097859986
10
-7.733277488765772
20
-23.631429561277024
10
-7.7631770556949062
20
-23.646878380174666
10
-7.7937190241988432
20
-23.661310663639235
10
-7.8248837486082907
20
-23.674704758127422
10
-7.8566516226240397
20
-23.687036647891201
10
-7.8890027643563227
20
-23.698279954977817
10
-8.02835004782089
20
-23.729537828993564
10
-8.0317600478208906
20
-23.74385200222191
10
-8.0364414651437244
20
-23.757803577025058
10
-8.071856425773646
20
-23.762621687261284
10
-8.1074240635689208
20
-23.76614215970223
10
-8.11186973286026
20
-23.765204758127418
10
-8.1150886698681344
20
-23.761999246316396
10
-8.1160424887657712
20
-23.757556332930569
10
-8.1144235123878197
20
-23.753310269938446
10
-8.1088008745925446
20
-23.745031923481754
10
-8.1041731580571099
20
-23.736263419544745
10
-8.1005587092382125
20
-23.727091372300652
10
-8.0979767407342766
20
-23.717607120332143
10
-8.0964467407342759
20
-23.707894128206163
10
-8.0959867801043544
20
-23.698049246316398
10
-8.0966163864035661
20
-23.688151608521121
10
-8.0983541423090788
20
-23.678296884111674
10
-8.101176819474432
20
-23.668697277812459
10
-8.1050098903405754
20
-23.659551608521124
10
-8.1097974887657713
20
-23.650934679387266
10
-8.1154833549075036
20
-23.642915781749469
10
-8.1220112289232524
20
-23.635565388048683
10
-8.1293245360098663
20
-23.628954758127421
10
-8.1373672525452996
20
-23.62315633293057
10
-8.1771127296375763
20
-23.600727544201444
10
-8.1798642519872651
20
-23.427241293507493
10
-8.1887497328602592
20
-23.418914600647106
10
-8.1973659144407485
20
-23.427517886075798
10
-8.1946140124121349
20
-23.601041301563516
10
-8.2338624100256137
20
-23.622923262064429
10
-8.2419557171122282
20
-23.628702395922694
10
-8.2493188667185269
20
-23.635300821119547
10
-8.2558950084508105
20
-23.642644128206161
10
-8.2616269375846692
20
-23.650665388048683
10
-8.2664576462460868
20
-23.659292159702222
10
-8.2703301659311261
20
-23.668449640017183
10
-8.2731876068760073
20
-23.678073655765214
10
-8.2749545360098669
20
-23.687954364426638
10
-8.2756064651437242
20
-23.69787641167073
10
-8.2751628430964796
20
-23.7077523959227
10
-8.2736423706555353
20
-23.717494128206155
10
-8.2710638273484474
20
-23.727007514032934
10
-8.2674464651437241
20
-23.73621066363923
10
-8.2628092210492365
20
-23.745005545529001
10
-8.2571712682933303
20
-23.753310269938446
10
-8.2555521344350637
20
-23.757556332930573
10
-8.2565059533327023
20
-23.761999246316396
10
-8.2597247328602599
20
-23.765204758127418
10
-8.2641704808917567
20
-23.76614215970223
10
-8.3015519769547481
20
-23.762407907733721
10
-8.3387622525452993
20
-23.757239010095926
10
-8.3434859927027798
20
-23.742934285686474
10
-8.3468695360098657
20
-23.728285860489624
10
-8.3488955202618342
20
-23.713389797497499
10
-8.3495467013641971
20
-23.698340191198284
10
-8.4312746541201022
20
-23.679685860489627
10
-8.4383916226240405
20
-23.69296223844238
10
-8.4466798903405742
20
-23.705505545528997
10
-8.4560837092382126
20
-23.717234679387264
10
-8.4665461895531724
20
-23.728072080962061
10
-8.5023139454586847
20
-23.716583498284901
10
-8.5376137092382134
20
-23.703729954977813
10
-8.5412130399468751
20
-23.700956726631354
10
-8.5427217801043547
20
-23.696672474662854
10
-8.5416536698681327
20
-23.692255939229781
10
-8.5383529218366387
20
-23.689131923481753
10
-8.5296938273484493
20
-23.684112238442378
10
-8.5217184336476617
20
-23.678220112458131
10
-8.5144818982145907
20
-23.671523262064426
10
-8.5080398903405747
20
-23.664095703009306
10
-8.5024476068760073
20
-23.656009482536867
10
-8.4977609139626225
20
-23.647335073088051
10
-8.4940351265610481
20
-23.638146096710095
10
-8.4913254808917564
20
-23.628510269938445
10
-8.4897037879783692
20
-23.618633891985684
10
-8.4891913864035669
20
-23.608728773875452
10
-8.4897676462460865
20
-23.598886254190411
10
-8.4914131974271889
20
-23.589192947103797
10
-8.4941078430964794
20
-23.579739797497499
10
-8.4978311895531728
20
-23.570608301434508
10
-8.5025641423090796
20
-23.561895309308525
10
-8.5286313705057619
20
-23.52447585040705
10
-8.4579660061541642
20
-23.372169445433943
10
-8.4623416226240398
20
-23.360805939229785
10
-8.4738442244551972
20
-23.364802873115501
10
-8.5445177476459495
20
-23.51712658616961
10
-8.5894097722303382
20
-23.519838616395134
10
-8.5992069375846683
20
-23.521535073088053
10
-8.6087019375846694
20
-23.524284285686473
10
-8.6178115438838816
20
-23.528049640017187
10
-8.6264541029390003
20
-23.532790584899072
10
-8.6345472525452998
20
-23.538466569151041
10
-8.6420084336476624
20
-23.545038616395136
10
-8.6487559533327012
20
-23.552468537654978
10
-8.6546332761673455
20
-23.560602395922697
10
-8.6595248116004182
20
-23.569260269938447
10
-8.6634089060886055
20
-23.578350821119546
10
-8.6662642210492358
20
-23.587784679387259
10
-8.6680688273484492
20
-23.597476017969942
10
-8.6688017407342759
20
-23.607332710883327
10
-8.6684405596319127
20
-23.617268931355767
10
-8.6669643785295509
20
-23.627198065214035
10
-8.6673476462460854
20
-23.631725230568364
10
-8.6701341816791579
20
-23.635313025843956
10
-8.6744255596319135
20
-23.636805151828206
10
-8.6788374100256132
20
-23.635718931355768
10
-8.7093558745925428
20
-23.617115388048678
10
-8.7391730005767947
20
-23.597411057340022
10
-8.7372782367972679
20
-23.582464600647107
10
-8.7340261501830945
20
-23.567787435292772
10
-8.7294418982145903
20
-23.553470506158916
10
-8.7235504415216774
20
-23.539605545528993
10
-8.7892863864035657
20
-23.487583891985686
10
-8.8014258352224637
20
-23.496503577025059
10
-8.8143063076634078
20
-23.504255545528995
10
-8.8278433549075039
20
-23.510794128206165
10
-8.8419529612067151
20
-23.516073262064431
10
-8.8705941029390001
20
-23.489025624269154
10
-8.8981215045138029
20
-23.4608460967101
10
-8.9001613076634101
20
-23.456787435292775
10
-8.8996618194744332
20
-23.452272474662852
10
-8.8967836698681335
20
-23.448754364426634
10
-8.8924547328602603
20
-23.447375230568369
10
-8.8824707564823076
20
-23.446608695135296
10
-8.8727234336476606
20
-23.444755939229779
10
-8.8632945360098656
20
-23.44186263214317
10
-8.8542651265610477
20
-23.437962632143165
10
-8.8457156777421506
20
-23.433099246316395
10
-8.837727961206717
20
-23.427312632143167
10
-8.8303820950649836
20
-23.420644521906951
10
-8.8237601265610461
20
-23.413132710883325
10
-8.8180143785295506
20
-23.404931529780967
10
-8.8132574100256136
20
-23.39622562426915
10
-8.8095087879783716
20
-23.387101608521117
10
-8.806789850970496
20
-23.377650821119541
10
-8.8051200871909696
20
-23.367957120332147
10
-8.8045199690807312
20
-23.358112238442381
10
-8.8050098509704959
20
-23.348202395922701
10
-8.8122787061581818
20
-23.303286488687579
10
-8.6855686147214577
20
-23.200145353389555
10
-8.6845271344350632
20
-23.188011844741592
10
-8.6966185137449319
20
-23.186569438209162
10
-8.8233469359360441
20
-23.289727480181845
10
-8.8650543785295515
20
-23.272672868363646
10
-8.8746157564823065
20
-23.269957514032932
10
-8.8843609533327008
20
-23.268323262064428
10
-8.8941986698681337
20
-23.267768143954196
10
-8.9040381974271892
20
-23.268294521906945
10
-8.9137881974271895
20
-23.269899640017186
10
-8.9233576856161658
20
-23.272586254190415
10
-8.9326553234114403
20
-23.276353970725847
10
-8.9414754021515979
20
-23.281135860489623
10
-8.9496340241988417
20
-23.286811844741592
10
-8.9570733155374249
20
-23.293316569151038
10
-8.9637355202618334
20
-23.300576017969941
10
-8.9695626856161663
20
-23.308522474662855
10
-8.9744971738051404
20
-23.317081923481751
10
-8.978480677742148
20
-23.326189010095923
10
-8.9814564257736453
20
-23.335769718757341
10
-8.9837659533326999
20
-23.339681529780965
10
-8.9878338667185265
20
-23.341707514032933
10
-8.9923475281358503
20
-23.341188222694345
10
-8.9958516619941182
20
-23.338297671513249
10
-9.0161109927027798
20
-23.306950821119546
10
-9.0351577643563221
20
-23.274852395922697
10
-9.0269249297106526
20
-23.2622366478912
10
-9.0175888273484475
20
-23.250452395922693
10
-9.0072116226240411
20
-23.239576805371509
10
-8.995855874592543
20
-23.229676411670727
10
-9.0322657958523873
20
-23.154168537654979
10
-9.0470827249862449
20
-23.15688861639514
10
-9.0620549690807319
20
-23.158236647891201
10
-9.0770881974271891
20
-23.158205545528993
10
-9.0920859533327008
20
-23.156790191198287
10
-9.1055046541201037
20
-23.121440191198282
10
-9.1175450084508114
20
-23.085597671513245
10
-9.1176213076634092
20
-23.081053577025063
10
-9.1152117407342761
20
-23.077203970725844
10
-9.1110930399468746
20
-23.075283891985688
10
-9.106594102938999
20
-23.075918537654978
10
-9.0972607171122277
20
-23.07956145104081
10
-9.0876692997893933
20
-23.082122868363641
10
-9.0779120950649848
20
-23.083603183324268
10
-9.0680785911279767
20
-23.084006726631358
10
-9.058260087190968
20
-23.083331529780963
10
-9.048547331285457
20
-23.081579954977816
10
-9.039031622624039
20
-23.078751608521124
10
-9.0298024493956923
20
-23.074851608521119
10
-9.0210646934901817
20
-23.069947277812464
10
-9.0130000478208903
20
-23.06415830143451
10
-9.005664732860259
20
-23.057557514032936
10
-8.9991154808917564
20
-23.050211451040806
10
-8.9934087486082923
20
-23.042192947103796
10
-8.9886013076634086
20
-23.033573655765217
10
-8.9847493785295516
20
-23.02442286836364
10
-8.9718941442336799
20
-22.980927256318026
10
-8.8151956270086007
20
-22.944568424242512
10
-8.8089260714429365
20
-22.934129561277029
10
-8.819150956467638
20
-22.92751865986617
10
-8.975856577405791
20
-22.963875914184044
10
-9.0061678430964793
20
-22.930347277812459
10
-9.013605913962623
20
-22.923763025843957
10
-9.0216768588445113
20
-22.918070506158916
10
-9.0302986698681327
20
-22.913312632143171
10
-9.0393890635689207
20
-22.909525624269151
10
-9.048867213175221
20
-22.906750033717969
10
-9.058650284041363
20
-22.905024836867579
10
-9.0686565045138021
20
-22.904392947103801
10
-9.0786711501830943
20
-22.90487601796994
10
-9.0884788273484478
20
-22.90645475812742
10
-9.0979972131752209
20
-22.909088222694351
10
-9.1071431974271899
20
-22.912740584899076
10
-9.1158350084508104
20
-22.917368931355767
10
-9.1239897328602595
20
-22.922941372300652
10
-9.131525126561046
20
-22.929412632143169
10
-9.1383585123878195
20
-22.936751214820333
10
-9.1421365832539596
20
-22.939274049466004
10
-9.146679969080731
20
-22.939331923481749
10
-9.1505222919153777
20
-22.936907120332144
10
-9.1524245360098657
20
-22.932781529780964
10
-9.156882055694906
20
-22.897563813245533
10
-9.1600566619941173
20
-22.862209088836082
10
-9.1490463076634096
20
-22.855396490410886
10
-9.1375318982145899
20
-22.849475624269154
10
-9.1132992604193142
20
-22.815384679387265
10
-9.1133028824665594
20
-22.769714206946318
10
-9.1375318982145899
20
-22.735611451040807
10
-9.1490463076634096
20
-22.729690584899071
10
-9.1600566619941173
20
-22.722877986473872
10
-9.1568823312854555
20
-22.687523262064428
10
-9.1524245360098657
20
-22.652305545528996
10
-9.1505222919153777
20
-22.648179954977817
10
-9.1466796934901815
20
-22.645755151828205
10
-9.1421365832539596
20
-22.645813025843957
10
-9.1383585123878195
20
-22.648338222694353
10
-9.131525126561046
20
-22.655674443166792
10
-9.1239894178996312
20
-22.662145703009308
10
-9.1158346934901822
20
-22.667715781749468
10
-9.1071428824665581
20
-22.672346490410881
10
-9.0979969375846697
20
-22.675998852615614
10
-9.0884788273484478
20
-22.678632317182537
10
-9.0786711501830943
20
-22.680208695135295
10
-9.0686565045138021
20
-22.680694128206159
10
-9.058650284041363
20
-22.680059876237653
10
-9.048867213175221
20
-22.678337041591991
10
-9.0393890635689207
20
-22.675561451040807
10
-9.0302986698681327
20
-22.67177444316679
10
-9.0216768588445113
20
-22.66701420694632
10
-9.013605913962623
20
-22.661324049466003
10
-9.0061678430964793
20
-22.654739797497502
10
-8.9758627045854382
20
-22.62120823444932
10
-8.8191513031547704
20
-22.657568564564237
10
-8.8089260714429365
20
-22.650957514032932
10
-8.8151956270086043
20
-22.640518651067445
10
-8.9718942208293235
20
-22.60415980121941
10
-8.9847493785295516
20
-22.560663813245529
10
-8.9886013076634086
20
-22.551513419544744
10
-8.9934084336476605
20
-22.542894128206164
10
-8.9991151659311264
20
-22.534875624269155
10
-9.0056647328602608
20
-22.527529561277028
10
-9.0130000478208903
20
-22.520926411670729
10
-9.0210646934901817
20
-22.515137435292779
10
-9.0298021738051428
20
-22.510235466788835
10
-9.0390310320728577
20
-22.506333104584115
10
-9.048547331285457
20
-22.503507120332149
10
-9.0582598116004167
20
-22.501755545528994
10
-9.0680782761673449
20
-22.501080348678602
10
-9.0779115045138035
20
-22.501481529780964
10
-9.0876692997893933
20
-22.50296420694632
10
-9.0972607171122277
20
-22.505525624269154
10
-9.106594102938999
20
-22.509168537654979
10
-9.1110930399468746
20
-22.509802789623482
10
-9.1152114257736461
20
-22.50788310458411
10
-9.1176209927027791
20
-22.504031136080179
10
-9.1175450084508114
20
-22.499489403796709
10
-9.1055046541201037
20
-22.463646884111672
10
-9.0920859533327008
20
-22.428296884111671
10
-9.0770881974271891
20
-22.426881529780967
10
-9.0620549690807319
20
-22.42685042741876
10
-9.0470824493956936
20
-22.428198458914828
10
-9.0322657958523855
20
-22.430918537654982
10
-8.995855874592543
20
-22.355407907733724
10
-9.0072119375846693
20
-22.345510269938444
10
-9.0175894178996305
20
-22.334634285686477
10
-9.0269255202618339
20
-22.322850427418754
10
-9.0351577643563221
20
-22.310234679387268
10
-9.0161109927027798
20
-22.278136254190414
10
-8.9958516619941182
20
-22.246789403796715
10
-8.9923478430964803
20
-22.243898852615608
10
-8.9878338667185265
20
-22.243379561277028
10
-8.9837659533326999
20
-22.245405545528993
10
-8.9814564257736453
20
-22.24931735655262
10
-8.978480677742148
20
-22.258898065214034
10
-8.9744968588445122
20
-22.268002789623484
10
-8.9695623706555345
20
-22.276564600647106
10
-8.9637352053012052
20
-22.284511057340019
10
-8.9570730005767949
20
-22.291770506158919
10
-8.9496337486082922
20
-22.298272868363636
10
-8.9414750871909696
20
-22.303951214820337
10
-8.9326550478208908
20
-22.308730742379389
10
-8.9233573706555358
20
-22.312498458914828
10
-8.9137878824665577
20
-22.315187435292778
10
-8.9040381974271892
20
-22.316792553403012
10
-8.8941986698681337
20
-22.317318931355764
10
-8.8843609533327008
20
-22.316763813245529
10
-8.8746157564823065
20
-22.315127199072304
10
-8.8650543785295515
20
-22.312411844741597
10
-8.8233392890178752
20
-22.295367778260054
10
-8.6966185559071363
20
-22.39852000433514
10
-8.6845271344350632
20
-22.397077592773091
10
-8.6855686106346024
20
-22.38494413173801
10
-8.8122775914700764
20
-22.281803401852383
10
-8.8050098509704959
20
-22.236884679387263
10
-8.8045199690807312
20
-22.22697483686758
10
-8.8051200871909696
20
-22.217129954977814
10
-8.806789850970496
20
-22.207436254190412
10
-8.8095087879783716
20
-22.197985466788836
10
-8.8132570950649836
20
-22.188861451040804
10
-8.8180140635689206
20
-22.180155545528997
10
-8.8237598509704966
20
-22.171953970725845
10
-8.8303817801043536
20
-22.164442553403017
10
-8.837727331285457
20
-22.15777444316679
10
-8.8457156777421506
20
-22.151987828993565
10
-8.8542651265610477
20
-22.147124443166792
10
-8.8632945360098656
20
-22.143226805371519
10
-8.8727234336476606
20
-22.140331136080178
10
-8.8824707564823076
20
-22.138478380174664
10
-8.8924547328602603
20
-22.137711844741592
10
-8.8967836698681335
20
-22.136332710883327
10
-8.8996618194744332
20
-22.132817356552614
10
-8.9001613076634101
20
-22.128299640017186
10
-8.8981215045138029
20
-22.124240978599861
10
-8.8705944178996301
20
-22.096061451040811
10
-8.8419529612067151
20
-22.06901381324553
10
-8.8278433549075039
20
-22.0742929471038
10
-8.8143063076634078
20
-22.080831529780969
10
-8.8014258352224637
20
-22.08858113608018
10
-8.7892863864035657
20
-22.097503183324271
10
-8.7235504415216774
20
-22.045479167576239
10
-8.7294418982145903
20
-22.031616569151044
10
-8.7340261501830945
20
-22.017297277812457
10
-8.7372782367972679
20
-22.002622474662857
10
-8.7391730005767947
20
-21.987676017969939
10
-8.7093558745925428
20
-21.967969325056554
10
-8.6788374100256132
20
-21.949365781749471
10
-8.6744252446712835
20
-21.948281923481751
10
-8.6701338667185279
20
-21.949774049466008
10
-8.6673473312854572
20
-21.953361844741593
10
-8.6669643785295509
20
-21.957891372300651
10
-8.668440677742149
20
-21.967818143954194
10
-8.6688020163248272
20
-21.977754364426637
10
-8.6680691423090774
20
-21.987611057340022
10
-8.666264496639787
20
-21.997302395922695
10
-8.6634091816791567
20
-22.006736254190415
10
-8.6595248116004182
20
-22.015826805371518
10
-8.6546332761673455
20
-22.024484679387268
10
-8.6487559533327012
20
-22.032618537654983
10
-8.6420087486082906
20
-22.040048458914818
10
-8.6345472525452998
20
-22.046620506158913
10
-8.6264541029390003
20
-22.052296490410882
10
-8.6178115438838816
20
-22.057037435292777
10
-8.6087019375846694
20
-22.060802789623484
10
-8.59920693758467
20
-22.063552002221911
10
-8.5894097722303382
20
-22.065248458914823
10
-8.5445211256670603
20
-22.067952869214146
10
-8.4738451909142682
20
-22.220284736854001
10
-8.4623416226240398
20
-22.224281136080176
10
-8.4579660061541642
20
-22.212917629876017
10
-8.5286313705057619
20
-22.06061122490291
10
-8.5025641423090796
20
-22.023191766001435
10
-8.4978315045138046
20
-22.014476411670728
10
-8.4941078430964794
20
-22.005347277812458
10
-8.4914135123878189
20
-21.99589412820616
10
-8.4897680793169528
20
-21.986200821119546
10
-8.4891916619941181
20
-21.976358301434509
10
-8.489704417899631
20
-21.966453183324269
10
-8.4913261108130165
20
-21.956576805371515
10
-8.4940357171122276
20
-21.946943340804587
10
-8.497761504513802
20
-21.937752002221909
10
-8.5024481974271886
20
-21.929077592773091
10
-8.508040165931126
20
-21.920991372300648
10
-8.5144822131752207
20
-21.913563813245531
10
-8.5217184336476617
20
-21.906866962851829
10
-8.5296938273484493
20
-21.900974836867579
10
-8.5383529218366387
20
-21.895952789623482
10
-8.5416539848287627
20
-21.892831136080176
10
-8.5427220950649829
20
-21.888414600647103
10
-8.5412131580571113
20
-21.884129954977816
10
-8.5376137092382134
20
-21.881357120332147
10
-8.5023139454586847
20
-21.868501214820331
10
-8.4665461895531724
20
-21.857014994347892
10
-8.4560839848287639
20
-21.8678523959227
10
-8.4466803234114405
20
-21.879581529780964
10
-8.4383916226240405
20
-21.892122474662859
10
-8.4312746541201022
20
-21.905401214820337
10
-8.3495467013641971
20
-21.88674688411167
10
-8.3488952053012042
20
-21.871697277812462
10
-8.3468695360098657
20
-21.856801214820333
10
-8.3434859927027798
20
-21.842152789623483
10
-8.3387622525452993
20
-21.827848065214038
10
-8.3015519769547481
20
-21.822679167576236
10
-8.2641704808917567
20
-21.818944915607734
10
-8.2597247328602599
20
-21.81988231718254
10
-8.2565056383720705
20
-21.823090191198283
10
-8.2555521344350637
20
-21.827530742379388
10
-8.2571712682933303
20
-21.831776805371515
10
-8.2628092210492365
20
-21.840081529780964
10
-8.2674464651437241
20
-21.848878773875452
10
-8.2710638273484474
20
-21.858077199072305
10
-8.2736423706555353
20
-21.867592947103802
10
-8.2751628430964796
20
-21.877334679387261
10
-8.2756064651437242
20
-21.887210663639227
10
-8.2749545360098669
20
-21.897132710883323
10
-8.2731876068760073
20
-21.907013419544743
10
-8.2703301659311261
20
-21.916637435292774
10
-8.2664576462460868
20
-21.925794915607735
10
-8.2616269375846692
20
-21.934421687261281
10
-8.2558950084508105
20
-21.9424429471038
10
-8.2493188667185269
20
-21.949786254190411
10
-8.2419557171122282
20
-21.956384679387259
10
-8.2338624100256137
20
-21.962163813245535
10
-8.1946140368536646
20
-21.984049563250473
10
-8.197365944815223
20
-22.15757089936206
10
-8.1887497328602592
20
-22.166175230568367
10
-8.1798642800068464
20
-22.157847548465252
10
-8.1771127296375763
20
-21.98435953110852
10
-8.1373672525452996
20
-21.961930742379391
10
-8.1293245360098663
20
-21.956132317182536
10
-8.1220112289232524
20
-21.949521687261278
10
-8.1154833549075036
20
-21.942171293560495
10
-8.1097974887657713
20
-21.934152395922702
10
-8.1050098903405754
20
-21.925535466788837
10
-8.101176819474432
20
-21.916389797497498
10
-8.0983542997893938
20
-21.906790191198287
10
-8.0966163864035661
20
-21.896933104584118
10
-8.0959867801043544
20
-21.887037828993567
10
-8.0964467407342759
20
-21.877190584899079
10
-8.0979769769547492
20
-21.867479954977817
10
-8.1005587092382125
20
-21.857995703009312
10
-8.1041731580571099
20
-21.848823655765216
10
-8.1088008745925446
20
-21.840055151828206
10
-8.1144235123878197
20
-21.831776805371515
10
-8.1160426462460862
20
-21.827530742379388
10
-8.1150889848287644
20
-21.823087828993565
10
-8.1118700478208901
20
-21.81988231718254
10
-8.1074240635689208
20
-21.818944915607734
10
-8.071856425773646
20
-21.822465388048681
10
-8.0364414651437244
20
-21.827283498284899
10
-8.0317600478208906
20
-21.841232710883329
10
-8.02835004782089
20
-21.855549246316397
10
-7.8890027643563227
20
-21.886807120332147
10
-7.8566516226240397
20
-21.89805042741876
10
-7.8248837486082907
20
-21.910382317182542
10
-7.7937190241988432
20
-21.92377641167073
10
-7.7631770556949062
20
-21.938208695135291
10
-7.733277488765772
20
-21.95365751403293
10
-7.7040400084508116
20
-21.970093734505372
10
-7.6754845360098667
20
-21.98750082111955
10
-7.6476306383720702
20
-22.005849640017182
10
-7.6204982367972676
20
-22.025118931355763
10
-7.5941067801043545
20
-22.045284679387262
10
-7.5684760714429373
20
-22.066322474662858
10
-7.5436260714429375
20
-22.088208695135297
10
-7.5195761501830942
20
-22.110918931355769
10
-7.4963461501830944
20
-22.134431923481749
10
-7.4739559927027805
20
-22.158720899859702
10
-7.4524251659311256
20
-22.183764600647109
10
-7.4317735517578978
20
-22.209536254190414
10
-7.4120207171122292
20
-22.236014600647106
10
-7.393186543883882
20
-22.263175230568365
10
-7.3752904808917554
20
-22.290994521906949
10
-7.3583524887657719
20
-22.31945003371797
10
-7.3423923352224643
20
-22.348513813245528
10
-7.3274295990019924
20
-22.378166569151041
10
-7.3134839887657712
20
-22.408383498284905
10
-7.3005753667185278
20
-22.439139010095925
10
-7.2887233352224641
20
-22.470408695135291
10
-7.2779476068760083
20
-22.502173655765215
10
-7.2682679612067158
20
-22.534404364426635
10
-7.259704114750023
20
-22.567082317182539
10
-7.252275854907503
20
-22.60018074237939
10
-7.2460027446712836
20
-22.633675624269152
10
-7.2409045675059289
20
-22.667542947103801
10
-7.2473045478208897
20
-22.676085466788841
10
-7.2555876502635437
20
-22.682544915607735
10
-7.6232973706555347
20
-22.682544915607739
10
-7.6232973706555347
20
-22.60504412820616
10
-7.6857973706555356
20
-22.605044128206156
10
-7.6857973706555356
20
-22.980042947103797
10
-7.6232973706555347
20
-22.980042947103797
0
CIRCLE
5
101
100
AcDbEntity
8
0
100
AcDbCircle
10
-8.1815180354661088
20
-22.792543537654979
30
0
40
0.94943074230845403
210
0
220
0
230
1
0
CIRCLE
5
102
100
AcDbEntity
8
0
100
AcDbCircle
10
-8.1815180354661088
20
-22.792543537654979
30
0
40
0.62641280797976007
210
0
220
0
230
1
0
LINE
5
103
100
AcDbEntity
8
0
100
AcDbLine
10
-8.3904106777421497
20
-23.689013025843959
30
0
11
-8.3249708175112005
21
-23.402309316724789
31
0
0
LINE
5
104
100
AcDbEntity
8
0
100
AcDbLine
10
-8.3904106777421497
20
-23.689013025843959
30
0
11
-8.3968517997319339
21
-23.717232731064037
31
0
0
LINE
5
105
100
AcDbEntity
8
0
100
AcDbLine
10
-8.7564184139626224
20
-23.513594718757339
30
0
11
-8.7733261525105188
21
-23.534959786831095
31
0
0
LINE
5
106
100
AcDbEntity
8
0
100
AcDbLine
10
-8.7564184139626224
20
-23.513594718757339
30
0
11
-8.5728717972520769
21
-23.281660332640659
31
0
0
LINE
5
107
100
AcDbEntity
8
0
100
AcDbLine
10
-9.0140608352224643
20
-23.191922474662853
30
0
11
-8.7465670894796048
21
-23.062936903992878
31
0
0
LINE
5
108
100
AcDbEntity
8
0
100
AcDbLine
10
-9.0140608352224643
20
-23.191922474662853
30
0
11
-9.0375258401826901
21
-23.203237307640208
31
0
0
LINE
5
109
100
AcDbEntity
8
0
100
AcDbLine
10
-9.1133010714429368
20
-22.792549443166791
30
0
11
-8.8079308431781858
21
-22.792525224775023
31
0
0
LINE
5
110
100
AcDbEntity
8
0
100
AcDbLine
10
-9.1133010714429368
20
-22.792549443166791
30
0
11
-9.1309487777464593
21
-22.792550842776269
31
0
0
LINE
5
111
100
AcDbEntity
8
0
100
AcDbLine
10
-9.0140608352224643
20
-22.393163222694351
30
0
11
-8.7465647233086514
21
-22.522145226714873
31
0
0
LINE
5
112
100
AcDbEntity
8
0
100
AcDbLine
10
-9.0140608352224643
20
-22.393163222694351
30
0
11
-9.0375254641824103
21
-22.3818489839744
31
0
0
LINE
5
113
100
AcDbEntity
8
0
100
AcDbLine
10
-8.7564184139626224
20
-22.071491175450255
30
0
11
-8.5728661218043545
21
-22.303422201665146
31
0
0
LINE
5
114
100
AcDbEntity
8
0
100
AcDbLine
10
-8.7564184139626224
20
-22.071491175450255
30
0
11
-8.7733260501188877
21
-22.050127206858626
31
0
0
LINE
5
115
100
AcDbEntity
8
0
100
AcDbLine
10
-8.3904106777421497
20
-21.896074049466005
30
0
11
-8.3249708175111738
21
-22.182777758585164
31
0
0
LINE
5
116
100
AcDbEntity
8
0
100
AcDbLine
10
-8.3904106777421497
20
-21.896074049466005
30
0
11
-8.3968517997319392
21
-21.867854344245924
31
0
0
LINE
5
117
100
AcDbEntity
8
0
100
AcDbLine
10
-7.987841686574189
20
-23.720451141252312
30
0
11
-8.0582207193728639
21
-23.406702131053535
31
0
0
LINE
5
118
100
AcDbEntity
8
0
100
AcDbLine
10
-7.9878416865741917
20
-21.864635934057645
30
0
11
-8.0582207193728639
21
-22.178384944256422
31
0
0
ENDSEC
0
SECTION
2
OBJECTS
0
DICTIONARY
5
C
100
AcDbDictionary
3
ACAD_GROUP
350
D
3
ACAD_MLINESTYLE
350
17
0
DICTIONARY
5
D
100
AcDbDictionary
0
DICTIONARY
5
1A
330
C
100
AcDbDictionary
0
DICTIONARY
5
17
100
AcDbDictionary
0
ENDSEC
0
EOF
