0
SECTION
2
HEADER
9
$INSUNITS
70
1
9
$ACADVER
1
AC1014
9
$HANDSEED
5
FFFF
0
ENDSEC
0
SECTION
2
TABLES
0
TABLE
2
VPORT
5
8
100
AcDbSymbolTable
0
ENDTAB
0
TABLE
2
LTYPE
5
5
100
AcDbSymbolTable
0
LTYPE
5
14
100
AcDbSymbolTableRecord
100
AcDbLinetypeTableRecord
2
BYBLOCK
70
0
0
LTYPE
5
15
100
AcDbSymbolTableRecord
100
AcDbLinetypeTableRecord
2
BYLAYER
70
0
0
ENDTAB
0
TABLE
2
LAYER
5
2
100
AcDbSymbolTable
70
2
0
LAYER
5
50
100
AcDbSymbolTableRecord
100
AcDbLayerTableRecord
2
0
70
0
6
CONTINUOUS
0
ENDTAB
0
TABLE
2
STYLE
5
3
100
AcDbSymbolTable
70
1
0
STYLE
5
11
100
AcDbSymbolTableRecord
100
AcDbTextStyleTableRecord
2
STANDARD
70
0
0
ENDTAB
0
TABLE
2
VIEW
5
6
100
AcDbSymbolTable
70
0
0
ENDTAB
0
TABLE
2
UCS
5
7
100
AcDbSymbolTable
70
0
0
ENDTAB
0
TABLE
2
APPID
5
9
100
AcDbSymbolTable
70
2
0
APPID
5
12
100
AcDbSymbolTableRecord
100
AcDbRegAppTableRecord
2
ACAD
70
0
0
ENDTAB
0
TABLE
2
DIMSTYLE
5
A
100
AcDbSymbolTable
70
1
0
ENDTAB
0
TABLE
2
BLOCK_RECORD
5
1
100
AcDbSymbolTable
70
1
0
BLOCK_RECORD
5
1F
100
AcDbSymbolTableRecord
100
AcDbBlockTableRecord
2
*MODEL_SPACE
0
BLOCK_RECORD
5
1B
100
AcDbSymbolTableRecord
100
AcDbBlockTableRecord
2
*PAPER_SPACE
0
ENDTAB
0
ENDSEC
0
SECTION
2
BLOCKS
0
BLOCK
5
20
100
AcDbEntity
100
AcDbBlockBegin
2
*MODEL_SPACE
0
ENDBLK
5
21
100
AcDbEntity
100
AcDbBlockEnd
0
BLOCK
5
1C
100
AcDbEntity
100
AcDbBlockBegin
2
*PAPER_SPACE
0
ENDBLK
5
1D
100
AcDbEntity
100
AcDbBlockEnd
0
ENDSEC
0
SECTION
2
ENTITIES
0
SPLINE
5
100
100
AcDbEntity
8
0
100
AcDbSpline
70
0
71
3
72
15
73
11
74
0
42
0.000000001
43
0.0000000001
44
0.0000000001
40
1.2866995360147127
40
1.2866995360147127
40
1.2866995360147127
40
1.2866995360147127
40
1.3185856230249198
40
1.3185856230249198
40
1.3683450703155193
40
1.3683450703155193
40
1.4181064431005752
40
1.4181064431005752
40
1.4181064431005752
40
1.4850777699378699
40
1.4850777699378699
40
1.4850777699378699
40
1.4850777699378699
10
-3.4003511699087205
20
1.0899799873771856
30
2.1854783949314103e-17
10
-3.3981034907178658
20
1.0934880030686829
30
3.7153132713833977e-16
10
-3.3956062050610778
20
1.096840661946509
30
2.1854783949314103e-17
10
-3.3886123091724589
20
1.1049578402645142
30
3.7153132713833977e-16
10
-3.3838157764523484
20
1.1094183623739606
30
2.1854783949314103e-17
10
-3.3733294867954129
20
1.117203831499346
30
-3.2782175923971154e-16
10
-3.3676718026622989
20
1.1205048974164171
30
3.7153132713833977e-16
10
-3.3617029285219604
20
1.1231540848268047
30
3.7153132713833977e-16
10
-3.3536697212664053
20
1.1267194928126469
30
3.7153132713833977e-16
10
-3.3451644528748004
20
1.1290635438969256
30
3.7153132713833977e-16
10
-3.3364698167255793
20
1.1301222250069958
30
2.1854783949314103e-17
0
ARC
5
101
100
AcDbEntity
8
0
100
AcDbCircle
10
-3.1258396030233362
20
0.7240298570103908
30
-3.278217592397108e-16
40
0.45746704610205796
210
-1.2779418480877088e-17
220
2.4638555985398275e-17
230
1
100
AcDbArc
50
94.239398046838559
51
117.41466927040953
0
ARC
5
102
100
AcDbEntity
8
0
100
AcDbCircle
10
-3.1250003607731065
20
0.72500000187730262
30
3.715313271383407e-16
40
0.45656250000002341
210
1.1070197874574983e-16
220
8.4275468467363819e-18
230
1
100
AcDbArc
50
80.75536552780153
51
94.353429719200889
0
SPLINE
5
103
100
AcDbEntity
8
0
100
AcDbSpline
70
0
71
3
72
12
73
8
74
0
42
0.000000001
43
0.0000000001
44
0.0000000001
40
0.13633640365813371
40
0.13633640365813371
40
0.13633640365813371
40
0.13633640365813371
40
0.17583946509124354
40
0.17583946509124354
40
0.2637644062492821
40
0.2637644062492821
40
0.33444725447093693
40
0.33444725447093693
40
0.33444725447093693
40
0.33444725447093693
10
-3.0516535328214811
20
1.1756324011072137
30
3.7153132713833977e-16
10
-3.046591034320687
20
1.1766312652928108
30
1.9669305554382694e-16
10
-3.0414391590161882
20
1.1771883725264967
30
3.7153132713833977e-16
10
-3.0247195650312206
20
1.177519799731354
30
1.9669305554382694e-16
10
-3.0132486284159534
20
1.1754930166128179
30
1.9669305554382694e-16
10
-2.9938396197118009
20
1.1679736072795943
30
2.1854783949314103e-17
10
-2.9857827716705407
20
1.1632900964684634
30
-3.2782175923971154e-16
10
-2.9786067522093593
20
1.1574560433173031
30
-3.2782175923971154e-16
0
ARC
5
104
100
AcDbEntity
8
0
100
AcDbCircle
10
-3.1250003607731065
20
0.72500000187730262
30
3.715313271383407e-16
40
0.45656250000002119
210
9.6260701573950644e-17
220
-6.1888617324386037e-17
230
1
100
AcDbArc
50
34.212341061609088
51
71.298179600847433
0
SPLINE
5
105
100
AcDbEntity
8
0
100
AcDbSpline
70
0
71
3
72
12
73
8
74
0
42
0.000000001
43
0.0000000001
44
0.0000000001
40
0.24768025216438802
40
0.24768025216438802
40
0.24768025216438802
40
0.24768025216438802
40
0.26385870344193663
40
0.26385870344193663
40
0.35172545833246227
40
0.35172545833246227
40
0.43833704627799519
40
0.43833704627799519
40
0.43833704627799519
40
0.43833704627799519
10
-2.7474416701093083
20
0.98170752321337118
30
1.9669305554382694e-16
10
-2.7457319179888846
20
0.98045901804459856
30
1.9669305554382694e-16
10
-2.7440650658838384
20
0.97914784563773727
30
3.7153132713833977e-16
10
-2.7336442670796877
20
0.97032526101466399
30
2.1854783949314103e-17
10
-2.7263834649268781
20
0.96122714253535979
30
2.1854783949314103e-17
10
-2.7158345638228716
20
0.94090498790674659
30
2.1854783949314103e-17
10
-2.7125902567781948
20
0.9299040130818238
30
3.7153132713833977e-16
10
-2.7115134309350792
20
0.9185920349246135
30
1.9669305554382694e-16
0
ARC
5
106
100
AcDbEntity
8
0
100
AcDbCircle
10
-3.1250003607731065
20
0.72500000187730262
30
3.715313271383407e-16
40
0.45656250000001902
210
-8.8778672529924615e-17
220
-7.2212678427385797e-17
230
1
100
AcDbArc
50
3.9224367793292516
51
25.088704038056264
0
ARC
5
107
100
AcDbEntity
8
0
100
AcDbCircle
10
-3.1258396030233362
20
0.7240298570103908
30
-3.278217592397108e-16
40
0.45746704610205979
210
5.5373452966129159e-17
220
3.907507853816336e-18
230
1
100
AcDbArc
50
0
51
4.0364684516908165
0
LINE
5
108
100
AcDbEntity
8
0
100
AcDbLine
10
-2.6683725569212764
20
0.72402985701038913
30
-3.5315328920059723e-16
11
-2.6683725569212764
21
0.64774600760981205
31
1.9669305554382689e-16
0
SPLINE
5
109
100
AcDbEntity
8
0
100
AcDbSpline
70
0
71
3
72
12
73
8
74
0
42
0.000000001
43
0.0000000001
44
0.0000000001
40
0.59824830012396979
40
0.59824830012396979
40
0.59824830012396979
40
0.59824830012396979
40
0.61563749094232356
40
0.61563749094232356
40
0.70346339877546771
40
0.70346339877546771
40
0.76771054905750968
40
0.76771054905750968
40
0.76771054905750968
40
0.76771054905750968
10
-2.6683725569212764
20
0.64774600760981205
30
2.1854783949314103e-17
10
-2.6675378922696891
20
0.6456294982367502
30
-1.5298348764519871e-16
10
-2.6667839015892385
20
0.64347842016647194
30
1.9669305554382694e-16
10
-2.6627244938721319
20
0.63028096966606928
30
1.9669305554382694e-16
10
-2.6615204674522999
20
0.61870867181982758
30
2.1854783949314103e-17
10
-2.6633329254126306
20
0.59883400696280797
30
2.1854783949314103e-17
10
-2.665292303907282
20
0.59060556977980672
30
2.1854783949314103e-17
10
-2.6683725569212764
20
0.58279042010548465
30
2.1854783949314103e-17
0
LINE
5
110
100
AcDbEntity
8
0
100
AcDbLine
10
-2.6683725569212764
20
0.58279042010548465
30
2.1854783949314103e-17
11
-2.6683725569212764
21
0.34398897483467944
31
2.1854783949314103e-17
0
SPLINE
5
111
100
AcDbEntity
8
0
100
AcDbSpline
70
0
71
3
72
12
73
8
74
0
42
0.000000001
43
0.0000000001
44
0.0000000001
40
0.82775604446447015
40
0.82775604446447015
40
0.82775604446447015
40
0.82775604446447015
40
0.87914886197759512
40
0.87914886197759512
40
0.9669942251994339
40
0.9669942251994339
40
0.99587544536440986
40
0.99587544536440986
40
0.99587544536440986
40
0.99587544536440986
10
-2.6683725569212764
20
0.34398897483467944
30
2.1854783949314103e-17
10
-2.6659279546960528
20
0.33773635837651528
30
-1.5298348764519871e-16
10
-2.6641970930153227
20
0.33121136950225921
30
1.9669305554382694e-16
10
-2.6615591520902462
20
0.31313013788973232
30
-1.5298348764519871e-16
10
-2.6621392404106374
20
0.30150709728783204
30
1.9669305554382694e-16
10
-2.6658465757529295
20
0.28664392433886704
30
1.9669305554382694e-16
10
-2.6669974336413835
20
0.28303493005886093
30
2.1854783949314103e-17
10
-2.6683725569212764
20
0.27951581803249054
30
2.1854783949314103e-17
0
LINE
5
112
100
AcDbEntity
8
0
100
AcDbLine
10
-2.6683725569212764
20
0.27951581803249054
30
2.1854783949314156e-17
11
-2.6683725569212764
21
0.26211707050995692
31
2.1854783949314143e-17
0
LINE
5
113
100
AcDbEntity
8
0
100
AcDbLine
10
-2.6683725569212764
20
0.26211707050995692
30
2.1854783949314143e-17
11
-2.5409645669289942
21
0.26211707050995692
31
1.9669305554382694e-16
0
LINE
5
114
100
AcDbEntity
8
0
100
AcDbLine
10
-2.5409645669289942
20
0.26211707050995692
30
1.9669305554382694e-16
11
-2.5409645669289946
21
0.84722199707634915
31
1.9669305554382694e-16
0
ARC
5
115
100
AcDbEntity
8
0
100
AcDbCircle
10
-3.0595745669289949
20
0.84722199707634915
30
1.9669305554382694e-16
40
0.51861000000000024
210
0
220
-6.1629758220391561e-33
230
1
100
AcDbArc
50
0
51
71.406695657975462
0
LINE
5
116
100
AcDbEntity
8
0
100
AcDbLine
10
-2.8942165205724804
20
1.3387634995002613
30
1.9669305554382694e-16
11
-3.2804261619884061
21
1.4686871610296828
31
3.2782175923971154e-16
0
ARC
5
117
100
AcDbEntity
8
0
100
AcDbCircle
10
-3.2841088627373658
20
1.4577400054542098
30
3.7153132713833977e-16
40
0.011549999999999961
210
1.2066434919658325e-15
220
3.5868551183298144e-15
230
1
100
AcDbArc
50
71.406695657972733
51
202.50160725910726
0
ARC
5
118
100
AcDbEntity
8
0
100
AcDbCircle
10
-3.3813922470747535
20
1.4174407110203837
30
2.1854783949314119e-17
40
0.093749999999999847
210
-4.0662702244318568e-17
220
-4.6887146799142801e-17
230
1
100
AcDbArc
50
-70.815386547692938
51
22.50160725910321
0
LINE
5
119
100
AcDbEntity
8
0
100
AcDbLine
10
-3.350584775843739
20
1.3288971498973399
30
1.8955944030386237e-17
11
-3.3311255541154936
21
1.2334426923000061
31
-3.291876832365437e-16
0
ARC
5
120
100
AcDbEntity
8
0
100
AcDbCircle
10
-3.343373639531046
20
1.2309458135177376
30
3.7153132713833977e-16
40
0.012500000000000278
210
0
220
0
230
1
100
AcDbArc
50
-168.47764220846136
51
11.522357791540632
0
LINE
5
121
100
AcDbEntity
8
0
100
AcDbLine
10
-3.3556217249465985
20
1.2284489347354695
30
3.7153132713833977e-16
11
-3.3750809466748444
21
1.3239033923328034
31
-3.2645583524287942e-16
0
ARC
5
122
100
AcDbEntity
8
0
100
AcDbCircle
10
-3.3813922470747535
20
1.4174407110203837
30
2.1854783949314119e-17
40
0.093750000000000014
210
-1.5419034324931032e-31
220
1.8427438206018824e-32
230
1
100
AcDbArc
50
173.18484952355067
51
273.86010213077412
0
ARC
5
123
100
AcDbEntity
8
0
100
AcDbCircle
10
-3.4859482145798051
20
1.4299362966042006
30
7.2120787032736537e-16
40
0.011549999999999425
210
6.0120567231838312e-14
220
-7.1990441312002649e-15
230
1
100
AcDbArc
50
-6.8151504764495252
51
117.02778593939294
0
ARC
5
124
100
AcDbEntity
8
0
100
AcDbCircle
10
-3.1258396030233362
20
0.7240298570103908
30
-3.278217592397108e-16
40
0.80400322485124409
210
5.9318850711735715e-16
220
-1.1628035921088201e-15
230
1
100
AcDbArc
50
117.02778593939702
51
123.85539797556346
0
LINE
5
125
100
AcDbEntity
8
0
100
AcDbLine
10
-3.573748846988277
20
1.3917112890885615
30
-3.4997907689999549e-16
11
-3.4372133575110322
21
1.1665135323927787
31
3.7153132713833977e-16
0
ARC
5
126
100
AcDbEntity
8
0
100
AcDbCircle
10
-3.4479022362326051
20
1.1600329559002502
30
3.7153132713833967e-16
40
0.012500000000000089
210
2.8779540939401677e-17
220
-4.7468157056457616e-17
230
1
100
AcDbArc
50
-148.77192213677807
51
31.22807786322193
0
LINE
5
127
100
AcDbEntity
8
0
100
AcDbLine
10
-3.4585911149541779
20
1.1535523794077218
30
3.7153132713833977e-16
11
-3.5943293639168998
21
1.3774351902523936
31
-3.2782175923971154e-16
0
ARC
5
128
100
AcDbEntity
8
0
100
AcDbCircle
10
-3.1258396030233362
20
0.7240298570103908
30
-3.278217592397108e-16
40
0.80400322485124442
210
4.511335421026158e-17
220
3.2346146337995932e-17
230
1
100
AcDbArc
50
125.64041530223591
51
132.63849563233936
0
ARC
5
129
100
AcDbEntity
8
0
100
AcDbCircle
10
-3.6626239470469479
20
1.3069918468418706
30
3.7153132713833977e-16
40
0.011550000000000126
210
-3.8057098369246759e-14
220
4.1412965990638253e-14
230
1
100
AcDbArc
50
132.63849563233839
51
256.48143204818587
0
ARC
5
130
100
AcDbEntity
8
0
100
AcDbCircle
10
-3.6872389244699408
20
1.2046092658699812
30
3.7153132713833977e-16
40
0.093750000000000527
210
-0
220
0
230
1
100
AcDbArc
50
-32.902541471771258
51
76.481432048184431
0
LINE
5
131
100
AcDbEntity
8
0
100
AcDbLine
10
-3.6085268210238106
20
1.1536831697002787
30
3.7153132713833977e-16
11
-3.5365630655354949
21
1.0920794274962893
31
-3.3328545522704005e-16
0
ARC
5
132
100
AcDbEntity
8
0
100
AcDbCircle
10
-3.5446919104562404
20
1.0825835399519621
30
3.7153132713833977e-16
40
0.012499999999999747
210
3.6099323178465525e-17
220
4.2170211963851655e-17
230
1
100
AcDbArc
50
-130.56479713253555
51
49.435202867454549
0
LINE
5
133
100
AcDbEntity
8
0
100
AcDbLine
10
-3.5528207553769833
20
1.0730876524076347
30
3.7222521652873045e-16
11
-3.6247845108652967
21
1.1346913946116244
31
2.1854783949314103e-17
0
ARC
5
134
100
AcDbEntity
8
0
100
AcDbCircle
10
-3.6872389244699408
20
1.2046092658699812
30
3.7153132713833977e-16
40
0.093749999999999264
210
0
220
0
230
1
100
AcDbArc
50
202.38897368674051
51
311.77294720669681
0
ARC
5
135
100
AcDbEntity
8
0
100
AcDbCircle
10
-3.7846013422102072
20
1.1645012914537913
30
2.1854783949314103e-17
40
0.011550000000000152
210
-2.7992874345360158e-14
220
-1.1531528428909723e-14
230
1
100
AcDbArc
50
22.388973686739504
51
146.23191010258745
0
ARC
5
136
100
AcDbEntity
8
0
100
AcDbCircle
10
-3.1258396030233362
20
0.7240298570103908
30
-3.278217592397108e-16
40
0.80400322485124542
210
3.0020526086079232e-16
220
-3.3428144106768134e-16
230
1
100
AcDbArc
50
146.23191010258591
51
153.12798735074219
0
LINE
5
137
100
AcDbEntity
8
0
100
AcDbLine
10
-3.8430252930507169
20
1.0874385409891196
30
-2.942311179129427e-16
11
-3.6074235156042906
21
0.97009436876316069
31
4.3709567898628207e-17
0
ARC
5
138
100
AcDbEntity
8
0
100
AcDbCircle
10
-3.6129963268173166
20
0.95890536634185564
30
2.1854783949314131e-17
40
0.012500000000000311
210
-4.9689152442878087e-17
220
2.4748253282360927e-17
230
1
100
AcDbArc
50
-116.47612752480471
51
63.523872475194601
0
LINE
5
139
100
AcDbEntity
8
0
100
AcDbLine
10
-3.6185691380303426
20
0.94771636392055025
30
2.1854783949314113e-17
11
-3.8539775891181671
21
1.0649642477323662
31
3.7153132713833977e-16
0
ARC
5
140
100
AcDbEntity
8
0
100
AcDbCircle
10
-3.1258396030233362
20
0.7240298570103908
30
-3.278217592397108e-16
40
0.80400322485124454
210
7.9953087161648884e-16
220
-3.4371506919680825e-16
230
1
100
AcDbArc
50
154.90970365934092
51
161.82972267499798
0
ARC
5
141
100
AcDbEntity
8
0
100
AcDbCircle
10
-3.8787763158210464
20
0.9711501113371388
30
7.2120787032736537e-16
40
0.011550000000000124
210
-8.6066156419759556e-14
220
2.8276859259088516e-14
230
1
100
AcDbArc
50
161.82972267499767
51
285.67265909084404
0
ARC
5
142
100
AcDbEntity
8
0
100
AcDbCircle
10
-3.8503304654270325
20
0.86976508485215231
30
2.1854783949314103e-17
40
0.093750000000000153
210
0
220
0
230
1
100
AcDbArc
50
-4.9897738530983391
51
105.67265909084308
0
LINE
5
143
100
AcDbEntity
8
0
100
AcDbLine
10
-3.7569357556355443
20
0.86161090292116205
30
2.1854783949314103e-17
11
-3.6644505467035486
21
0.84084981075647403
31
3.7699502312566828e-16
0
ARC
5
144
100
AcDbEntity
8
0
100
AcDbCircle
10
-3.6671884138035242
20
0.82865333242283712
30
3.7153132713833977e-16
40
0.012499999999999942
210
-5.7202887354135164e-17
220
-1.3822386943197805e-18
230
1
100
AcDbArc
50
-102.6520295138679
51
77.347970486134315
0
LINE
5
145
100
AcDbEntity
8
0
100
AcDbLine
10
-3.6699262809035003
20
0.81645685408920043
30
3.7135785479074205e-16
11
-3.7624114898354937
21
0.83721794625388823
31
1.6391087961985577e-17
0
ARC
5
146
100
AcDbEntity
8
0
100
AcDbCircle
10
-3.8503304654270325
20
0.86976508485215231
30
2.1854783949314103e-17
40
0.093749999999999833
210
-9.635888708655814e-18
220
-2.6029245600848618e-17
230
1
100
AcDbArc
50
229.80308604621479
51
339.6857148253697
0
ARC
5
147
100
AcDbEntity
8
0
100
AcDbCircle
10
-3.9182928278745828
20
0.78933370235410139
30
2.1854783949314103e-17
40
0.011549999999999996
210
1.3673768429293554e-16
220
1.6182487764091528e-16
230
1
100
AcDbArc
50
49.803086046213906
51
180
0
LINE
5
148
100
AcDbEntity
8
0
100
AcDbLine
10
-3.9298428278745829
20
0.78933370235410139
30
2.226859521918474e-17
11
-3.9298428278745821
21
0.7010886196207301
31
2.1854783949314103e-17
0
LINE
5
149
100
AcDbEntity
8
0
100
AcDbLine
10
-3.9298428278745821
20
0.7010886196207301
30
2.1854783949314103e-17
11
-3.6728035721473953
21
0.67325895048479423
31
2.1854783949314103e-17
0
ARC
5
150
100
AcDbEntity
8
0
100
AcDbCircle
10
-3.6741490851982528
20
0.66083157768802114
30
2.1854783949314103e-17
40
0.012499999999999942
210
0
220
0
230
1
100
AcDbArc
50
-96.179349873531208
51
83.820650126456613
0
LINE
5
151
100
AcDbEntity
8
0
100
AcDbLine
10
-3.6754945982491076
20
0.64840420489124795
30
2.1854783949314103e-17
11
-3.9298428278745821
21
0.67594251632839664
31
-3.2782175923971154e-16
0
LINE
5
152
100
AcDbEntity
8
0
100
AcDbLine
10
-3.9298428278745821
20
0.67594251632839664
30
-3.2782175923971154e-16
11
-3.9298428278745829
21
0.58379935587482767
31
2.1854783949314143e-17
0
ARC
5
153
100
AcDbEntity
8
0
100
AcDbCircle
10
-3.9182928278745837
20
0.58379935587482779
30
3.7153132713833977e-16
40
0.011549999999999278
210
-3.0275025384333113e-14
220
-2.2999731908730434e-28
230
1
100
AcDbArc
50
180
51
300.50392193886813
0
ARC
5
154
100
AcDbEntity
8
0
100
AcDbCircle
10
-3.8648428278745834
20
0.4930734637601733
30
3.7153132713833967e-16
40
0.093750000000000694
210
-4.7828097984495654e-17
220
-2.8177312756988024e-17
230
1
100
AcDbArc
50
7.6622556607659558
51
120.50392193886671
0
LINE
5
155
100
AcDbEntity
8
0
100
AcDbLine
10
-3.7719298982038421
20
0.5055734637601732
30
3.7632739225212079e-16
11
-3.6771997384999895
21
0.50557346376017298
31
7.2667156631469394e-16
0
ARC
5
156
100
AcDbEntity
8
0
100
AcDbCircle
10
-3.6771997384999886
20
0.49307346376017286
30
7.2120787032736537e-16
40
0.012499999999999803
210
-0
220
0
230
1
100
AcDbArc
50
-90
51
90.000000000004079
0
LINE
5
157
100
AcDbEntity
8
0
100
AcDbLine
10
-3.6771997384999886
20
0.48057346376017307
30
7.2120787032736537e-16
11
-3.7719298982038412
21
0.48057346376017318
31
1.6391087961985577e-17
0
ARC
5
158
100
AcDbEntity
8
0
100
AcDbCircle
10
-3.8648428278745834
20
0.4930734637601733
30
3.7153132713833967e-16
40
0.093749999999999736
210
4.2039233370535081e-31
220
7.135728627423809e-31
230
1
100
AcDbArc
50
239.49607806113394
51
352.33774433923401
0
ARC
5
159
100
AcDbEntity
8
0
100
AcDbCircle
10
-3.9182928278745828
20
0.40234757164551821
30
7.2120787032736537e-16
40
0.011550000000000223
210
1.5367522381695331e-14
220
2.6084792846981892e-14
230
1
100
AcDbArc
50
59.496078061131982
51
180
0
LINE
5
160
100
AcDbEntity
8
0
100
AcDbLine
10
-3.9298428278745829
20
0.40234757164551832
30
7.2120787032736537e-16
11
-3.9298428278745829
21
0.35505707050995705
31
2.1854783949314103e-17
0
ARC
5
161
100
AcDbEntity
8
0
100
AcDbCircle
10
-3.8369028278745843
20
0.35505707050995705
30
2.1854783949314103e-17
40
0.092939999999998649
210
0
220
1.97215226305253e-31
230
1
100
AcDbArc
50
180
51
270
0
LINE
5
162
100
AcDbEntity
8
0
100
AcDbLine
10
-3.8369028278745843
20
0.26211707050995708
30
2.1854783949314122e-17
11
-3.6762466491253951
21
0.26211707050995692
31
1.0927391974657052e-17
0
ARC
5
163
100
AcDbEntity
8
0
100
AcDbCircle
10
-3.676246649125396
20
0.35505707050995716
30
2.1854783949314103e-17
40
0.092940000000000231
210
8.8472374095070671e-31
220
-1.175746930778677e-16
230
1
100
AcDbArc
50
-89.999999999999446
51
0
0
LINE
5
164
100
AcDbEntity
8
0
100
AcDbLine
10
-3.5833066491253955
20
0.35505707050995716
30
2.1854783949314103e-17
11
-3.5833066491253955
21
0.46423339977969652
31
2.1854783949314026e-17
0
SPLINE
5
165
100
AcDbEntity
8
0
100
AcDbSpline
70
0
71
3
72
10
73
6
74
0
42
0.000000001
43
0.0000000001
44
0.0000000001
40
0.88260255607295779
40
0.88260255607295779
40
0.88260255607295779
40
0.88260255607295779
40
0.96722294536090858
40
0.96722294536090858
40
0.9901572372863231
40
0.9901572372863231
40
0.9901572372863231
40
0.9901572372863231
10
-3.5833066491253964
20
0.46423339977969652
30
3.7153132713833977e-16
10
-3.5873141456315323
20
0.47458182121404213
30
-3.2782175923971154e-16
10
-3.5893435233962565
20
0.48559532682486301
30
-3.2782175923971154e-16
10
-3.5892674990097753
20
0.49970967249523335
30
2.1854783949314103e-17
10
-3.5890979120912641
20
0.5027109720371471
30
3.7153132713833977e-16
10
-3.5887772521090691
20
0.50569250448298708
30
3.7153132713833977e-16
0
SPLINE
5
166
100
AcDbEntity
8
0
100
AcDbSpline
70
0
71
3
72
8
73
4
74
0
42
0.000000001
43
0.0000000001
44
0.0000000001
40
0.9901572372863231
40
0.9901572372863231
40
0.9901572372863231
40
0.9901572372863231
40
1.0494069859233484
40
1.0494069859233484
40
1.0494069859233484
40
1.0494069859233484
10
-3.5887772521090691
20
0.50569250448298708
30
3.7153132713833977e-16
10
-3.5879488409505842
20
0.51339516426178733
30
7.2120787032736537e-16
10
-3.5861120297753
20
0.52096588224698148
30
-3.2782175923971154e-16
10
-3.5833066491253964
20
0.5282079127886018
30
3.7153132713833977e-16
0
LINE
5
167
100
AcDbEntity
8
0
100
AcDbLine
10
-3.5833066491253964
20
0.5282079127886018
30
3.7153132713833937e-16
11
-3.5833066491253951
21
0.72402985701038913
31
3.7153132713833977e-16
0
ARC
5
168
100
AcDbEntity
8
0
100
AcDbCircle
10
-3.1258396030233362
20
0.7240298570103908
30
-3.278217592397108e-16
40
0.45746704610205907
210
-1.1102230246251733e-16
220
2.0800043399382143e-31
230
1
100
AcDbArc
50
172.93179332813094
51
180
0
SPLINE
5
169
100
AcDbEntity
8
0
100
AcDbSpline
70
0
71
3
72
10
73
6
74
0
42
0.000000001
43
0.0000000001
44
0.0000000001
40
1.1257110482069943
40
1.1257110482069943
40
1.1257110482069943
40
1.1257110482069943
40
1.1430300932348798
40
1.1430300932348798
40
1.2179805618504853
40
1.2179805618504853
40
1.2179805618504853
40
1.2179805618504853
10
-3.5798300694555758
20
0.78032154963000311
30
2.1854783949314103e-17
10
-3.5803138432240007
20
0.78253535665295337
30
2.1854783949314103e-17
10
-3.5807132188489263
20
0.78477019959606109
30
2.1854783949314103e-17
10
-3.582382515191302
20
0.79676348072913217
30
2.1854783949314103e-17
10
-3.5821047881500236
20
0.80665189829389117
30
-3.2782175923971154e-16
10
-3.5802157266670358
20
0.81628089889902644
30
-3.2782175923971154e-16
0
SPLINE
5
170
100
AcDbEntity
8
0
100
AcDbSpline
70
0
71
3
72
10
73
6
74
0
42
0.000000001
43
0.0000000001
44
0.0000000001
40
1.2179805618504853
40
1.2179805618504853
40
1.2179805618504853
40
1.2179805618504853
40
1.2309182928314897
40
1.2309182928314897
40
1.3139016292568677
40
1.3139016292568677
40
1.3139016292568677
40
1.3139016292568677
10
-3.5802157266670358
20
0.81628089889902644
30
-3.2782175923971154e-16
10
-3.5798896423913145
20
0.81794302885960191
30
2.1854783949314103e-17
10
-3.5795155501875526
20
0.81959742993529849
30
-3.2782175923971154e-16
10
-3.576386912267989
20
0.83179047646714888
30
2.1854783949314103e-17
10
-3.5717588211433915
20
0.84174413696910533
30
3.7153132713833977e-16
10
-3.5654470962703146
20
0.85060532916219023
30
3.7153132713833977e-16
0
ARC
5
171
100
AcDbEntity
8
0
100
AcDbCircle
10
-3.1258396030233362
20
0.7240298570103908
30
-3.278217592397108e-16
40
0.45746704610205841
210
4.4963215128245253e-16
220
-6.1824630747272396e-16
230
1
100
AcDbArc
50
126.87480418216984
51
163.93738891301214
0
ENDSEC
0
SECTION
2
OBJECTS
0
DICTIONARY
5
C
100
AcDbDictionary
3
ACAD_GROUP
350
D
3
ACAD_MLINESTYLE
350
17
0
DICTIONARY
5
D
100
AcDbDictionary
0
DICTIONARY
5
1A
330
C
100
AcDbDictionary
0
DICTIONARY
5
17
100
AcDbDictionary
0
ENDSEC
0
EOF
