0
SECTION
2
HEADER
9
$INSUNITS
70
4
9
$ACADVER
1
AC1014
9
$HANDSEED
5
FFFF
0
ENDSEC
0
SECTION
2
TABLES
0
TABLE
2
VPORT
5
8
100
AcDbSymbolTable
0
ENDTAB
0
TABLE
2
LTYPE
5
5
100
AcDbSymbolTable
0
LTYPE
5
14
100
AcDbSymbolTableRecord
100
AcDbLinetypeTableRecord
2
BYBLOCK
70
0
0
LTYPE
5
15
100
AcDbSymbolTableRecord
100
AcDbLinetypeTableRecord
2
BYLAYER
70
0
0
ENDTAB
0
TABLE
2
LAYER
5
2
100
AcDbSymbolTable
70
2
0
LAYER
5
50
100
AcDbSymbolTableRecord
100
AcDbLayerTableRecord
2
0
70
0
6
CONTINUOUS
0
ENDTAB
0
TABLE
2
STYLE
5
3
100
AcDbSymbolTable
70
1
0
STYLE
5
11
100
AcDbSymbolTableRecord
100
AcDbTextStyleTableRecord
2
STANDARD
70
0
0
ENDTAB
0
TABLE
2
VIEW
5
6
100
AcDbSymbolTable
70
0
0
ENDTAB
0
TABLE
2
UCS
5
7
100
AcDbSymbolTable
70
0
0
ENDTAB
0
TABLE
2
APPID
5
9
100
AcDbSymbolTable
70
2
0
APPID
5
12
100
AcDbSymbolTableRecord
100
AcDbRegAppTableRecord
2
ACAD
70
0
0
ENDTAB
0
TABLE
2
DIMSTYLE
5
A
100
AcDbSymbolTable
70
1
0
ENDTAB
0
TABLE
2
BLOCK_RECORD
5
1
100
AcDbSymbolTable
70
1
0
BLOCK_RECORD
5
1F
100
AcDbSymbolTableRecord
100
AcDbBlockTableRecord
2
*MODEL_SPACE
0
BLOCK_RECORD
5
1B
100
AcDbSymbolTableRecord
100
AcDbBlockTableRecord
2
*PAPER_SPACE
0
ENDTAB
0
ENDSEC
0
SECTION
2
BLOCKS
0
BLOCK
5
20
100
AcDbEntity
100
AcDbBlockBegin
2
*MODEL_SPACE
0
ENDBLK
5
21
100
AcDbEntity
100
AcDbBlockEnd
0
BLOCK
5
1C
100
AcDbEntity
100
AcDbBlockBegin
2
*PAPER_SPACE
0
ENDBLK
5
1D
100
AcDbEntity
100
AcDbBlockEnd
0
ENDSEC
0
SECTION
2
ENTITIES
0
LWPOLYLINE
5
100
100
AcDbEntity
8
0
100
AcDbPolyline
90
4
70
1
43
0.0
10
-229.95408999999995
20
-39.448660099589198
10
-232.45408999999995
20
-39.448660099589198
10
-232.45408999999995
20
-49.448660099589191
10
-229.95408999999995
20
-49.448660099589205
0
LWPOLYLINE
5
101
100
AcDbEntity
8
0
100
AcDbPolyline
90
4
70
1
43
0.0
10
-229.95408999999995
20
26.884003233744146
10
-232.45408999999995
20
26.884003233744146
10
-232.45408999999995
20
16.884003233744146
10
-229.95408999999995
20
16.884003233744146
0
LWPOLYLINE
5
102
100
AcDbEntity
8
0
100
AcDbPolyline
90
4
70
1
43
0.0
10
-229.95408999999995
20
60.050334900410824
10
-232.45408999999995
20
60.050334900410824
10
-232.45408999999995
20
50.050334900410824
10
-229.95408999999995
20
50.050334900410824
0
LWPOLYLINE
5
103
100
AcDbEntity
8
0
100
AcDbPolyline
90
4
70
1
43
0.0
10
-229.95408999999995
20
-6.2823284329225304
10
-232.45408999999995
20
-6.2823284329225304
10
-232.45408999999995
20
-16.28232843292253
10
-229.95408999999995
20
-16.28232843292253
0
LWPOLYLINE
5
104
100
AcDbEntity
8
0
100
AcDbPolyline
90
4
70
1
43
0.0
10
-229.95408999999995
20
-72.614991766255855
10
-232.45408999999995
20
-72.614991766255855
10
-232.45408999999995
20
-82.614991766255855
10
-229.95408999999995
20
-82.614991766255855
0
LWPOLYLINE
5
105
100
AcDbEntity
8
0
100
AcDbPolyline
90
20
70
1
43
0.0
10
25.045910000000031
20
83.216666567077482
10
25.045910000000031
20
93.216666567077482
10
27.545909999999978
20
93.216664744246046
10
27.54590999999996
20
-115.78132343292259
10
25.045910000000031
20
-115.78132343292253
10
25.045910000000031
20
-105.78132343292253
10
22.545910000000049
20
-105.78132343292253
10
22.545910000000049
20
-115.78132343292253
10
-229.95408999999995
20
-115.78132343292253
10
-229.95408999999995
20
-105.78132343292253
10
-232.45408999999995
20
-105.78132343292253
10
-232.45408999999995
20
-115.78132343292253
10
-234.95409000000018
20
-115.78132343292256
10
-234.95409000000018
20
93.21666474424606
10
-232.45408999999995
20
93.216666567077482
10
-232.45408999999995
20
83.216666567077482
10
-229.95408999999995
20
83.216666567077482
10
-229.95408999999995
20
93.216666567077482
10
22.545910000000049
20
93.216666567077482
10
22.545910000000049
20
83.216666567077482
0
LWPOLYLINE
5
106
100
AcDbEntity
8
0
100
AcDbPolyline
90
4
70
1
43
0.0
10
25.045910000000031
20
-72.614991766255855
10
22.545910000000049
20
-72.614991766255855
10
22.545910000000049
20
-82.614991766255855
10
25.045910000000031
20
-82.614991766255855
0
LWPOLYLINE
5
107
100
AcDbEntity
8
0
100
AcDbPolyline
90
4
70
1
43
0.0
10
25.045910000000031
20
-6.2823284329225304
10
22.545910000000049
20
-6.2823284329225304
10
22.545910000000049
20
-16.28232843292253
10
25.045910000000031
20
-16.28232843292253
0
LWPOLYLINE
5
108
100
AcDbEntity
8
0
100
AcDbPolyline
90
4
70
1
43
0.0
10
25.045910000000031
20
60.050334900410824
10
22.545910000000049
20
60.050334900410824
10
22.545910000000049
20
50.050334900410824
10
25.045910000000031
20
50.050334900410824
0
LWPOLYLINE
5
109
100
AcDbEntity
8
0
100
AcDbPolyline
90
4
70
1
43
0.0
10
25.045910000000031
20
26.884003233744146
10
22.545910000000049
20
26.884003233744146
10
22.545910000000049
20
16.884003233744146
10
25.045910000000031
20
16.884003233744146
0
LWPOLYLINE
5
110
100
AcDbEntity
8
0
100
AcDbPolyline
90
4
70
1
43
0.0
10
25.045910000000031
20
-39.448660099589198
10
22.545910000000049
20
-39.448660099589198
10
22.545910000000049
20
-49.448660099589191
10
25.045910000000031
20
-49.448660099589205
0
ENDSEC
0
SECTION
2
OBJECTS
0
DICTIONARY
5
C
100
AcDbDictionary
3
ACAD_GROUP
350
D
3
ACAD_MLINESTYLE
350
17
0
DICTIONARY
5
D
100
AcDbDictionary
0
DICTIONARY
5
1A
330
C
100
AcDbDictionary
0
DICTIONARY
5
17
100
AcDbDictionary
0
ENDSEC
0
EOF
