0
SECTION
2
HEADER
9
$INSUNITS
70
4
9
$ACADVER
1
AC1014
9
$HANDSEED
5
FFFF
0
ENDSEC
0
SECTION
2
TABLES
0
TABLE
2
VPORT
5
8
100
AcDbSymbolTable
0
ENDTAB
0
TABLE
2
LTYPE
5
5
100
AcDbSymbolTable
0
LTYPE
5
14
100
AcDbSymbolTableRecord
100
AcDbLinetypeTableRecord
2
BYBLOCK
70
0
0
LTYPE
5
15
100
AcDbSymbolTableRecord
100
AcDbLinetypeTableRecord
2
BYLAYER
70
0
0
ENDTAB
0
TABLE
2
LAYER
5
2
100
AcDbSymbolTable
70
2
0
LAYER
5
50
100
AcDbSymbolTableRecord
100
AcDbLayerTableRecord
2
0
70
0
6
CONTINUOUS
0
ENDTAB
0
TABLE
2
STYLE
5
3
100
AcDbSymbolTable
70
1
0
STYLE
5
11
100
AcDbSymbolTableRecord
100
AcDbTextStyleTableRecord
2
STANDARD
70
0
0
ENDTAB
0
TABLE
2
VIEW
5
6
100
AcDbSymbolTable
70
0
0
ENDTAB
0
TABLE
2
UCS
5
7
100
AcDbSymbolTable
70
0
0
ENDTAB
0
TABLE
2
APPID
5
9
100
AcDbSymbolTable
70
2
0
APPID
5
12
100
AcDbSymbolTableRecord
100
AcDbRegAppTableRecord
2
ACAD
70
0
0
ENDTAB
0
TABLE
2
DIMSTYLE
5
A
100
AcDbSymbolTable
70
1
0
ENDTAB
0
TABLE
2
BLOCK_RECORD
5
1
100
AcDbSymbolTable
70
1
0
BLOCK_RECORD
5
1F
100
AcDbSymbolTableRecord
100
AcDbBlockTableRecord
2
*MODEL_SPACE
0
BLOCK_RECORD
5
1B
100
AcDbSymbolTableRecord
100
AcDbBlockTableRecord
2
*PAPER_SPACE
0
ENDTAB
0
ENDSEC
0
SECTION
2
BLOCKS
0
BLOCK
5
20
100
AcDbEntity
100
AcDbBlockBegin
2
*MODEL_SPACE
0
ENDBLK
5
21
100
AcDbEntity
100
AcDbBlockEnd
0
BLOCK
5
1C
100
AcDbEntity
100
AcDbBlockBegin
2
*PAPER_SPACE
0
ENDBLK
5
1D
100
AcDbEntity
100
AcDbBlockEnd
0
ENDSEC
0
SECTION
2
ENTITIES
0
LWPOLYLINE
5
100
100
AcDbEntity
8
0
100
AcDbPolyline
90
65
70
1
43
0.0
10
159.49533
20
470.71500000000009
10
159.83941999999999
20
469.80029000000007
10
160.26451000000003
20
468.92609000000016
10
160.76651000000001
20
468.09753000000006
10
161.34128999999999
20
467.31964000000011
10
161.98474000000002
20
466.59753000000012
10
162.69272000000001
20
465.93622000000011
10
163.46112000000002
20
465.34085000000005
10
164.28579999999999
20
464.81647000000009
10
165.16266999999999
20
464.36813000000006
10
166.08758999999998
20
464.0009500000001
10
167.05644000000001
20
463.71997000000016
10
168.06509000000003
20
463.53027000000009
10
170.9545
20
463.53027000000009
10
171.96316999999999
20
463.71997000000016
10
172.93201000000005
20
464.0009500000001
10
173.85693000000001
20
464.36813000000006
10
174.73380000000003
20
464.81647000000009
10
175.55847
20
465.34085000000005
10
176.32687000000001
20
465.93622000000011
10
177.03488000000004
20
466.59753000000012
10
177.67831000000001
20
467.31964000000011
10
178.25308000000004
20
468.09753000000006
10
178.75510000000003
20
468.92609000000016
10
179.18021000000005
20
469.80029000000007
10
179.52428
20
470.71500000000009
10
179.78319999999999
20
471.66516000000001
10
179.95287999999999
20
472.64575000000008
10
180.02916999999999
20
473.65161000000001
10
180.00793000000002
20
474.67773000000011
10
179.88809000000001
20
475.69708000000003
10
179.67441000000005
20
476.68295000000006
10
179.37173000000001
20
477.6309500000001
10
178.98480000000004
20
478.53659000000016
10
178.51840000000004
20
479.39542000000012
10
177.97729000000001
20
480.20294000000007
10
177.36626999999999
20
480.95477000000011
10
176.69016000000002
20
481.64636000000002
10
175.95366000000001
20
482.27332000000013
10
175.16158999999999
20
482.83112000000011
10
174.31876
20
483.31537000000014
10
173.42986999999999
20
483.72156000000007
10
172.49976000000001
20
484.04526000000004
10
171.53320000000002
20
484.28201000000001
10
170.53493999999998
20
484.42731000000009
10
169.50980000000001
20
484.47675000000004
10
168.48465000000002
20
484.42731000000009
10
167.48639
20
484.28201000000001
10
166.51983999999999
20
484.04526000000004
10
165.58972
20
483.72156000000007
10
164.70084
20
483.31537000000014
10
163.858
20
482.83112000000011
10
163.06592000000001
20
482.27332000000013
10
162.32942000000003
20
481.64636000000002
10
161.65329
20
480.95477000000011
10
161.04227000000003
20
480.20294000000007
10
160.50118999999998
20
479.39542000000012
10
160.03478999999999
20
478.53659000000016
10
159.64786000000001
20
477.6309500000001
10
159.34517
20
476.68295000000006
10
159.13149999999999
20
475.69708000000003
10
159.01166000000001
20
474.67773000000011
10
158.99042000000003
20
473.65161000000001
10
159.06671
20
472.64575000000008
10
159.23639000000003
20
471.66516000000001
0
LWPOLYLINE
5
101
100
AcDbEntity
8
0
100
AcDbPolyline
90
65
70
1
43
0.0
10
198.70856000000003
20
466.63809000000015
10
199.34506000000002
20
467.36261000000007
10
199.91292000000001
20
468.14209000000011
10
200.40808000000001
20
468.97150000000011
10
200.82651000000001
20
469.84576000000004
10
201.16412
20
470.7598000000001
10
201.41692000000003
20
471.70859000000007
10
201.58081000000004
20
472.68707000000006
10
201.65176000000002
20
473.69019000000009
10
201.62576000000001
20
474.71286000000009
10
201.50180000000003
20
475.72833000000003
10
201.28474
20
476.71027000000009
10
200.97937000000002
20
477.65417000000014
10
200.59038999999999
20
478.55576000000008
10
200.12259
20
479.41052000000013
10
199.58069
20
480.21411000000001
10
198.96941999999999
20
480.96207000000015
10
198.29357999999999
20
481.65002000000015
10
197.55788000000001
20
482.27356000000009
10
196.76706000000001
20
482.82825000000008
10
195.92587000000003
20
483.30972000000008
10
195.03906000000001
20
483.71353000000005
10
194.11139000000003
20
484.03528000000006
10
193.14758
20
484.27057000000013
10
192.15239
20
484.41498000000001
10
191.13055
20
484.46408000000008
10
190.10872000000003
20
484.41498000000001
10
189.11353000000003
20
484.27057000000013
10
188.14972
20
484.03528000000006
10
187.22205
20
483.71353000000005
10
186.33524
20
483.30972000000008
10
185.49405000000002
20
482.82825000000008
10
184.70323000000002
20
482.27356000000009
10
183.96753000000001
20
481.65002000000015
10
183.29169000000002
20
480.96207000000015
10
182.68042000000003
20
480.21411000000001
10
182.13852
20
479.41052000000013
10
181.67072000000002
20
478.55576000000008
10
181.28173999999999
20
477.65417000000014
10
180.97636
20
476.71027000000009
10
180.75931
20
475.72833000000003
10
180.63534999999999
20
474.71286000000009
10
180.60934
20
473.69019000000009
10
180.68029999999999
20
472.68707000000006
10
180.84419
20
471.70859000000007
10
181.09698000000003
20
470.7598000000001
10
181.43460000000002
20
469.84576000000004
10
181.85303000000002
20
468.97150000000011
10
182.34818999999999
20
468.14209000000011
10
182.91605000000001
20
467.36261000000007
10
183.55255
20
466.63809000000015
10
184.25363000000002
20
465.97360000000009
10
185.01526999999999
20
465.37418000000002
10
185.83340000000004
20
464.84491000000003
10
186.70398000000003
20
464.3908100000001
10
187.62297000000001
20
464.01697000000013
10
188.58630000000002
20
463.72842000000014
10
189.58994000000001
20
463.53027000000009
10
192.67116999999999
20
463.53027000000009
10
193.6748
20
463.72842000000014
10
194.63813999999999
20
464.01697000000013
10
195.55713
20
464.3908100000001
10
196.42769999999999
20
464.84491000000003
10
197.24583000000001
20
465.37418000000002
10
198.00748000000002
20
465.97360000000009
0
LWPOLYLINE
5
102
100
AcDbEntity
8
0
100
AcDbPolyline
90
65
70
1
43
0.0
10
159.06671
20
472.6458100000001
10
159.23639000000003
20
471.66522000000015
10
159.49533
20
470.71505999999999
10
159.83941999999999
20
469.80035000000009
10
160.26451000000003
20
468.92615000000006
10
160.76651000000001
20
468.09760000000011
10
161.34128999999999
20
467.31970000000013
10
161.98474000000002
20
466.59760000000006
10
162.69272000000001
20
465.93628000000001
10
163.46112000000002
20
465.34091000000001
10
164.28579999999999
20
464.81653000000006
10
165.16266999999999
20
464.36819000000014
10
166.08758999999998
20
464.00101000000006
10
167.05644000000001
20
463.72003000000007
10
168.06509000000003
20
463.53033000000011
10
170.9545
20
463.53033000000011
10
171.96316999999999
20
463.72003000000007
10
172.93201000000005
20
464.00101000000006
10
173.85693000000001
20
464.36819000000014
10
174.73380000000003
20
464.81653000000006
10
175.55847
20
465.34091000000001
10
176.32687000000001
20
465.93628000000001
10
177.03488000000004
20
466.59760000000006
10
177.67831000000001
20
467.31970000000013
10
178.25308000000004
20
468.09760000000011
10
178.75510000000003
20
468.92615000000006
10
179.18021000000005
20
469.80035000000009
10
179.52428
20
470.71505999999999
10
179.78319999999999
20
471.66522000000015
10
179.95287999999999
20
472.6458100000001
10
180.02916999999999
20
473.65167000000014
10
180.00793000000002
20
474.67780000000005
10
179.88809000000001
20
475.6971400000001
10
179.67441000000005
20
476.68301000000008
10
179.37173000000001
20
477.63101000000006
10
178.98480000000004
20
478.53665000000007
10
178.51840000000004
20
479.39548000000002
10
177.97729000000001
20
480.20300000000015
10
177.36626999999999
20
480.95483000000002
10
176.69016000000002
20
481.64642000000015
10
175.95366000000001
20
482.27338000000003
10
175.16158999999999
20
482.83118000000002
10
174.31876
20
483.31543000000011
10
173.42986999999999
20
483.72162000000009
10
172.49976000000001
20
484.04532000000012
10
171.53320000000002
20
484.28207000000015
10
170.53493999999998
20
484.42737000000011
10
169.50980000000001
20
484.47681
10
168.48465000000002
20
484.42737000000011
10
167.48639
20
484.28207000000015
10
166.51983999999999
20
484.04532000000012
10
165.58972
20
483.72162000000009
10
164.70084
20
483.31543000000011
10
163.858
20
482.83118000000002
10
163.06592000000001
20
482.27338000000003
10
162.32942000000003
20
481.64642000000015
10
161.65329
20
480.95483000000002
10
161.04227000000003
20
480.20300000000015
10
160.50118999999998
20
479.39548000000002
10
160.03478999999999
20
478.53665000000007
10
159.64786000000001
20
477.63101000000006
10
159.34517
20
476.68301000000008
10
159.13149999999999
20
475.6971400000001
10
159.01166000000001
20
474.67780000000005
10
158.99042000000003
20
473.65167000000014
0
LINE
5
103
100
AcDbEntity
8
0
100
AcDbLine
10
197.24583000000001
20
465.37418000000002
30
0
11
196.42769999999999
21
464.84491000000003
31
0
0
LINE
5
104
100
AcDbEntity
8
0
100
AcDbLine
10
195.55713
20
464.3908100000001
30
0
11
194.63813999999999
21
464.01697000000013
31
0
0
LINE
5
105
100
AcDbEntity
8
0
100
AcDbLine
10
192.67116999999999
20
463.53027000000009
30
0
11
189.58994000000001
21
463.53027000000009
31
0
0
LINE
5
106
100
AcDbEntity
8
0
100
AcDbLine
10
201.16412
20
470.7598000000001
30
0
11
200.82651000000001
21
469.84576000000004
31
0
0
LINE
5
107
100
AcDbEntity
8
0
100
AcDbLine
10
196.42769999999999
20
464.84491000000003
30
0
11
195.55713
21
464.3908100000001
31
0
0
LINE
5
108
100
AcDbEntity
8
0
100
AcDbLine
10
199.34506000000002
20
467.36261000000007
30
0
11
198.70856000000003
21
466.63809000000015
31
0
0
LINE
5
109
100
AcDbEntity
8
0
100
AcDbLine
10
200.82651000000001
20
469.84576000000004
30
0
11
200.40808000000001
21
468.97150000000011
31
0
0
LWPOLYLINE
5
110
100
AcDbEntity
8
0
100
AcDbPolyline
90
210
70
1
43
0.0
10
208.59972999999999
20
372.38103999999998
10
208.59972999999999
20
400.20706000000007
10
237.32581000000005
20
400.20706000000007
10
237.32581000000005
20
462.16705000000002
10
208.59972999999999
20
462.16705000000002
10
208.59972999999999
20
489.99405000000002
10
143.4025
20
489.99405000000002
10
143.40472
20
475.95471000000003
10
143.38959
20
475.64783000000006
10
143.34464
20
475.34613000000007
10
143.27068
20
475.0517000000001
10
143.16857999999999
20
474.76648000000012
10
143.03918000000004
20
474.49261000000007
10
142.88335000000001
20
474.23206000000005
10
142.70189999999999
20
473.98688000000004
10
142.49566999999999
20
473.75912000000005
10
142.26793999999998
20
473.55286000000007
10
142.02281000000002
20
473.37134000000015
10
141.76230000000001
20
473.21545000000009
10
141.48842999999999
20
473.08600000000013
10
141.20325000000003
20
472.98385999999999
10
140.90881000000002
20
472.90985000000006
10
140.60712000000001
20
472.86484000000007
10
140.30023
20
472.84964000000008
10
125.22339000000001
20
472.84967000000006
10
124.9117
20
472.87283000000002
10
124.60947000000002
20
472.92584000000011
10
124.31817000000001
20
473.00717000000014
10
124.03927000000002
20
473.11530000000005
10
123.77423
20
473.24872000000005
10
123.52454
20
473.4059400000001
10
123.29166000000001
20
473.58545000000004
10
123.07705
20
473.78570999999999
10
122.88220000000001
20
474.0052500000001
10
122.70856999999999
20
474.24252000000013
10
122.55763000000002
20
474.49603000000002
10
122.43086000000002
20
474.76434000000012
10
122.32973000000001
20
475.04584000000017
10
122.25569
20
475.33908000000002
10
122.21024
20
475.64255000000009
10
122.19481999999999
20
475.95471000000003
10
122.19897
20
489.99405000000002
10
105.35956000000002
20
489.99405000000002
10
105.35956000000002
20
462.16605000000004
10
76.533812999999995
20
462.16605000000004
10
76.533812999999995
20
400.20605
10
105.35956000000002
20
400.20605
10
105.35956000000002
20
372.38103999999998
10
116.92981000000002
20
372.38103999999998
10
116.92981000000002
20
381.87457000000001
10
116.96841000000001
20
382.25749999999999
10
117.07913000000002
20
382.61415999999997
10
117.25431
20
382.93687999999997
10
117.48633000000001
20
383.21807000000001
10
117.76752
20
383.45009999999996
10
118.09027
20
383.62527
10
118.44693000000001
20
383.73595999999998
10
118.82983000000002
20
383.77455999999995
10
119.21274
20
383.73595999999998
10
119.56940000000002
20
383.62527
10
119.89214000000001
20
383.45009999999996
10
120.17333000000001
20
383.21807000000001
10
120.40533000000002
20
382.93687999999997
10
120.58051
20
382.61415999999997
10
120.69122
20
382.25749999999999
10
120.72980000000001
20
381.87457000000001
10
120.72980000000001
20
372.38103999999998
10
125.81981999999999
20
372.38103999999998
10
125.81981999999999
20
381.87457000000001
10
125.85843
20
382.25749999999999
10
125.96915000000001
20
382.61415999999997
10
126.14433000000002
20
382.93687999999997
10
126.37633999999998
20
383.21807000000001
10
126.65754
20
383.45009999999996
10
126.98029
20
383.62527
10
127.33694
20
383.73595999999998
10
127.71985000000001
20
383.77455999999995
10
128.10274999999999
20
383.73595999999998
10
128.45941000000005
20
383.62527
10
128.78215
20
383.45009999999996
10
129.06335000000001
20
383.21807000000001
10
129.29535000000001
20
382.93687999999997
10
129.47054000000003
20
382.61415999999997
10
129.58123999999998
20
382.25749999999999
10
129.61981000000003
20
381.87457000000001
10
129.61981000000003
20
372.38103999999998
10
140.72980000000001
20
372.38103999999998
10
140.72980000000001
20
388.35833000000002
10
140.74764999999999
20
388.71208999999999
10
140.80008000000001
20
389.0556600000001
10
140.88535000000002
20
389.38726000000003
10
141.00171
20
389.70512999999994
10
141.1474
20
390.00759000000005
10
141.32071000000002
20
390.29287000000005
10
141.51990000000001
20
390.55923000000001
10
141.74323000000001
20
390.80493000000001
10
141.98894999999999
20
391.02822000000003
10
142.25531000000001
20
391.22741000000008
10
142.54058999999998
20
391.40072000000004
10
142.84305000000001
20
391.54644000000008
10
143.16092
20
391.66281000000004
10
143.49251000000004
20
391.74804
10
143.83606
20
391.80047000000002
10
144.18982
20
391.81831999999997
10
144.54358999999999
20
391.80047000000002
10
144.88714999999999
20
391.74804
10
145.21871999999999
20
391.66281000000004
10
145.53662
20
391.54644000000008
10
145.83908000000002
20
391.40072000000004
10
146.12436
20
391.22741000000008
10
146.39071999999999
20
391.02822000000003
10
146.63641000000001
20
390.80493000000001
10
146.85973999999999
20
390.55923000000001
10
147.05893
20
390.29287000000005
10
147.23223999999999
20
390.00759000000005
10
147.37792999999999
20
389.70512999999994
10
147.49426
20
389.38726000000003
10
147.57953000000001
20
389.0556600000001
10
147.63196000000002
20
388.71208999999999
10
147.64981
20
388.35833000000002
10
147.64981
20
372.38103999999998
10
162.06342000000004
20
372.38103999999998
10
162.06342000000004
20
388.36724000000004
10
162.08127000000002
20
388.721
10
162.1337
20
389.06457
10
162.21896000000001
20
389.39617000000004
10
162.33533
20
389.71404000000001
10
162.48102
20
390.01649999999995
10
162.65433000000002
20
390.30178000000001
10
162.85352
20
390.56814000000003
10
163.07683
20
390.81384000000003
10
163.32254000000003
20
391.03712999999999
10
163.5889
20
391.23631999999998
10
163.87418
20
391.40962999999999
10
164.17663999999999
20
391.55534999999998
10
164.49454
20
391.67172000000005
10
164.82611000000003
20
391.75698
10
165.16966000000002
20
391.80937999999998
10
165.52344000000002
20
391.82726000000002
10
165.87721000000002
20
391.80937999999998
10
166.22076000000004
20
391.75698
10
166.55234000000002
20
391.67172000000005
10
166.87024000000002
20
391.55534999999998
10
167.17269999999999
20
391.40962999999999
10
167.45798000000002
20
391.23631999999998
10
167.72433000000004
20
391.03712999999999
10
167.97003000000001
20
390.81384000000003
10
168.19336000000004
20
390.56814000000003
10
168.39255000000003
20
390.30178000000001
10
168.56586000000004
20
390.01649999999995
10
168.71154999999999
20
389.71404000000001
10
168.82788000000002
20
389.39617000000004
10
168.91315000000003
20
389.06457
10
168.96558000000002
20
388.721
10
168.98343
20
388.36724000000004
10
168.98343
20
372.38103999999998
10
176.61981
20
372.38103999999998
10
176.61981
20
381.87786000000006
10
176.65842000000001
20
382.26079999999996
10
176.76911999999999
20
382.61746000000005
10
176.94431000000003
20
382.94017999999994
10
177.1763
20
383.22136999999998
10
177.45749000000001
20
383.45338999999996
10
177.78023999999999
20
383.62855999999999
10
178.13688999999999
20
383.73924999999997
10
178.51981000000001
20
383.77786000000003
10
178.90273000000002
20
383.73924999999997
10
179.25937000000002
20
383.62855999999999
10
179.58212
20
383.45338999999996
10
179.86331000000004
20
383.22136999999998
10
180.09531000000004
20
382.94017999999994
10
180.27049000000002
20
382.61746000000005
10
180.38120000000004
20
382.26079999999996
10
180.41980000000001
20
381.87786000000006
10
180.41980000000001
20
372.38103999999998
10
186.97394
20
372.38103999999998
10
186.97394
20
390.76724000000007
10
187.00311000000002
20
391.34509000000003
10
187.08875000000003
20
391.90622000000008
10
187.22801000000001
20
392.44781
10
187.41806
20
392.96707000000004
10
187.65603999999999
20
393.46109000000007
10
187.93912000000003
20
393.92706000000004
10
188.26446999999999
20
394.36215000000004
10
188.62921
20
394.76348999999999
10
189.03055000000001
20
395.12822999999997
10
189.46561
20
395.45357999999999
10
189.93158
20
395.73666000000003
10
190.42560000000003
20
395.97464000000002
10
190.94485000000003
20
396.16467
10
191.48644999999999
20
396.30392000000001
10
192.04758999999999
20
396.38959
10
192.62542999999999
20
396.41873000000004
10
193.20326
20
396.38959
10
193.76440000000002
20
396.30392000000001
10
194.30599999999998
20
396.16467
10
194.82526000000004
20
395.97464000000002
10
195.31926999999999
20
395.73666000000003
10
195.78524999999999
20
395.45357999999999
10
196.22031000000004
20
395.12822999999997
10
196.62164000000001
20
394.76348999999999
10
196.98639
20
394.36215000000004
10
197.31173999999999
20
393.92706000000004
10
197.59482000000003
20
393.46109000000007
10
197.83278999999999
20
392.96707000000004
10
198.02284
20
392.44781
10
198.16211000000004
20
391.90622000000008
10
198.24774000000002
20
391.34509000000003
10
198.27691999999999
20
390.76724000000007
10
198.27691999999999
20
372.38103999999998
0
LWPOLYLINE
5
111
100
AcDbEntity
8
0
100
AcDbPolyline
90
32
70
1
43
0.0
10
206.58278999999999
20
404.80377000000004
10
206.49992
20
405.07080000000002
10
206.36876999999998
20
405.31238000000002
10
206.19508000000002
20
405.52289000000002
10
205.98456000000002
20
405.69656000000009
10
205.74295000000004
20
405.82770000000005
10
205.47596999999999
20
405.91055000000006
10
205.1893
20
405.93948000000006
10
204.90263000000002
20
405.91055000000006
10
204.63565000000003
20
405.82770000000005
10
204.39403999999999
20
405.69656000000009
10
204.18351999999999
20
405.52289000000002
10
204.00982999999999
20
405.31238000000002
10
203.87868
20
405.07080000000002
10
203.79581000000002
20
404.80377000000004
10
203.76691
20
404.51709
10
203.79581000000002
20
404.23041000000006
10
203.87868
20
403.96338000000003
10
204.00982999999999
20
403.72180000000003
10
204.18351999999999
20
403.51129000000003
10
204.39403999999999
20
403.33762000000007
10
204.63565000000003
20
403.20648000000006
10
204.90263000000002
20
403.12363000000005
10
205.1893
20
403.09470000000005
10
205.47596999999999
20
403.12363000000005
10
205.74295000000004
20
403.20648000000006
10
205.98456000000002
20
403.33762000000007
10
206.19508000000002
20
403.51129000000003
10
206.36876999999998
20
403.72180000000003
10
206.49992
20
403.96338000000003
10
206.58278999999999
20
404.23041000000006
10
206.61169000000001
20
404.51709
0
LINE
5
112
100
AcDbEntity
8
0
100
AcDbLine
10
204.39447000000001
20
459.03652999999997
30
0
11
204.63607999999999
21
459.16765999999996
31
0
0
LINE
5
113
100
AcDbEntity
8
0
100
AcDbLine
10
204.18394000000001
20
458.86284999999998
30
0
11
204.39447000000001
21
459.03652999999997
31
0
0
LINE
5
114
100
AcDbEntity
8
0
100
AcDbLine
10
204.63607999999999
20
459.16765999999996
30
0
11
204.90306000000004
21
459.25054999999998
31
0
0
LINE
5
115
100
AcDbEntity
8
0
100
AcDbLine
10
205.18973000000003
20
456.43465999999995
30
0
11
204.90306000000004
21
456.46355999999997
31
0
0
LINE
5
116
100
AcDbEntity
8
0
100
AcDbLine
10
206.58321999999998
20
457.57037000000003
30
0
11
206.50035000000003
21
457.30341000000004
31
0
0
LINE
5
117
100
AcDbEntity
8
0
100
AcDbLine
10
205.74338
20
456.54645000000005
30
0
11
205.47639000000001
21
456.46355999999997
31
0
0
LINE
5
118
100
AcDbEntity
8
0
100
AcDbLine
10
205.18973000000003
20
459.27945
30
0
11
205.47639000000001
21
459.25054999999998
31
0
0
LINE
5
119
100
AcDbEntity
8
0
100
AcDbLine
10
203.87910000000002
20
458.41070999999999
30
0
11
204.01025000000004
21
458.65230999999994
31
0
0
LINE
5
120
100
AcDbEntity
8
0
100
AcDbLine
10
204.01025000000004
20
458.65230999999994
30
0
11
204.18394000000001
21
458.86284999999998
31
0
0
LINE
5
121
100
AcDbEntity
8
0
100
AcDbLine
10
206.50035000000003
20
457.30341000000004
30
0
11
206.36920000000003
21
457.06180000000006
31
0
0
LINE
5
122
100
AcDbEntity
8
0
100
AcDbLine
10
203.79623000000004
20
458.14374000000009
30
0
11
203.87910000000002
21
458.41070999999999
31
0
0
LINE
5
123
100
AcDbEntity
8
0
100
AcDbLine
10
204.90306000000004
20
459.25054999999998
30
0
11
205.18973000000003
21
459.27945
31
0
0
LINE
5
124
100
AcDbEntity
8
0
100
AcDbLine
10
203.76733000000002
20
457.85706000000005
30
0
11
203.79623000000004
21
458.14374000000009
31
0
0
LINE
5
125
100
AcDbEntity
8
0
100
AcDbLine
10
204.39447000000001
20
456.67757999999998
30
0
11
204.18394000000001
21
456.85125999999997
31
0
0
LINE
5
126
100
AcDbEntity
8
0
100
AcDbLine
10
204.90306000000004
20
456.46355999999997
30
0
11
204.63607999999999
21
456.54645000000005
31
0
0
LINE
5
127
100
AcDbEntity
8
0
100
AcDbLine
10
206.19551000000001
20
456.85125999999997
30
0
11
205.98499000000001
21
456.67757999999998
31
0
0
LINE
5
128
100
AcDbEntity
8
0
100
AcDbLine
10
205.98499000000001
20
456.67757999999998
30
0
11
205.74338
21
456.54645000000005
31
0
0
LINE
5
129
100
AcDbEntity
8
0
100
AcDbLine
10
205.47639000000001
20
456.46355999999997
30
0
11
205.18973000000003
21
456.43465999999995
31
0
0
LINE
5
130
100
AcDbEntity
8
0
100
AcDbLine
10
204.18394000000001
20
456.85125999999997
30
0
11
204.01025000000004
21
457.06180000000006
31
0
0
LINE
5
131
100
AcDbEntity
8
0
100
AcDbLine
10
204.63607999999999
20
456.54645000000005
30
0
11
204.39447000000001
21
456.67757999999998
31
0
0
LWPOLYLINE
5
132
100
AcDbEntity
8
0
100
AcDbPolyline
90
32
70
1
43
0.0
10
109.46642
20
405.69656000000009
10
109.22481000000002
20
405.82770000000005
10
108.95781000000001
20
405.91055000000006
10
108.67114000000001
20
405.93948000000006
10
108.38448000000001
20
405.91055000000006
10
108.11748000000001
20
405.82770000000005
10
107.87587000000001
20
405.69656000000009
10
107.66535000000002
20
405.52289000000002
10
107.49166000000002
20
405.31238000000002
10
107.36052000000001
20
405.07080000000002
10
107.27764000000001
20
404.80377000000004
10
107.24874
20
404.51709
10
107.27764000000001
20
404.23041000000006
10
107.36052000000001
20
403.96338000000003
10
107.49166000000002
20
403.72180000000003
10
107.66535000000002
20
403.51129000000003
10
107.87587000000001
20
403.33762000000007
10
108.11748000000001
20
403.20648000000006
10
108.38448000000001
20
403.12363000000005
10
108.67114000000001
20
403.09470000000005
10
108.95781000000001
20
403.12363000000005
10
109.22481000000002
20
403.20648000000006
10
109.46642
20
403.33762000000007
10
109.67693
20
403.51129000000003
10
109.85061999999999
20
403.72180000000003
10
109.98177
20
403.96338000000003
10
110.06464000000001
20
404.23041000000006
10
110.09354
20
404.51709
10
110.06464000000001
20
404.80377000000004
10
109.98177
20
405.07080000000002
10
109.85061999999999
20
405.31238000000002
10
109.67693
20
405.52289000000002
0
LINE
5
133
100
AcDbEntity
8
0
100
AcDbLine
10
205.74338
20
459.16765999999996
30
0
11
205.98499000000001
21
459.03652999999997
31
0
0
LINE
5
134
100
AcDbEntity
8
0
100
AcDbLine
10
203.79623000000004
20
457.57037000000003
30
0
11
203.76733000000002
21
457.85706000000005
31
0
0
LINE
5
135
100
AcDbEntity
8
0
100
AcDbLine
10
110.09153000000001
20
457.85706000000005
30
0
11
110.06263000000001
21
457.57037000000003
31
0
0
LINE
5
136
100
AcDbEntity
8
0
100
AcDbLine
10
206.36920000000003
20
458.65230999999994
30
0
11
206.50035000000003
21
458.41070999999999
31
0
0
LINE
5
137
100
AcDbEntity
8
0
100
AcDbLine
10
206.19551000000001
20
458.86284999999998
30
0
11
206.36920000000003
21
458.65230999999994
31
0
0
LINE
5
138
100
AcDbEntity
8
0
100
AcDbLine
10
109.97975
20
457.30341000000004
30
0
11
109.84861000000002
21
457.06180000000006
31
0
0
LINE
5
139
100
AcDbEntity
8
0
100
AcDbLine
10
109.84861000000002
20
457.06180000000006
30
0
11
109.67492
21
456.85125999999997
31
0
0
LINE
5
140
100
AcDbEntity
8
0
100
AcDbLine
10
109.67492
20
456.85125999999997
30
0
11
109.46440000000001
21
456.67757999999998
31
0
0
LINE
5
141
100
AcDbEntity
8
0
100
AcDbLine
10
109.46440000000001
20
456.67757999999998
30
0
11
109.22279
21
456.54645000000005
31
0
0
LINE
5
142
100
AcDbEntity
8
0
100
AcDbLine
10
205.47639000000001
20
459.25054999999998
30
0
11
205.74338
21
459.16765999999996
31
0
0
LINE
5
143
100
AcDbEntity
8
0
100
AcDbLine
10
205.98499000000001
20
459.03652999999997
30
0
11
206.19551000000001
21
458.86284999999998
31
0
0
LINE
5
144
100
AcDbEntity
8
0
100
AcDbLine
10
206.61212000000003
20
457.85706000000005
30
0
11
206.58321999999998
21
457.57037000000003
31
0
0
LINE
5
145
100
AcDbEntity
8
0
100
AcDbLine
10
204.01025000000004
20
457.06180000000006
30
0
11
203.87910000000002
21
457.30341000000004
31
0
0
LINE
5
146
100
AcDbEntity
8
0
100
AcDbLine
10
206.36920000000003
20
457.06180000000006
30
0
11
206.19551000000001
21
456.85125999999997
31
0
0
LINE
5
147
100
AcDbEntity
8
0
100
AcDbLine
10
203.87910000000002
20
457.30341000000004
30
0
11
203.79623000000004
21
457.57037000000003
31
0
0
LINE
5
148
100
AcDbEntity
8
0
100
AcDbLine
10
110.06263000000001
20
457.57037000000003
30
0
11
109.97975
21
457.30341000000004
31
0
0
LINE
5
149
100
AcDbEntity
8
0
100
AcDbLine
10
206.58321999999998
20
458.14374000000009
30
0
11
206.61212000000003
21
457.85706000000005
31
0
0
LINE
5
150
100
AcDbEntity
8
0
100
AcDbLine
10
206.50035000000003
20
458.41070999999999
30
0
11
206.58321999999998
21
458.14374000000009
31
0
0
LINE
5
151
100
AcDbEntity
8
0
100
AcDbLine
10
199.58069
20
480.21411000000001
30
0
11
200.12259
21
479.41052000000013
31
0
0
LINE
5
152
100
AcDbEntity
8
0
100
AcDbLine
10
195.92587000000003
20
483.30972000000008
30
0
11
196.76706000000001
21
482.82825000000008
31
0
0
LINE
5
153
100
AcDbEntity
8
0
100
AcDbLine
10
200.59038999999999
20
478.55576000000008
30
0
11
200.97937000000002
21
477.65417000000014
31
0
0
LINE
5
154
100
AcDbEntity
8
0
100
AcDbLine
10
194.11139000000003
20
484.03528000000006
30
0
11
195.03906000000001
21
483.71353000000005
31
0
0
LINE
5
155
100
AcDbEntity
8
0
100
AcDbLine
10
191.13055
20
484.46408000000008
30
0
11
192.15239
21
484.41498000000001
31
0
0
LINE
5
156
100
AcDbEntity
8
0
100
AcDbLine
10
189.11353000000003
20
484.27057000000013
30
0
11
190.10872000000003
21
484.41498000000001
31
0
0
LINE
5
157
100
AcDbEntity
8
0
100
AcDbLine
10
197.55788000000001
20
482.27356000000009
30
0
11
198.29357999999999
21
481.65002000000015
31
0
0
LINE
5
158
100
AcDbEntity
8
0
100
AcDbLine
10
184.70323000000002
20
482.27356000000009
30
0
11
185.49405000000002
21
482.82825000000008
31
0
0
LINE
5
159
100
AcDbEntity
8
0
100
AcDbLine
10
198.96941999999999
20
480.96207000000015
30
0
11
199.58069
21
480.21411000000001
31
0
0
LWPOLYLINE
5
160
100
AcDbEntity
8
0
100
AcDbPolyline
90
4
70
1
43
0.0
10
93.421814000000012
20
433.07605000000001
10
100.02179000000001
20
433.07605000000001
10
100.02179000000001
20
421.67606000000001
10
93.421814000000012
20
421.67606000000001
0
LINE
5
161
100
AcDbEntity
8
0
100
AcDbLine
10
186.33524
20
483.30972000000008
30
0
11
187.22205
21
483.71353000000005
31
0
0
LINE
5
162
100
AcDbEntity
8
0
100
AcDbLine
10
196.76706000000001
20
482.82825000000008
30
0
11
197.55788000000001
21
482.27356000000009
31
0
0
LINE
5
163
100
AcDbEntity
8
0
100
AcDbLine
10
198.29357999999999
20
481.65002000000015
30
0
11
198.96941999999999
21
480.96207000000015
31
0
0
LINE
5
164
100
AcDbEntity
8
0
100
AcDbLine
10
190.10872000000003
20
484.41498000000001
30
0
11
191.13055
21
484.46408000000008
31
0
0
LINE
5
165
100
AcDbEntity
8
0
100
AcDbLine
10
200.97937000000002
20
477.65417000000014
30
0
11
201.28474
21
476.71027000000009
31
0
0
LINE
5
166
100
AcDbEntity
8
0
100
AcDbLine
10
181.67072000000002
20
478.55576000000008
30
0
11
182.13852
21
479.41052000000013
31
0
0
LINE
5
167
100
AcDbEntity
8
0
100
AcDbLine
10
187.22205
20
483.71353000000005
30
0
11
188.14972
21
484.03528000000006
31
0
0
LINE
5
168
100
AcDbEntity
8
0
100
AcDbLine
10
188.14972
20
484.03528000000006
30
0
11
189.11353000000003
21
484.27057000000013
31
0
0
LINE
5
169
100
AcDbEntity
8
0
100
AcDbLine
10
183.29169000000002
20
480.96207000000015
30
0
11
183.96753000000001
21
481.65002000000015
31
0
0
LINE
5
170
100
AcDbEntity
8
0
100
AcDbLine
10
200.12259
20
479.41052000000013
30
0
11
200.59038999999999
21
478.55576000000008
31
0
0
LINE
5
171
100
AcDbEntity
8
0
100
AcDbLine
10
193.6748
20
463.72842000000014
30
0
11
192.67116999999999
21
463.53027000000009
31
0
0
LINE
5
172
100
AcDbEntity
8
0
100
AcDbLine
10
201.28474
20
476.71027000000009
30
0
11
201.50180000000003
21
475.72833000000003
31
0
0
LINE
5
173
100
AcDbEntity
8
0
100
AcDbLine
10
192.15239
20
484.41498000000001
30
0
11
193.14758
21
484.27057000000013
31
0
0
LINE
5
174
100
AcDbEntity
8
0
100
AcDbLine
10
182.13852
20
479.41052000000013
30
0
11
182.68042000000003
21
480.21411000000001
31
0
0
LINE
5
175
100
AcDbEntity
8
0
100
AcDbLine
10
104.38330000000001
20
436.49588
30
0
11
104.33630000000001
21
436.54294000000004
31
0
0
LINE
5
176
100
AcDbEntity
8
0
100
AcDbLine
10
180.75931
20
475.72833000000003
30
0
11
180.97636
21
476.71027000000009
31
0
0
LINE
5
177
100
AcDbEntity
8
0
100
AcDbLine
10
201.41692000000003
20
471.70859000000007
30
0
11
201.16412
21
470.7598000000001
31
0
0
LINE
5
178
100
AcDbEntity
8
0
100
AcDbLine
10
199.91292000000001
20
468.14209000000011
30
0
11
199.34506000000002
21
467.36261000000007
31
0
0
LINE
5
179
100
AcDbEntity
8
0
100
AcDbLine
10
201.58081000000004
20
472.68707000000006
30
0
11
201.41692000000003
21
471.70859000000007
31
0
0
LINE
5
180
100
AcDbEntity
8
0
100
AcDbLine
10
200.40808000000001
20
468.97150000000011
30
0
11
199.91292000000001
21
468.14209000000011
31
0
0
LINE
5
181
100
AcDbEntity
8
0
100
AcDbLine
10
104.33630000000001
20
436.54294000000004
30
0
11
104.38330000000001
21
436.49588
31
0
0
LINE
5
182
100
AcDbEntity
8
0
100
AcDbLine
10
201.50180000000003
20
475.72833000000003
30
0
11
201.62576000000001
21
474.71286000000009
31
0
0
LINE
5
183
100
AcDbEntity
8
0
100
AcDbLine
10
180.97636
20
476.71027000000009
30
0
11
181.28173999999999
21
477.65417000000014
31
0
0
LINE
5
184
100
AcDbEntity
8
0
100
AcDbLine
10
193.14758
20
484.27057000000013
30
0
11
194.11139000000003
21
484.03528000000006
31
0
0
LINE
5
185
100
AcDbEntity
8
0
100
AcDbLine
10
201.65176000000002
20
473.69019000000009
30
0
11
201.58081000000004
21
472.68707000000006
31
0
0
LINE
5
186
100
AcDbEntity
8
0
100
AcDbLine
10
182.68042000000003
20
480.21411000000001
30
0
11
183.29169000000002
21
480.96207000000015
31
0
0
LINE
5
187
100
AcDbEntity
8
0
100
AcDbLine
10
181.28173999999999
20
477.65417000000014
30
0
11
181.67072000000002
21
478.55576000000008
31
0
0
LINE
5
188
100
AcDbEntity
8
0
100
AcDbLine
10
195.03906000000001
20
483.71353000000005
30
0
11
195.92587000000003
21
483.30972000000008
31
0
0
LINE
5
189
100
AcDbEntity
8
0
100
AcDbLine
10
201.62576000000001
20
474.71286000000009
30
0
11
201.65176000000002
21
473.69019000000009
31
0
0
LINE
5
190
100
AcDbEntity
8
0
100
AcDbLine
10
185.49405000000002
20
482.82825000000008
30
0
11
186.33524
21
483.30972000000008
31
0
0
LINE
5
191
100
AcDbEntity
8
0
100
AcDbLine
10
109.97975
20
458.41070999999999
30
0
11
110.06263000000001
21
458.14374000000009
31
0
0
LINE
5
192
100
AcDbEntity
8
0
100
AcDbLine
10
110.06263000000001
20
458.14374000000009
30
0
11
110.09153000000001
21
457.85706000000005
31
0
0
LINE
5
193
100
AcDbEntity
8
0
100
AcDbLine
10
108.95580000000001
20
456.46355999999997
30
0
11
108.66913000000002
21
456.43465999999995
31
0
0
LINE
5
194
100
AcDbEntity
8
0
100
AcDbLine
10
109.67492
20
458.86284999999998
30
0
11
109.84861000000002
21
458.65230999999994
31
0
0
LINE
5
195
100
AcDbEntity
8
0
100
AcDbLine
10
109.22279
20
456.54645000000005
30
0
11
108.95580000000001
21
456.46355999999997
31
0
0
LINE
5
196
100
AcDbEntity
8
0
100
AcDbLine
10
108.66913000000002
20
456.43465999999995
30
0
11
108.38246000000001
21
456.46355999999997
31
0
0
LINE
5
197
100
AcDbEntity
8
0
100
AcDbLine
10
109.22279
20
459.16765999999996
30
0
11
109.46440000000001
21
459.03652999999997
31
0
0
LINE
5
198
100
AcDbEntity
8
0
100
AcDbLine
10
108.11546000000001
20
456.54645000000005
30
0
11
107.87386000000001
21
456.67757999999998
31
0
0
LINE
5
199
100
AcDbEntity
8
0
100
AcDbLine
10
107.87386000000001
20
456.67757999999998
30
0
11
107.66334000000001
21
456.85125999999997
31
0
0
LINE
5
200
100
AcDbEntity
8
0
100
AcDbLine
10
108.38246000000001
20
456.46355999999997
30
0
11
108.11546000000001
21
456.54645000000005
31
0
0
LINE
5
201
100
AcDbEntity
8
0
100
AcDbLine
10
109.84861000000002
20
458.65230999999994
30
0
11
109.97975
21
458.41070999999999
31
0
0
LINE
5
202
100
AcDbEntity
8
0
100
AcDbLine
10
109.46440000000001
20
459.03652999999997
30
0
11
109.67492
21
458.86284999999998
31
0
0
LINE
5
203
100
AcDbEntity
8
0
100
AcDbLine
10
107.48965
20
457.06180000000006
30
0
11
107.35851000000002
21
457.30341000000004
31
0
0
LINE
5
204
100
AcDbEntity
8
0
100
AcDbLine
10
107.87386000000001
20
459.03652999999997
30
0
11
108.11546000000001
21
459.16765999999996
31
0
0
LINE
5
205
100
AcDbEntity
8
0
100
AcDbLine
10
108.11546000000001
20
459.16765999999996
30
0
11
108.38246000000001
21
459.25054999999998
31
0
0
LINE
5
206
100
AcDbEntity
8
0
100
AcDbLine
10
108.38246000000001
20
459.25054999999998
30
0
11
108.66913000000002
21
459.27945
31
0
0
LINE
5
207
100
AcDbEntity
8
0
100
AcDbLine
10
107.48965
20
458.65230999999994
30
0
11
107.66334000000001
21
458.86284999999998
31
0
0
LINE
5
208
100
AcDbEntity
8
0
100
AcDbLine
10
108.66913000000002
20
459.27945
30
0
11
108.95580000000001
21
459.25054999999998
31
0
0
LINE
5
209
100
AcDbEntity
8
0
100
AcDbLine
10
108.95580000000001
20
459.25054999999998
30
0
11
109.22279
21
459.16765999999996
31
0
0
LWPOLYLINE
5
210
100
AcDbEntity
8
0
100
AcDbPolyline
90
32
70
1
43
0.0
10
206.49989000000002
20
403.96338000000003
10
206.58276000000001
20
404.23041000000006
10
206.61166000000003
20
404.51709
10
206.58276000000001
20
404.80377000000004
10
206.49989000000002
20
405.07080000000002
10
206.36874000000003
20
405.31238000000002
10
206.19505000000004
20
405.52289000000002
10
205.98453000000003
20
405.69656000000009
10
205.74292
20
405.82770000000005
10
205.47594000000001
20
405.91055000000006
10
205.18927000000002
20
405.93948000000006
10
204.90260000000004
20
405.91055000000006
10
204.63561999999999
20
405.82770000000005
10
204.39401000000004
20
405.69656000000009
10
204.18349000000001
20
405.52289000000002
10
204.00980000000004
20
405.31238000000002
10
203.87865000000002
20
405.07080000000002
10
203.79578000000004
20
404.80377000000004
10
203.76688000000001
20
404.51709
10
203.79578000000004
20
404.23041000000006
10
203.87865000000002
20
403.96338000000003
10
204.00980000000004
20
403.72180000000003
10
204.18349000000001
20
403.51129000000003
10
204.39401000000004
20
403.33762000000007
10
204.63561999999999
20
403.20648000000006
10
204.90260000000004
20
403.12363000000005
10
205.18927000000002
20
403.09470000000005
10
205.47594000000001
20
403.12363000000005
10
205.74292
20
403.20648000000006
10
205.98453000000003
20
403.33762000000007
10
206.19505000000004
20
403.51129000000003
10
206.36874000000003
20
403.72180000000003
0
LINE
5
211
100
AcDbEntity
8
0
100
AcDbLine
10
107.66334000000001
20
458.86284999999998
30
0
11
107.87386000000001
21
459.03652999999997
31
0
0
LINE
5
212
100
AcDbEntity
8
0
100
AcDbLine
10
107.24673000000001
20
457.85706000000005
30
0
11
107.27563000000002
21
458.14374000000009
31
0
0
LINE
5
213
100
AcDbEntity
8
0
100
AcDbLine
10
107.35851000000002
20
458.41070999999999
30
0
11
107.48965
21
458.65230999999994
31
0
0
LINE
5
214
100
AcDbEntity
8
0
100
AcDbLine
10
107.27563000000002
20
458.14374000000009
30
0
11
107.35851000000002
21
458.41070999999999
31
0
0
LINE
5
215
100
AcDbEntity
8
0
100
AcDbLine
10
107.27563000000002
20
457.57037000000003
30
0
11
107.24673000000001
21
457.85706000000005
31
0
0
LINE
5
216
100
AcDbEntity
8
0
100
AcDbLine
10
107.66334000000001
20
456.85125999999997
30
0
11
107.48965
21
457.06180000000006
31
0
0
LINE
5
217
100
AcDbEntity
8
0
100
AcDbLine
10
107.35851000000002
20
457.30341000000004
30
0
11
107.27563000000002
21
457.57037000000003
31
0
0
LINE
5
218
100
AcDbEntity
8
0
100
AcDbLine
10
206.61212000000003
20
457.85709000000003
30
0
11
206.58321999999998
21
457.57043000000004
31
0
0
LINE
5
219
100
AcDbEntity
8
0
100
AcDbLine
10
206.36920000000003
20
457.06183000000004
30
0
11
206.19551000000001
21
456.8513200000001
31
0
0
LINE
5
220
100
AcDbEntity
8
0
100
AcDbLine
10
109.67693
20
403.51129000000003
30
0
11
109.46642
21
403.33762000000007
31
0
0
LINE
5
221
100
AcDbEntity
8
0
100
AcDbLine
10
203.76733000000002
20
457.85709000000003
30
0
11
203.79623000000004
21
458.14374000000009
31
0
0
LINE
5
222
100
AcDbEntity
8
0
100
AcDbLine
10
109.22481000000002
20
403.20648000000006
30
0
11
108.95781000000001
21
403.12363000000005
31
0
0
LINE
5
223
100
AcDbEntity
8
0
100
AcDbLine
10
204.01025000000004
20
458.65234000000009
30
0
11
204.18394000000001
21
458.86284999999998
31
0
0
LINE
5
224
100
AcDbEntity
8
0
100
AcDbLine
10
204.63607999999999
20
456.54645000000005
30
0
11
204.39447000000001
21
456.67760999999996
31
0
0
LINE
5
225
100
AcDbEntity
8
0
100
AcDbLine
10
206.50035000000003
20
457.30344000000002
30
0
11
206.36920000000003
21
457.06183000000004
31
0
0
LINE
5
226
100
AcDbEntity
8
0
100
AcDbLine
10
206.58321999999998
20
457.57043000000004
30
0
11
206.50035000000003
21
457.30344000000002
31
0
0
LINE
5
227
100
AcDbEntity
8
0
100
AcDbLine
10
204.90306000000004
20
459.25058000000001
30
0
11
205.18973000000003
21
459.27948000000004
31
0
0
LINE
5
228
100
AcDbEntity
8
0
100
AcDbLine
10
107.36052000000001
20
405.07080000000002
30
0
11
107.49166000000002
21
405.31238000000002
31
0
0
LINE
5
229
100
AcDbEntity
8
0
100
AcDbLine
10
204.01025000000004
20
457.06183000000004
30
0
11
203.87910000000002
21
457.30344000000002
31
0
0
LINE
5
230
100
AcDbEntity
8
0
100
AcDbLine
10
205.18973000000003
20
459.27948000000004
30
0
11
205.47639000000001
21
459.25058000000001
31
0
0
LINE
5
231
100
AcDbEntity
8
0
100
AcDbLine
10
107.27764000000001
20
404.23041000000006
30
0
11
107.24874
21
404.51709
31
0
0
LINE
5
232
100
AcDbEntity
8
0
100
AcDbLine
10
206.58321999999998
20
458.14374000000009
30
0
11
206.61212000000003
21
457.85709000000003
31
0
0
LINE
5
233
100
AcDbEntity
8
0
100
AcDbLine
10
206.19551000000001
20
456.8513200000001
30
0
11
205.98499000000001
21
456.67760999999996
31
0
0
LINE
5
234
100
AcDbEntity
8
0
100
AcDbLine
10
110.09354
20
404.51709
30
0
11
110.06464000000001
21
404.23041000000006
31
0
0
LINE
5
235
100
AcDbEntity
8
0
100
AcDbLine
10
109.85061999999999
20
403.72180000000003
30
0
11
109.67693
21
403.51129000000003
31
0
0
LINE
5
236
100
AcDbEntity
8
0
100
AcDbLine
10
110.06464000000001
20
404.23041000000006
30
0
11
109.98177
21
403.96338000000003
31
0
0
LINE
5
237
100
AcDbEntity
8
0
100
AcDbLine
10
203.87910000000002
20
457.30344000000002
30
0
11
203.79623000000004
21
457.57043000000004
31
0
0
LINE
5
238
100
AcDbEntity
8
0
100
AcDbLine
10
109.98177
20
403.96338000000003
30
0
11
109.85061999999999
21
403.72180000000003
31
0
0
LINE
5
239
100
AcDbEntity
8
0
100
AcDbLine
10
109.85061999999999
20
405.31238000000002
30
0
11
109.98177
21
405.07080000000002
31
0
0
LINE
5
240
100
AcDbEntity
8
0
100
AcDbLine
10
206.19551000000001
20
458.86284999999998
30
0
11
206.36920000000003
21
458.65234000000009
31
0
0
LINE
5
241
100
AcDbEntity
8
0
100
AcDbLine
10
107.24874
20
404.51709
30
0
11
107.27764000000001
21
404.80377000000004
31
0
0
LINE
5
242
100
AcDbEntity
8
0
100
AcDbLine
10
109.22481000000002
20
405.82770000000005
30
0
11
109.46642
21
405.69656000000009
31
0
0
LINE
5
243
100
AcDbEntity
8
0
100
AcDbLine
10
107.36052000000001
20
403.96338000000003
30
0
11
107.27764000000001
21
404.23041000000006
31
0
0
LINE
5
244
100
AcDbEntity
8
0
100
AcDbLine
10
108.38448000000001
20
405.91055000000006
30
0
11
108.67114000000001
21
405.93948000000006
31
0
0
LINE
5
245
100
AcDbEntity
8
0
100
AcDbLine
10
108.67114000000001
20
405.93948000000006
30
0
11
108.95781000000001
21
405.91055000000006
31
0
0
LINE
5
246
100
AcDbEntity
8
0
100
AcDbLine
10
108.95781000000001
20
405.91055000000006
30
0
11
109.22481000000002
21
405.82770000000005
31
0
0
LINE
5
247
100
AcDbEntity
8
0
100
AcDbLine
10
205.18973000000003
20
456.4346900000001
30
0
11
204.90306000000004
21
456.46359000000007
31
0
0
LINE
5
248
100
AcDbEntity
8
0
100
AcDbLine
10
109.46642
20
403.33762000000007
30
0
11
109.22481000000002
21
403.20648000000006
31
0
0
LINE
5
249
100
AcDbEntity
8
0
100
AcDbLine
10
107.66535000000002
20
403.51129000000003
30
0
11
107.49166000000002
21
403.72180000000003
31
0
0
LINE
5
250
100
AcDbEntity
8
0
100
AcDbLine
10
205.74338
20
456.54645000000005
30
0
11
205.47639000000001
21
456.46359000000007
31
0
0
LINE
5
251
100
AcDbEntity
8
0
100
AcDbLine
10
205.74338
20
459.16772000000009
30
0
11
205.98499000000001
21
459.03656000000001
31
0
0
LINE
5
252
100
AcDbEntity
8
0
100
AcDbLine
10
205.98499000000001
20
456.67760999999996
30
0
11
205.74338
21
456.54645000000005
31
0
0
LINE
5
253
100
AcDbEntity
8
0
100
AcDbLine
10
204.39447000000001
20
456.67760999999996
30
0
11
204.18394000000001
21
456.8513200000001
31
0
0
LINE
5
254
100
AcDbEntity
8
0
100
AcDbLine
10
205.47639000000001
20
459.25058000000001
30
0
11
205.74338
21
459.16772000000009
31
0
0
LINE
5
255
100
AcDbEntity
8
0
100
AcDbLine
10
206.50035000000003
20
458.41074000000003
30
0
11
206.58321999999998
21
458.14374000000009
31
0
0
LINE
5
256
100
AcDbEntity
8
0
100
AcDbLine
10
203.79623000000004
20
457.57043000000004
30
0
11
203.76733000000002
21
457.85709000000003
31
0
0
LINE
5
257
100
AcDbEntity
8
0
100
AcDbLine
10
204.18394000000001
20
456.8513200000001
30
0
11
204.01025000000004
21
457.06183000000004
31
0
0
LINE
5
258
100
AcDbEntity
8
0
100
AcDbLine
10
107.66535000000002
20
405.52289000000002
30
0
11
107.87587000000001
21
405.69656000000009
31
0
0
LINE
5
259
100
AcDbEntity
8
0
100
AcDbLine
10
109.46642
20
405.69656000000009
30
0
11
109.67693
21
405.52289000000002
31
0
0
LINE
5
260
100
AcDbEntity
8
0
100
AcDbLine
10
206.36920000000003
20
458.65234000000009
30
0
11
206.50035000000003
21
458.41074000000003
31
0
0
LINE
5
261
100
AcDbEntity
8
0
100
AcDbLine
10
204.39447000000001
20
459.03656000000001
30
0
11
204.63607999999999
21
459.16772000000009
31
0
0
LINE
5
262
100
AcDbEntity
8
0
100
AcDbLine
10
108.95781000000001
20
403.12363000000005
30
0
11
108.67114000000001
21
403.09470000000005
31
0
0
LINE
5
263
100
AcDbEntity
8
0
100
AcDbLine
10
107.49166000000002
20
403.72180000000003
30
0
11
107.36052000000001
21
403.96338000000003
31
0
0
LINE
5
264
100
AcDbEntity
8
0
100
AcDbLine
10
203.87910000000002
20
458.41074000000003
30
0
11
204.01025000000004
21
458.65234000000009
31
0
0
LINE
5
265
100
AcDbEntity
8
0
100
AcDbLine
10
108.11748000000001
20
405.82770000000005
30
0
11
108.38448000000001
21
405.91055000000006
31
0
0
LINE
5
266
100
AcDbEntity
8
0
100
AcDbLine
10
107.49166000000002
20
405.31238000000002
30
0
11
107.66535000000002
21
405.52289000000002
31
0
0
LINE
5
267
100
AcDbEntity
8
0
100
AcDbLine
10
204.90306000000004
20
456.46359000000007
30
0
11
204.63607999999999
21
456.54645000000005
31
0
0
LINE
5
268
100
AcDbEntity
8
0
100
AcDbLine
10
108.67114000000001
20
403.09470000000005
30
0
11
108.38448000000001
21
403.12363000000005
31
0
0
LINE
5
269
100
AcDbEntity
8
0
100
AcDbLine
10
107.87587000000001
20
405.69656000000009
30
0
11
108.11748000000001
21
405.82770000000005
31
0
0
LINE
5
270
100
AcDbEntity
8
0
100
AcDbLine
10
107.27764000000001
20
404.80377000000004
30
0
11
107.36052000000001
21
405.07080000000002
31
0
0
LINE
5
271
100
AcDbEntity
8
0
100
AcDbLine
10
109.67693
20
405.52289000000002
30
0
11
109.85061999999999
21
405.31238000000002
31
0
0
LINE
5
272
100
AcDbEntity
8
0
100
AcDbLine
10
109.97975
20
458.41074000000003
30
0
11
110.06263000000001
21
458.14374000000009
31
0
0
LINE
5
273
100
AcDbEntity
8
0
100
AcDbLine
10
108.38246000000001
20
456.46359000000007
30
0
11
108.11546000000001
21
456.54645000000005
31
0
0
LINE
5
274
100
AcDbEntity
8
0
100
AcDbLine
10
109.67492
20
456.8513200000001
30
0
11
109.46440000000001
21
456.67760999999996
31
0
0
LINE
5
275
100
AcDbEntity
8
0
100
AcDbLine
10
109.84861000000002
20
458.65234000000009
30
0
11
109.97975
21
458.41074000000003
31
0
0
LINE
5
276
100
AcDbEntity
8
0
100
AcDbLine
10
107.66334000000001
20
458.86284999999998
30
0
11
107.87386000000001
21
459.03656000000001
31
0
0
LINE
5
277
100
AcDbEntity
8
0
100
AcDbLine
10
180.63534999999999
20
474.71286000000009
30
0
11
180.75931
21
475.72833000000003
31
0
0
LINE
5
278
100
AcDbEntity
8
0
100
AcDbLine
10
109.46440000000001
20
459.03656000000001
30
0
11
109.67492
21
458.86284999999998
31
0
0
LINE
5
279
100
AcDbEntity
8
0
100
AcDbLine
10
181.85303000000002
20
468.97150000000011
30
0
11
181.43460000000002
21
469.84576000000004
31
0
0
LINE
5
280
100
AcDbEntity
8
0
100
AcDbLine
10
109.98177
20
405.07080000000002
30
0
11
110.06464000000001
21
404.80377000000004
31
0
0
LINE
5
281
100
AcDbEntity
8
0
100
AcDbLine
10
204.18394000000001
20
458.86284999999998
30
0
11
204.39447000000001
21
459.03656000000001
31
0
0
LINE
5
282
100
AcDbEntity
8
0
100
AcDbLine
10
108.38448000000001
20
403.12363000000005
30
0
11
108.11748000000001
21
403.20648000000006
31
0
0
LINE
5
283
100
AcDbEntity
8
0
100
AcDbLine
10
110.06464000000001
20
404.80377000000004
30
0
11
110.09354
21
404.51709
31
0
0
LINE
5
284
100
AcDbEntity
8
0
100
AcDbLine
10
107.87587000000001
20
403.33762000000007
30
0
11
107.66535000000002
21
403.51129000000003
31
0
0
LWPOLYLINE
5
285
100
AcDbEntity
8
0
100
AcDbPolyline
90
4
70
1
43
0.0
10
93.421814000000012
20
421.67612000000008
10
93.421814000000012
20
433.07611000000003
10
100.02179000000001
20
433.07611000000003
10
100.02179000000001
20
421.67612000000008
0
LINE
5
286
100
AcDbEntity
8
0
100
AcDbLine
10
203.79623000000004
20
458.14374000000009
30
0
11
203.87910000000002
21
458.41074000000003
31
0
0
LINE
5
287
100
AcDbEntity
8
0
100
AcDbLine
10
181.43460000000002
20
469.84576000000004
30
0
11
181.09698000000003
21
470.7598000000001
31
0
0
LINE
5
288
100
AcDbEntity
8
0
100
AcDbLine
10
183.55255
20
466.63809000000015
30
0
11
182.91605000000001
21
467.36261000000007
31
0
0
LINE
5
289
100
AcDbEntity
8
0
100
AcDbLine
10
107.48965
20
458.65234000000009
30
0
11
107.66334000000001
21
458.86284999999998
31
0
0
LINE
5
290
100
AcDbEntity
8
0
100
AcDbLine
10
108.95580000000001
20
456.46359000000007
30
0
11
108.66913000000002
21
456.4346900000001
31
0
0
LINE
5
291
100
AcDbEntity
8
0
100
AcDbLine
10
107.35851000000002
20
457.30344000000002
30
0
11
107.27563000000002
21
457.57043000000004
31
0
0
LINE
5
292
100
AcDbEntity
8
0
100
AcDbLine
10
185.83340000000004
20
464.84491000000003
30
0
11
185.01526999999999
21
465.37418000000002
31
0
0
LINE
5
293
100
AcDbEntity
8
0
100
AcDbLine
10
182.91605000000001
20
467.36261000000007
30
0
11
182.34818999999999
21
468.14209000000011
31
0
0
LINE
5
294
100
AcDbEntity
8
0
100
AcDbLine
10
107.27563000000002
20
457.57043000000004
30
0
11
107.24673000000001
21
457.85709000000003
31
0
0
LINE
5
295
100
AcDbEntity
8
0
100
AcDbLine
10
180.84419
20
471.70859000000007
30
0
11
180.68029999999999
21
472.68707000000006
31
0
0
LINE
5
296
100
AcDbEntity
8
0
100
AcDbLine
10
204.63607999999999
20
459.16772000000009
30
0
11
204.90306000000004
21
459.25058000000001
31
0
0
LINE
5
297
100
AcDbEntity
8
0
100
AcDbLine
10
189.58994000000001
20
463.53027000000009
30
0
11
188.58630000000002
21
463.72842000000014
31
0
0
LINE
5
298
100
AcDbEntity
8
0
100
AcDbLine
10
107.35851000000002
20
458.41074000000003
30
0
11
107.48965
21
458.65234000000009
31
0
0
LINE
5
299
100
AcDbEntity
8
0
100
AcDbLine
10
184.25363000000002
20
465.97360000000009
30
0
11
183.55255
21
466.63809000000015
31
0
0
LINE
5
300
100
AcDbEntity
8
0
100
AcDbLine
10
182.34818999999999
20
468.14209000000011
30
0
11
181.85303000000002
21
468.97150000000011
31
0
0
LINE
5
301
100
AcDbEntity
8
0
100
AcDbLine
10
188.58630000000002
20
463.72842000000014
30
0
11
187.62297000000001
21
464.01697000000013
31
0
0
LINE
5
302
100
AcDbEntity
8
0
100
AcDbLine
10
205.98499000000001
20
459.03656000000001
30
0
11
206.19551000000001
21
458.86284999999998
31
0
0
LINE
5
303
100
AcDbEntity
8
0
100
AcDbLine
10
109.22279
20
459.16772000000009
30
0
11
109.46440000000001
21
459.03656000000001
31
0
0
LINE
5
304
100
AcDbEntity
8
0
100
AcDbLine
10
108.11748000000001
20
403.20648000000006
30
0
11
107.87587000000001
21
403.33762000000007
31
0
0
LINE
5
305
100
AcDbEntity
8
0
100
AcDbLine
10
185.01526999999999
20
465.37418000000002
30
0
11
184.25363000000002
21
465.97360000000009
31
0
0
LINE
5
306
100
AcDbEntity
8
0
100
AcDbLine
10
108.11546000000001
20
459.16772000000009
30
0
11
108.38246000000001
21
459.25058000000001
31
0
0
LINE
5
307
100
AcDbEntity
8
0
100
AcDbLine
10
109.46440000000001
20
456.67760999999996
30
0
11
109.22279
21
456.54645000000005
31
0
0
LINE
5
308
100
AcDbEntity
8
0
100
AcDbLine
10
180.68029999999999
20
472.68707000000006
30
0
11
180.60934
21
473.69019000000009
31
0
0
LINE
5
309
100
AcDbEntity
8
0
100
AcDbLine
10
108.95580000000001
20
459.25058000000001
30
0
11
109.22279
21
459.16772000000009
31
0
0
LINE
5
310
100
AcDbEntity
8
0
100
AcDbLine
10
205.47639000000001
20
456.46359000000007
30
0
11
205.18973000000003
21
456.4346900000001
31
0
0
LINE
5
311
100
AcDbEntity
8
0
100
AcDbLine
10
181.09698000000003
20
470.7598000000001
30
0
11
180.84419
21
471.70859000000007
31
0
0
LINE
5
312
100
AcDbEntity
8
0
100
AcDbLine
10
180.60934
20
473.69019000000009
30
0
11
180.63534999999999
21
474.71286000000009
31
0
0
LINE
5
313
100
AcDbEntity
8
0
100
AcDbLine
10
107.66334000000001
20
456.8513200000001
30
0
11
107.48965
21
457.06183000000004
31
0
0
LINE
5
314
100
AcDbEntity
8
0
100
AcDbLine
10
110.09153000000001
20
457.85709000000003
30
0
11
110.06263000000001
21
457.57043000000004
31
0
0
LINE
5
315
100
AcDbEntity
8
0
100
AcDbLine
10
109.67492
20
458.86284999999998
30
0
11
109.84861000000002
21
458.65234000000009
31
0
0
LINE
5
316
100
AcDbEntity
8
0
100
AcDbLine
10
198.00748000000002
20
465.97360000000009
30
0
11
197.24583000000001
21
465.37418000000002
31
0
0
LINE
5
317
100
AcDbEntity
8
0
100
AcDbLine
10
109.84861000000002
20
457.06183000000004
30
0
11
109.67492
21
456.8513200000001
31
0
0
LINE
5
318
100
AcDbEntity
8
0
100
AcDbLine
10
110.06263000000001
20
457.57043000000004
30
0
11
109.97975
21
457.30344000000002
31
0
0
LINE
5
319
100
AcDbEntity
8
0
100
AcDbLine
10
107.27563000000002
20
458.14374000000009
30
0
11
107.35851000000002
21
458.41074000000003
31
0
0
LINE
5
320
100
AcDbEntity
8
0
100
AcDbLine
10
108.11546000000001
20
456.54645000000005
30
0
11
107.87386000000001
21
456.67760999999996
31
0
0
LINE
5
321
100
AcDbEntity
8
0
100
AcDbLine
10
198.70856000000003
20
466.63809000000015
30
0
11
198.00748000000002
21
465.97360000000009
31
0
0
LINE
5
322
100
AcDbEntity
8
0
100
AcDbLine
10
107.87386000000001
20
456.67760999999996
30
0
11
107.66334000000001
21
456.8513200000001
31
0
0
LINE
5
323
100
AcDbEntity
8
0
100
AcDbLine
10
186.70398000000003
20
464.3908100000001
30
0
11
185.83340000000004
21
464.84491000000003
31
0
0
LINE
5
324
100
AcDbEntity
8
0
100
AcDbLine
10
107.87386000000001
20
459.03656000000001
30
0
11
108.11546000000001
21
459.16772000000009
31
0
0
LINE
5
325
100
AcDbEntity
8
0
100
AcDbLine
10
107.48965
20
457.06183000000004
30
0
11
107.35851000000002
21
457.30344000000002
31
0
0
LINE
5
326
100
AcDbEntity
8
0
100
AcDbLine
10
187.62297000000001
20
464.01697000000013
30
0
11
186.70398000000003
21
464.3908100000001
31
0
0
LINE
5
327
100
AcDbEntity
8
0
100
AcDbLine
10
194.63813999999999
20
464.01697000000013
30
0
11
193.6748
21
463.72842000000014
31
0
0
LINE
5
328
100
AcDbEntity
8
0
100
AcDbLine
10
183.96753000000001
20
481.65002000000015
30
0
11
184.70323000000002
21
482.27356000000009
31
0
0
LINE
5
329
100
AcDbEntity
8
0
100
AcDbLine
10
107.24673000000001
20
457.85709000000003
30
0
11
107.27563000000002
21
458.14374000000009
31
0
0
LINE
5
330
100
AcDbEntity
8
0
100
AcDbLine
10
104.33630000000001
20
436.54294000000004
30
0
11
104.38330000000001
21
436.49588
31
0
0
LINE
5
331
100
AcDbEntity
8
0
100
AcDbLine
10
109.22279
20
456.54645000000005
30
0
11
108.95580000000001
21
456.46359000000007
31
0
0
LINE
5
332
100
AcDbEntity
8
0
100
AcDbLine
10
104.38330000000001
20
436.49588
30
0
11
104.33630000000001
21
436.54294000000004
31
0
0
LINE
5
333
100
AcDbEntity
8
0
100
AcDbLine
10
108.66913000000002
20
459.27948000000004
30
0
11
108.95580000000001
21
459.25058000000001
31
0
0
LINE
5
334
100
AcDbEntity
8
0
100
AcDbLine
10
109.97975
20
457.30344000000002
30
0
11
109.84861000000002
21
457.06183000000004
31
0
0
LINE
5
335
100
AcDbEntity
8
0
100
AcDbLine
10
110.06263000000001
20
458.14374000000009
30
0
11
110.09153000000001
21
457.85709000000003
31
0
0
LINE
5
336
100
AcDbEntity
8
0
100
AcDbLine
10
108.66913000000002
20
456.4346900000001
30
0
11
108.38246000000001
21
456.46359000000007
31
0
0
LINE
5
337
100
AcDbEntity
8
0
100
AcDbLine
10
108.38246000000001
20
459.25058000000001
30
0
11
108.66913000000002
21
459.27948000000004
31
0
0
LWPOLYLINE
5
338
100
AcDbEntity
8
0
100
AcDbPolyline
90
4
70
1
43
0.0
10
105.35956000000002
20
462.16708000000006
10
208.59972999999999
20
462.16608000000002
10
208.59972999999999
20
400.20609000000007
10
105.35956000000002
20
400.20709000000005
0
LINE
5
339
100
AcDbEntity
8
0
100
AcDbLine
10
209.49978999999999
20
455.82874000000004
30
0
11
209.49978999999999
21
455.75433000000004
31
0
0
ENDSEC
0
SECTION
2
OBJECTS
0
DICTIONARY
5
C
100
AcDbDictionary
3
ACAD_GROUP
350
D
3
ACAD_MLINESTYLE
350
17
0
DICTIONARY
5
D
100
AcDbDictionary
0
DICTIONARY
5
1A
330
C
100
AcDbDictionary
0
DICTIONARY
5
17
100
AcDbDictionary
0
ENDSEC
0
EOF
