0
SECTION
2
HEADER
9
$INSUNITS
70
1
9
$ACADVER
1
AC1014
9
$HANDSEED
5
FFFF
0
ENDSEC
0
SECTION
2
TABLES
0
TABLE
2
VPORT
5
8
100
AcDbSymbolTable
0
ENDTAB
0
TABLE
2
LTYPE
5
5
100
AcDbSymbolTable
0
LTYPE
5
14
100
AcDbSymbolTableRecord
100
AcDbLinetypeTableRecord
2
BYBLOCK
70
0
0
LTYPE
5
15
100
AcDbSymbolTableRecord
100
AcDbLinetypeTableRecord
2
BYLAYER
70
0
0
ENDTAB
0
TABLE
2
LAYER
5
2
100
AcDbSymbolTable
70
2
0
LAYER
5
50
100
AcDbSymbolTableRecord
100
AcDbLayerTableRecord
2
0
70
0
6
CONTINUOUS
0
ENDTAB
0
TABLE
2
STYLE
5
3
100
AcDbSymbolTable
70
1
0
STYLE
5
11
100
AcDbSymbolTableRecord
100
AcDbTextStyleTableRecord
2
STANDARD
70
0
0
ENDTAB
0
TABLE
2
VIEW
5
6
100
AcDbSymbolTable
70
0
0
ENDTAB
0
TABLE
2
UCS
5
7
100
AcDbSymbolTable
70
0
0
ENDTAB
0
TABLE
2
APPID
5
9
100
AcDbSymbolTable
70
2
0
APPID
5
12
100
AcDbSymbolTableRecord
100
AcDbRegAppTableRecord
2
ACAD
70
0
0
ENDTAB
0
TABLE
2
DIMSTYLE
5
A
100
AcDbSymbolTable
70
1
0
ENDTAB
0
TABLE
2
BLOCK_RECORD
5
1
100
AcDbSymbolTable
70
1
0
BLOCK_RECORD
5
1F
100
AcDbSymbolTableRecord
100
AcDbBlockTableRecord
2
*MODEL_SPACE
0
BLOCK_RECORD
5
1B
100
AcDbSymbolTableRecord
100
AcDbBlockTableRecord
2
*PAPER_SPACE
0
ENDTAB
0
ENDSEC
0
SECTION
2
BLOCKS
0
BLOCK
5
20
100
AcDbEntity
100
AcDbBlockBegin
2
*MODEL_SPACE
0
ENDBLK
5
21
100
AcDbEntity
100
AcDbBlockEnd
0
BLOCK
5
1C
100
AcDbEntity
100
AcDbBlockBegin
2
*PAPER_SPACE
0
ENDBLK
5
1D
100
AcDbEntity
100
AcDbBlockEnd
0
ENDSEC
0
SECTION
2
ENTITIES
0
LWPOLYLINE
5
100
100
AcDbEntity
8
0
100
AcDbPolyline
90
4
70
1
43
0.0
10
0
20
-5.3659999999999988
10
-5.3659999999999988
20
-5.3659999999999988
10
-5.3659999999999988
20
0
10
0
20
0
0
LWPOLYLINE
5
101
100
AcDbEntity
8
0
100
AcDbPolyline
90
4
70
1
43
0.0
10
-2.5579999999999998
20
-4.5375506816784652
10
-2.5579999999999998
20
-4.2875506816784652
10
-2.8079999999999998
20
-4.2875506816784652
10
-2.8079999999999998
20
-4.5375506816784652
0
LWPOLYLINE
5
102
100
AcDbEntity
8
0
100
AcDbPolyline
90
4
70
1
43
0.0
10
-4.3330030000000006
20
-5.1159999999999988
10
-4.0830029999999997
20
-5.1159999999999988
10
-4.0830029999999997
20
-4.8659999999999997
10
-4.3330030000000006
20
-4.8659999999999988
0
LWPOLYLINE
5
103
100
AcDbEntity
8
0
100
AcDbPolyline
90
4
70
1
43
0.0
10
-2.8079999999999985
20
-0.8284493183215339
10
-2.8079999999999989
20
-1.0784493183215345
10
-2.5579999999999994
20
-1.0784493183215338
10
-2.5579999999999989
20
-0.82844931832153312
0
LWPOLYLINE
5
104
100
AcDbEntity
8
0
100
AcDbPolyline
90
4
70
1
43
0.0
10
-4.5375506816784643
20
-2.8079999999999989
10
-4.2875506816784652
20
-2.8079999999999989
10
-4.2875506816784652
20
-2.5579999999999994
10
-4.5375506816784652
20
-2.5579999999999989
0
LWPOLYLINE
5
105
100
AcDbEntity
8
0
100
AcDbPolyline
90
4
70
1
43
0.0
10
-1.2829969999999997
20
-4.8659999999999988
10
-1.2829969999999997
20
-5.1159999999999988
10
-1.0329969999999997
20
-5.1159999999999988
10
-1.0329969999999999
20
-4.8659999999999988
0
LWPOLYLINE
5
106
100
AcDbEntity
8
0
100
AcDbPolyline
90
4
70
1
43
0.0
10
-1.0329969999999999
20
-0.2499999999999992
10
-1.2829969999999999
20
-0.2499999999999992
10
-1.2829969999999999
20
-0.49999999999999978
10
-1.0329969999999999
20
-0.49999999999999978
0
LWPOLYLINE
5
107
100
AcDbEntity
8
0
100
AcDbPolyline
90
4
70
1
43
0.0
10
-0.82844931832153368
20
-2.5579999999999998
10
-1.0784493183215336
20
-2.5579999999999998
10
-1.0784493183215336
20
-2.8079999999999994
10
-0.82844931832153335
20
-2.8079999999999994
0
LWPOLYLINE
5
108
100
AcDbEntity
8
0
100
AcDbPolyline
90
4
70
1
43
0.0
10
-4.0830029999999997
20
-0.49999999999999978
10
-4.0830029999999997
20
-0.2499999999999992
10
-4.3330030000000006
20
-0.2499999999999992
10
-4.3330030000000006
20
-0.49999999999999978
0
LINE
5
109
100
AcDbEntity
8
0
100
AcDbLine
10
0
20
-5.3659999999999988
30
0
11
-5.3659999999999988
21
0
31
0
0
CIRCLE
5
110
100
AcDbEntity
8
0
100
AcDbCircle
10
-2.6829999999999994
20
-2.6829999999999994
30
0
40
0.49999999999999978
210
0
220
0
230
1
0
ENDSEC
0
SECTION
2
OBJECTS
0
DICTIONARY
5
C
100
AcDbDictionary
3
ACAD_GROUP
350
D
3
ACAD_MLINESTYLE
350
17
0
DICTIONARY
5
D
100
AcDbDictionary
0
DICTIONARY
5
1A
330
C
100
AcDbDictionary
0
DICTIONARY
5
17
100
AcDbDictionary
0
ENDSEC
0
EOF
