0
SECTION
2
HEADER
9
$INSUNITS
70
4
9
$ACADVER
1
AC1014
9
$HANDSEED
5
FFFF
0
ENDSEC
0
SECTION
2
TABLES
0
TABLE
2
VPORT
5
8
100
AcDbSymbolTable
0
ENDTAB
0
TABLE
2
LTYPE
5
5
100
AcDbSymbolTable
0
LTYPE
5
14
100
AcDbSymbolTableRecord
100
AcDbLinetypeTableRecord
2
BYBLOCK
70
0
0
LTYPE
5
15
100
AcDbSymbolTableRecord
100
AcDbLinetypeTableRecord
2
BYLAYER
70
0
0
ENDTAB
0
TABLE
2
LAYER
5
2
100
AcDbSymbolTable
70
2
0
LAYER
5
50
100
AcDbSymbolTableRecord
100
AcDbLayerTableRecord
2
0
70
0
6
CONTINUOUS
0
ENDTAB
0
TABLE
2
STYLE
5
3
100
AcDbSymbolTable
70
1
0
STYLE
5
11
100
AcDbSymbolTableRecord
100
AcDbTextStyleTableRecord
2
STANDARD
70
0
0
ENDTAB
0
TABLE
2
VIEW
5
6
100
AcDbSymbolTable
70
0
0
ENDTAB
0
TABLE
2
UCS
5
7
100
AcDbSymbolTable
70
0
0
ENDTAB
0
TABLE
2
APPID
5
9
100
AcDbSymbolTable
70
2
0
APPID
5
12
100
AcDbSymbolTableRecord
100
AcDbRegAppTableRecord
2
ACAD
70
0
0
ENDTAB
0
TABLE
2
DIMSTYLE
5
A
100
AcDbSymbolTable
70
1
0
ENDTAB
0
TABLE
2
BLOCK_RECORD
5
1
100
AcDbSymbolTable
70
1
0
BLOCK_RECORD
5
1F
100
AcDbSymbolTableRecord
100
AcDbBlockTableRecord
2
*MODEL_SPACE
0
BLOCK_RECORD
5
1B
100
AcDbSymbolTableRecord
100
AcDbBlockTableRecord
2
*PAPER_SPACE
0
ENDTAB
0
ENDSEC
0
SECTION
2
BLOCKS
0
BLOCK
5
20
100
AcDbEntity
100
AcDbBlockBegin
2
*MODEL_SPACE
0
ENDBLK
5
21
100
AcDbEntity
100
AcDbBlockEnd
0
BLOCK
5
1C
100
AcDbEntity
100
AcDbBlockBegin
2
*PAPER_SPACE
0
ENDBLK
5
1D
100
AcDbEntity
100
AcDbBlockEnd
0
ENDSEC
0
SECTION
2
ENTITIES
0
LWPOLYLINE
5
100
100
AcDbEntity
8
0
100
AcDbPolyline
90
9
70
1
43
0.0
10
-79.684254698698098
20
50.730739764285715
10
-79.684254698698084
20
49.909152477904072
10
-71.37617376310304
20
49.909152477904072
10
-71.507951712998846
20
50.1917512034262
10
-79.535689715404473
20
51.607258007308985
10
-79.678356850478977
20
50.798152477904068
10
-79.684254698698098
20
50.798152477904068
10
-79.684254698698084
20
50.764704118524136
10
-79.690062945350391
20
50.731763914881121
0
LWPOLYLINE
5
101
100
AcDbEntity
8
0
100
AcDbPolyline
90
6
70
1
43
0.0
10
-67.810579017786708
20
50.491684566333376
42
-0.074792414457699727
10
-65.60345797609061
20
50.064402814172993
42
-0.44255894713730815
10
-65.458089301464213
20
49.717643330176209
10
-65.619889685660681
20
49.370661286525788
42
-0.38490568807081688
10
-65.933657472196614
20
49.238146388681486
42
0.072056699529603849
10
-67.810579017786694
20
49.601798492733558
0
CIRCLE
5
102
100
AcDbEntity
8
0
100
AcDbCircle
10
-106.75465059999999
20
162.94740000000004
30
0
40
1.2700000000000067
210
0
220
-0
230
1
0
CIRCLE
5
103
100
AcDbEntity
8
0
100
AcDbCircle
10
-106.75465059999999
20
12.699999999999999
30
0
40
1.2700000000000067
210
0
220
-0
230
1
0
CIRCLE
5
104
100
AcDbEntity
8
0
100
AcDbCircle
10
-29.541755064131621
20
12.699999999999969
30
0
40
1.2699999999999978
210
-0
220
0
230
1
0
LWPOLYLINE
5
105
100
AcDbEntity
8
0
100
AcDbPolyline
90
6
70
1
43
0.0
10
-79.381316485458569
20
52.482752099736857
10
-71.966606046229003
20
51.175338595159971
10
-74.980971357839664
20
57.639665866852923
10
-75.786678980515262
20
57.263958232165436
10
-73.49404132010585
20
52.347380903196708
10
-79.226943255512651
20
53.358246192164707
0
LWPOLYLINE
5
106
100
AcDbEntity
8
0
100
AcDbPolyline
90
4
70
1
43
0.0
10
-38.371256479577404
20
98.489502642646954
10
-39.106601551371547
20
97.989914186627317
42
-0.1964830454274315
10
-37.364031778683291
20
89.76341246877422
10
-36.515213812210206
20
89.466424416439295
42
0.19953241035263442
0
LWPOLYLINE
5
107
100
AcDbEntity
8
0
100
AcDbPolyline
90
4
70
1
43
0.0
10
-59.732198521480868
20
58.84152592279851
10
-56.084574678860299
20
66.663880496713972
10
-56.89028230153589
20
67.039588131401459
10
-60.537906144156459
20
59.217233557485997
0
LWPOLYLINE
5
108
100
AcDbEntity
8
0
100
AcDbPolyline
90
6
70
1
43
0.0
10
-86.321254582281881
20
79.855428514784904
10
-85.288822351956611
20
77.641370451895298
10
-84.483114729281027
20
78.017078086582771
10
-85.801103483709014
20
80.843514091607304
42
-0.12465286816649809
10
-91.249523429284238
20
81.131812903659849
10
-91.512997747739149
20
80.28275325704206
42
0.10982228764292787
0
LWPOLYLINE
5
109
100
AcDbEntity
8
0
100
AcDbPolyline
90
4
70
1
43
0.0
10
-86.700061778827092
20
103.68065165063123
10
-86.663470194380267
20
102.78212235261974
42
-0.19648304542742595
10
-79.30250575760148
20
98.716647904661187
10
-78.61021866232177
20
99.274375058123496
42
0.19953241035262981
0
LWPOLYLINE
5
110
100
AcDbEntity
8
0
100
AcDbPolyline
90
6
70
1
43
0.0
10
-59.789066590954228
20
88.280823060112311
10
-67.256928020941615
20
88.280823060112283
10
-67.256928020941615
20
87.391823060112287
10
-58.522748549257145
20
87.391823060112287
42
-0.23504061977188037
10
-57.937207119410068
20
97.275098426722423
10
-58.637494892311857
20
97.839271164952038
42
0.20933777516444821
0
LWPOLYLINE
5
111
100
AcDbEntity
8
0
100
AcDbPolyline
90
4
70
1
43
0.0
10
-93.137838765770852
20
80.919832018476527
10
-92.871319506715494
20
81.778704143993195
42
-0.19648304542743381
10
-98.445098883088079
20
88.075120854317476
10
-99.28421923784731
20
87.781525843752291
42
0.19953241035263738
0
CIRCLE
5
112
100
AcDbEntity
8
0
100
AcDbCircle
10
-61.702787800427089
20
70.496450507965818
30
0
40
1.7780000000000038
210
-0
220
0
230
1
0
LWPOLYLINE
5
113
100
AcDbEntity
8
0
100
AcDbPolyline
90
4
70
1
43
0.0
10
-36.970290159549009
20
87.78152584375249
10
-37.809410514308233
20
88.07512085431766
42
-0.19648304542743092
10
-43.383189890680868
20
81.778704143993451
10
-43.116670631625382
20
80.919832018476669
42
0.19953241035263386
0
LWPOLYLINE
5
114
100
AcDbEntity
8
0
100
AcDbPolyline
90
4
70
1
43
0.0
10
-76.522310875915323
20
58.841525922798432
10
-75.71660325323974
20
59.217233557485926
10
-79.364227095860315
20
67.039588131401359
10
-80.169934718535899
20
66.663880496713887
0
CIRCLE
5
115
100
AcDbEntity
8
0
100
AcDbCircle
10
-29.541755064131678
20
162.94740000000004
30
0
40
1.2699999999999889
210
0
220
-0
230
1
0
LWPOLYLINE
5
116
100
AcDbEntity
8
0
100
AcDbPolyline
90
6
70
1
43
0.0
10
-68.443930379609469
20
49.601798492733558
10
-68.443930379609469
20
50.491684566333376
42
0.074792414457700365
10
-70.651051421305581
20
50.064402814172986
42
0.44255894713730332
10
-70.796420095931978
20
49.717643330176188
10
-70.634619711735496
20
49.370661286525781
42
0.38490568807080355
10
-70.320851925199577
20
49.238146388681507
42
-0.072056699529604876
0
LWPOLYLINE
5
117
100
AcDbEntity
8
0
100
AcDbPolyline
90
4
70
1
43
0.0
10
-47.810072275548521
20
103.73661900549254
10
-47.846245806900363
20
102.8483552633362
42
-0.19648304542743045
10
-40.198255659746977
20
99.352625491804787
10
-39.454412294541726
20
99.857987630748113
42
0.19953241035263389
0
LWPOLYLINE
5
118
100
AcDbEntity
8
0
100
AcDbPolyline
90
4
70
1
43
0.0
10
-55.348942783460245
20
68.241448187346975
10
-51.701318940839691
20
76.063802761262437
10
-52.507026563515282
20
76.439510395949924
10
-56.154650406135843
20
68.617155822034448
0
LWPOLYLINE
5
119
100
AcDbEntity
8
0
100
AcDbPolyline
90
4
70
1
43
0.0
10
-80.905566613935974
20
68.241448187346876
10
-80.099858991260376
20
68.617155822034348
10
-83.74748283388098
20
76.439510395949796
10
-84.553190456556564
20
76.063802761262309
0
LWPOLYLINE
5
120
100
AcDbEntity
8
0
100
AcDbPolyline
90
4
70
1
43
0.0
10
-96.800097102854693
20
99.857987630747914
10
-96.056253737649513
20
99.352625491804673
42
-0.19648304542742642
10
-88.408263590496077
20
102.8483552633361
10
-88.444437121847926
20
103.73661900549243
42
0.19953241035263014
0
LWPOLYLINE
5
121
100
AcDbEntity
8
0
100
AcDbPolyline
90
6
70
1
43
0.0
10
-77.617014505084569
20
97.839271164952038
10
-78.317302277986556
20
97.275098426722309
42
-0.23504061977188037
10
-77.731760848139174
20
87.391823060112273
10
-68.997581376454718
20
87.391823060112287
10
-68.997581376454718
20
88.280823060112283
10
-76.465442806442113
20
88.280823060112269
42
0.20933777516444899
0
LWPOLYLINE
5
122
100
AcDbEntity
8
0
100
AcDbPolyline
90
4
70
1
43
0.0
10
-99.739295585186142
20
89.466424416439096
10
-98.890477618713248
20
89.763412468774035
42
-0.19648304542742953
10
-97.14790784602485
20
97.989914186627161
10
-97.883252917819021
20
98.489502642646755
42
0.19953241035263292
0
LWPOLYLINE
5
123
100
AcDbEntity
8
0
100
AcDbPolyline
90
6
70
1
43
0.0
10
-77.452114813605689
20
78.881402384990139
10
-74.60964245466154
20
74.362600173335338
10
-75.848668867534627
20
70.062449681599318
10
-71.548518375798579
20
64.66904059026939
10
-74.026571201544783
20
69.770914055040947
10
-72.641776975392503
20
74.071064546776967
0
LWPOLYLINE
5
124
100
AcDbEntity
8
0
100
AcDbPolyline
90
6
70
1
43
0.0
10
-44.741511649657113
20
80.282753257042174
10
-45.004985968112038
20
81.131812903659977
42
-0.1246528681664955
10
-50.453405913687277
20
80.843514091607403
10
-51.771394668115214
20
78.017078086582913
10
-50.96568704543963
20
77.641370451895412
10
-49.933254815114417
20
79.855428514785004
42
0.10982228764292627
0
LWPOLYLINE
5
125
100
AcDbEntity
8
0
100
AcDbPolyline
90
4
70
1
43
0.0
10
-57.644290735074662
20
99.27437505812351
10
-56.952003639794938
20
98.716647904661201
42
-0.19648304542743045
10
-49.591039203016194
20
102.78212235261992
10
-49.554447618569377
20
103.68065165063135
42
0.199532410352634
0
LWPOLYLINE
5
126
100
AcDbEntity
8
0
100
AcDbPolyline
90
8
70
1
43
0.0
10
-116.53589999999855
20
37.412295875568681
10
-113.35689999999855
20
37.412295875568674
42
0.41421356237310031
10
-110.86889999999853
20
39.900295875568681
10
-110.86889999999855
20
56.924295875568689
42
0.41421356237310031
10
-113.35689999999855
20
59.412295875568688
10
-116.53589999999855
20
59.412295875568688
42
0.41421356237309503
10
-119.02389999999855
20
56.924295875568696
10
-119.02389999999855
20
39.900295875568681
42
0.41421356237310081
0
LWPOLYLINE
5
127
100
AcDbEntity
8
0
100
AcDbPolyline
90
6
70
1
43
0.0
10
-64.287903351167188
20
51.175338595159978
10
-56.873192911937622
20
52.482752099736899
10
-57.02756614188354
20
53.358246192164742
10
-62.760468077290327
20
52.347380903196729
10
-60.467830416880929
20
57.263958232165521
10
-61.273538039556513
20
57.639665866853001
0
LWPOLYLINE
5
128
100
AcDbEntity
8
0
100
AcDbPolyline
90
9
70
1
43
0.0
10
-79.678356788106356
20
48.131152477904067
10
-79.53568965491263
20
47.322046959165505
10
-70.881367686334528
20
48.848037421963831
10
-70.961626255003239
20
49.020152477904084
10
-79.684254698698084
20
49.020152477904062
10
-79.684254698698084
20
48.198565191522427
10
-79.69006288485852
20
48.197541051593362
10
-79.684254698698084
20
48.164601191016715
10
-79.684254698698098
20
48.131152477904067
0
LWPOLYLINE
5
129
100
AcDbEntity
8
0
100
AcDbPolyline
90
9
70
1
43
0.0
10
-64.878335634293137
20
49.909152477904087
10
-56.570254698698086
20
49.909152477904115
10
-56.570254698698093
20
50.730739764285758
10
-56.5644464520458
20
50.731763914881171
10
-56.570254698698093
20
50.764704118524179
10
-56.570254698698086
20
50.798152477904111
10
-56.576152546917207
20
50.798152477904111
10
-56.718819681991718
20
51.607258007309021
10
-64.746557684397331
20
50.191751203426222
0
LWPOLYLINE
5
130
100
AcDbEntity
8
0
100
AcDbPolyline
90
9
70
1
43
0.0
10
-65.373141711061649
20
48.848037421963838
10
-56.718819742483547
20
47.322046959165547
10
-56.576152609289835
20
48.131152477904109
10
-56.570254698698086
20
48.131152477904102
10
-56.570254698698079
20
48.164601191016764
10
-56.56444651253765
20
48.197541051593404
10
-56.570254698698086
20
48.198565191522469
10
-56.570254698698086
20
49.020152477904105
10
-65.292883142392938
20
49.020152477904091
0
LWPOLYLINE
5
131
100
AcDbEntity
8
0
100
AcDbPolyline
90
12
70
1
43
0.0
10
-57.027566227322851
20
45.571058632825569
10
-56.873192997376947
20
46.446552725253412
10
-65.762102938909919
20
48.013907377033362
10
-67.160405551487386
20
45.015237747394359
42
-0.63707026080749873
10
-69.094103845908776
20
45.015237747394352
10
-70.492406458486272
20
48.013907377033362
10
-79.381316400019216
20
46.446552725253355
10
-79.226943170073312
20
45.571058632825519
10
-71.009823473476402
20
47.019958539046527
10
-69.89981146858436
20
44.639530112706879
42
0.63707026080749718
10
-66.354697928811802
20
44.639530112706879
10
-65.244685923919775
20
47.019958539046549
0
LWPOLYLINE
5
132
100
AcDbEntity
8
0
100
AcDbPolyline
90
28
70
1
43
0.0
10
-130.44639999999998
20
67.71896000000001
42
-2.4142135623730949
10
-129.94639999999998
20
67.218960000000024
10
-129.94639999999998
20
34.359480000000048
42
-2.41421356237311
10
-130.44639999999998
20
33.859480000000005
10
-136.29639999999998
20
33.859480000000005
10
-136.29639999999998
20
6.3500000000000023
10
0
20
6.3499999999999979
10
0
20
33.859479999999998
10
-5.8500000000000014
20
33.859480000000005
42
-2.4142135623730949
10
-6.3499999999999996
20
34.359480000000005
10
-6.3499999999999996
20
67.218959999999996
42
-2.4142135623730718
10
-5.8500000000000005
20
67.71896000000001
10
0
20
67.71896000000001
10
0
20
101.57844000000003
10
-5.8499999999999872
20
101.57844000000003
42
-2.4142135623730767
10
-6.3499999999999996
20
102.07844000000003
10
-6.3499999999999996
20
134.93792000000002
42
-2.4142135623730674
10
-5.8499999999999996
20
135.43792000000002
10
0
20
135.43792000000002
10
0
20
169.29740000000004
10
-136.29639999999998
20
169.29740000000004
10
-136.29639999999998
20
135.43792000000002
10
-130.44639999999995
20
135.43792000000002
42
-2.4142135623730949
10
-129.94639999999998
20
134.93792000000002
10
-129.94639999999998
20
102.07844000000003
42
-2.4142135623730949
10
-130.44639999999998
20
101.57844000000003
10
-136.29639999999998
20
101.57844000000003
10
-136.29639999999998
20
67.71896000000001
0
ENDSEC
0
SECTION
2
OBJECTS
0
DICTIONARY
5
C
100
AcDbDictionary
3
ACAD_GROUP
350
D
3
ACAD_MLINESTYLE
350
17
0
DICTIONARY
5
D
100
AcDbDictionary
0
DICTIONARY
5
1A
330
C
100
AcDbDictionary
0
DICTIONARY
5
17
100
AcDbDictionary
0
ENDSEC
0
EOF
