0
SECTION
2
HEADER
9
$INSUNITS
70
4
9
$ACADVER
1
AC1014
9
$HANDSEED
5
FFFF
0
ENDSEC
0
SECTION
2
TABLES
0
TABLE
2
VPORT
5
8
100
AcDbSymbolTable
0
ENDTAB
0
TABLE
2
LTYPE
5
5
100
AcDbSymbolTable
0
LTYPE
5
14
100
AcDbSymbolTableRecord
100
AcDbLinetypeTableRecord
2
BYBLOCK
70
0
0
LTYPE
5
15
100
AcDbSymbolTableRecord
100
AcDbLinetypeTableRecord
2
BYLAYER
70
0
0
ENDTAB
0
TABLE
2
LAYER
5
2
100
AcDbSymbolTable
70
2
0
LAYER
5
50
100
AcDbSymbolTableRecord
100
AcDbLayerTableRecord
2
0
70
0
6
CONTINUOUS
0
ENDTAB
0
TABLE
2
STYLE
5
3
100
AcDbSymbolTable
70
1
0
STYLE
5
11
100
AcDbSymbolTableRecord
100
AcDbTextStyleTableRecord
2
STANDARD
70
0
0
ENDTAB
0
TABLE
2
VIEW
5
6
100
AcDbSymbolTable
70
0
0
ENDTAB
0
TABLE
2
UCS
5
7
100
AcDbSymbolTable
70
0
0
ENDTAB
0
TABLE
2
APPID
5
9
100
AcDbSymbolTable
70
2
0
APPID
5
12
100
AcDbSymbolTableRecord
100
AcDbRegAppTableRecord
2
ACAD
70
0
0
ENDTAB
0
TABLE
2
DIMSTYLE
5
A
100
AcDbSymbolTable
70
1
0
ENDTAB
0
TABLE
2
BLOCK_RECORD
5
1
100
AcDbSymbolTable
70
1
0
BLOCK_RECORD
5
1F
100
AcDbSymbolTableRecord
100
AcDbBlockTableRecord
2
*MODEL_SPACE
0
BLOCK_RECORD
5
1B
100
AcDbSymbolTableRecord
100
AcDbBlockTableRecord
2
*PAPER_SPACE
0
ENDTAB
0
ENDSEC
0
SECTION
2
BLOCKS
0
BLOCK
5
20
100
AcDbEntity
100
AcDbBlockBegin
2
*MODEL_SPACE
0
ENDBLK
5
21
100
AcDbEntity
100
AcDbBlockEnd
0
BLOCK
5
1C
100
AcDbEntity
100
AcDbBlockBegin
2
*PAPER_SPACE
0
ENDBLK
5
1D
100
AcDbEntity
100
AcDbBlockEnd
0
ENDSEC
0
SECTION
2
ENTITIES
0
LWPOLYLINE
5
100
100
AcDbEntity
8
0
100
AcDbPolyline
90
8
70
1
43
0.0
10
2.9249999999999794
20
-40.75558731463304
42
-2.4142135623730976
10
3.1749999999999821
20
-41.005587314633047
10
3.1749999999999812
20
-46.855587314632999
42
-2.4142135623730949
10
2.9249999999999776
20
-47.105587314633006
10
-2.9250000000000131
20
-47.105587314633041
42
-2.4142135623730949
10
-3.1750000000000167
20
-46.855587314633034
10
-3.1750000000000069
20
-41.005587314633047
42
-2.4142135623730918
10
-2.9250000000000025
20
-40.75558731463304
0
LWPOLYLINE
5
101
100
AcDbEntity
8
0
100
AcDbPolyline
90
8
70
1
43
0.0
10
-40.75558731463304
20
-2.9249999999999816
42
-2.4142135623730949
10
-41.005587314633047
20
-3.1749999999999852
10
-46.855587314632999
20
-3.1749999999999847
42
-2.4142135623730949
10
-47.105587314633006
20
-2.9249999999999812
10
-47.105587314633041
20
2.9250000000000096
42
-2.4142135623730949
10
-46.855587314633034
20
3.1750000000000131
10
-41.005587314633047
20
3.1750000000000038
42
-2.4142135623730949
10
-40.75558731463304
20
2.9250000000000003
0
LWPOLYLINE
5
102
100
AcDbEntity
8
0
100
AcDbPolyline
90
8
70
1
43
0.0
10
-2.9249999999999843
20
40.75558731463304
42
-2.4142135623730976
10
-3.1749999999999874
20
41.005587314633047
10
-3.1749999999999874
20
46.855587314632999
42
-2.4142135623730949
10
-2.9249999999999838
20
47.105587314633006
10
2.9250000000000069
20
47.105587314633041
42
-2.4142135623730949
10
3.1750000000000105
20
46.855587314633034
10
3.1750000000000016
20
41.005587314633047
42
-2.4142135623730918
10
2.9249999999999976
20
40.75558731463304
0
LWPOLYLINE
5
103
100
AcDbEntity
8
0
100
AcDbPolyline
90
8
70
1
43
0.0
10
46.855587314632999
20
3.1749999999999901
42
-2.4142135623730949
10
47.105587314633006
20
2.9249999999999865
10
47.105587314633041
20
-2.9250000000000043
42
-2.4142135623730949
10
46.855587314633034
20
-3.1750000000000078
10
41.005587314633047
20
-3.1749999999999989
42
-2.4142135623730949
10
40.75558731463304
20
-2.9249999999999954
10
40.75558731463304
20
2.9249999999999865
42
-2.4142135623730949
10
41.005587314633047
20
3.1749999999999901
0
LWPOLYLINE
5
104
100
AcDbEntity
8
0
100
AcDbPolyline
90
8
70
1
43
0.0
10
3.1750000000000345
20
71.040314018273406
10
3.1750000000000433
20
87.709687499998836
42
2.4142135623731251
10
2.6750000000000451
20
88.20968749999885
10
-2.6749999999999643
20
88.20968749999885
42
2.4142135623731251
10
-3.1749999999999545
20
87.709687499998836
10
-3.1749999999999634
20
71.040314018273406
42
2.4142135623731251
10
-2.6749999999999652
20
70.540314018273421
10
2.6750000000000353
20
70.540314018273406
42
2.4142135623730949
0
LWPOLYLINE
5
105
100
AcDbEntity
8
0
100
AcDbPolyline
90
8
70
1
43
0.0
10
52.478151810210186
20
47.98802374967557
10
64.26517883726946
20
59.77505077673483
42
2.4142135623730949
10
64.26517883726946
20
60.482157557921369
10
60.482157557921425
20
64.265178837269417
42
2.4142135623730949
10
59.775050776734879
20
64.265178837269417
10
47.988023749675612
20
52.478151810210143
42
2.4142135623730949
10
47.988023749675612
20
51.771045029023597
10
51.771045029023639
20
47.98802374967557
42
2.4142135623730949
0
LWPOLYLINE
5
106
100
AcDbEntity
8
0
100
AcDbPolyline
90
8
70
1
43
0.0
10
71.040314018273406
20
-3.1750000000000256
10
87.709687499998836
20
-3.1750000000000433
42
2.4142135623730949
10
88.20968749999885
20
-2.6750000000000451
10
88.20968749999885
20
2.6749999999999732
42
2.4142135623731251
10
87.709687499998836
20
3.1749999999999634
10
71.040314018273406
20
3.1749999999999678
42
2.4142135623730949
10
70.540314018273421
20
2.6749999999999696
10
70.540314018273421
20
-2.6750000000000309
42
2.41421356237311
0
LWPOLYLINE
5
107
100
AcDbEntity
8
0
100
AcDbPolyline
90
8
70
1
43
0.0
10
47.98802374967557
20
-52.478151810210186
10
59.77505077673483
20
-64.26517883726946
42
2.4142135623730949
10
60.482157557921369
20
-64.26517883726946
10
64.265178837269417
20
-60.482157557921425
42
2.4142135623730949
10
64.265178837269417
20
-59.775050776734879
10
52.478151810210143
20
-47.988023749675612
42
2.4142135623730949
10
51.771045029023597
20
-47.988023749675612
10
47.98802374967557
20
-51.771045029023639
42
2.4142135623730949
0
LWPOLYLINE
5
108
100
AcDbEntity
8
0
100
AcDbPolyline
90
8
70
1
43
0.0
10
-3.1750000000000211
20
-71.040314018273406
10
-3.1750000000000433
20
-87.709687499998836
42
2.4142135623730643
10
-2.6750000000000451
20
-88.20968749999885
10
2.6749999999999821
20
-88.20968749999885
42
2.4142135623731251
10
3.1749999999999723
20
-87.709687499998836
10
3.1749999999999723
20
-71.040314018273406
42
2.4142135623730949
10
2.6749999999999741
20
-70.540314018273421
10
-2.6750000000000265
20
-70.540314018273421
42
2.41421356237311
0
LWPOLYLINE
5
109
100
AcDbEntity
8
0
100
AcDbPolyline
90
8
70
1
43
0.0
10
-52.478151810210178
20
-47.988023749675577
10
-64.26517883726946
20
-59.775050776734837
42
2.4142135623730949
10
-64.26517883726946
20
-60.482157557921383
10
-60.482157557921418
20
-64.265178837269417
42
2.4142135623730949
10
-59.775050776734872
20
-64.265178837269417
10
-47.988023749675605
20
-52.47815181021015
42
2.4142135623730949
10
-47.988023749675605
20
-51.771045029023604
10
-51.771045029023632
20
-47.988023749675577
42
2.4142135623730949
0
LWPOLYLINE
5
110
100
AcDbEntity
8
0
100
AcDbPolyline
90
8
70
1
43
0.0
10
-71.040314018273406
20
3.1750000000000167
10
-87.709687499998836
20
3.1750000000000345
42
2.4142135623730643
10
-88.20968749999885
20
2.6750000000000362
10
-88.20968749999885
20
-2.6749999999999821
42
2.4142135623730949
10
-87.709687499998836
20
-3.1749999999999812
10
-71.040314018273406
20
-3.1749999999999812
42
2.4142135623730949
10
-70.540314018273421
20
-2.6749999999999829
10
-70.540314018273421
20
2.6750000000000176
42
2.4142135623730949
0
LWPOLYLINE
5
111
100
AcDbEntity
8
0
100
AcDbPolyline
90
8
70
1
43
0.0
10
-64.265178837269417
20
59.775050776734872
10
-52.47815181021015
20
47.988023749675605
42
2.4142135623730949
10
-51.771045029023604
20
47.988023749675605
10
-47.988023749675577
20
51.771045029023632
42
2.4142135623730949
10
-47.988023749675577
20
52.478151810210178
10
-59.775050776734837
20
64.26517883726946
42
2.4142135623730949
10
-60.482157557921383
20
64.26517883726946
10
-64.265178837269417
20
60.482157557921418
42
2.4142135623730949
0
CIRCLE
5
112
100
AcDbEntity
8
0
100
AcDbCircle
10
-80.463666119480024
20
-5.2982916100879907
30
0
40
0.49999999999999822
210
0
220
0
230
1
0
CIRCLE
5
113
100
AcDbEntity
8
0
100
AcDbCircle
10
-48.907305338898283
20
-56.40022119129231
30
0
40
0.49999999999999822
210
0
220
0
230
1
0
CIRCLE
5
114
100
AcDbEntity
8
0
100
AcDbCircle
10
-54.564159588390652
20
-62.057075440784679
30
0
40
0.49999999999999822
210
0
220
0
230
1
0
CIRCLE
5
115
100
AcDbEntity
8
0
100
AcDbCircle
10
5.2982916100879844
20
-74.463666119480024
30
0
40
0.50000000000000044
210
0
220
0
230
1
0
CIRCLE
5
116
100
AcDbEntity
8
0
100
AcDbCircle
10
5.2982916100879827
20
-82.463666119480024
30
0
40
0.50000000000000044
210
0
220
0
230
1
0
CIRCLE
5
117
100
AcDbEntity
8
0
100
AcDbCircle
10
86.463666119479996
20
5.2982916100880004
30
0
40
0.50000000000000711
210
0
220
0
230
1
0
CIRCLE
5
118
100
AcDbEntity
8
0
100
AcDbCircle
10
57.392586713136822
20
64.885502565530871
30
0
40
0.49999999999999822
210
0
220
0
230
1
0
CIRCLE
5
119
100
AcDbEntity
8
0
100
AcDbCircle
10
-5.2982916100880209
20
86.463666119480024
30
0
40
0.50000000000000044
210
0
220
0
230
1
0
CIRCLE
5
120
100
AcDbEntity
8
0
100
AcDbCircle
10
-63.471289003157771
20
55.978373150763758
30
0
40
0.49999999999999822
210
0
220
0
230
1
0
CIRCLE
5
121
100
AcDbEntity
8
0
100
AcDbCircle
10
0
20
0
30
0
40
3.1749999999999998
210
0
220
0
230
1
0
CIRCLE
5
122
100
AcDbEntity
8
0
100
AcDbCircle
10
-62.057075440784679
20
54.564159588390666
30
0
40
0.49999999999999822
210
0
220
0
230
1
0
CIRCLE
5
123
100
AcDbEntity
8
0
100
AcDbCircle
10
-5.2982916100880209
20
84.463666119480024
30
0
40
0.50000000000000211
210
0
220
0
230
1
0
CIRCLE
5
124
100
AcDbEntity
8
0
100
AcDbCircle
10
55.978373150763744
20
63.471289003157779
30
0
40
0.49999999999999822
210
0
220
0
230
1
0
CIRCLE
5
125
100
AcDbEntity
8
0
100
AcDbCircle
10
64.885502565530842
20
-57.392586713136851
30
0
40
0.49999999999999822
210
0
220
0
230
1
0
CIRCLE
5
126
100
AcDbEntity
8
0
100
AcDbCircle
10
5.2982916100879827
20
-80.463666119480024
30
0
40
0.49999999999999933
210
0
220
0
230
1
0
CIRCLE
5
127
100
AcDbEntity
8
0
100
AcDbCircle
10
5.2982916100879853
20
-72.463666119480024
30
0
40
0.49999999999999933
210
0
220
0
230
1
0
CIRCLE
5
128
100
AcDbEntity
8
0
100
AcDbCircle
10
-53.14994602601756
20
-60.642861878411587
30
0
40
0.49999999999999822
210
0
220
0
230
1
0
CIRCLE
5
129
100
AcDbEntity
8
0
100
AcDbCircle
10
-86.463666119479996
20
-5.2982916100879898
30
0
40
0.50000000000000711
210
0
220
0
230
1
0
CIRCLE
5
130
100
AcDbEntity
8
0
100
AcDbCircle
10
-78.463666119480024
20
-5.2982916100879907
30
0
40
0.49999999999999822
210
0
220
0
230
1
0
CIRCLE
5
131
100
AcDbEntity
8
0
100
AcDbCircle
10
-82.463666119480024
20
-5.2982916100879907
30
0
40
0.50000000000000711
210
0
220
0
230
1
0
CIRCLE
5
132
100
AcDbEntity
8
0
100
AcDbCircle
10
-50.321518901271375
20
-57.814434753665402
30
0
40
0.49999999999999822
210
0
220
0
230
1
0
CIRCLE
5
133
100
AcDbEntity
8
0
100
AcDbCircle
10
-55.978373150763744
20
-63.471289003157771
30
0
40
0.49999999999999822
210
0
220
0
230
1
0
CIRCLE
5
134
100
AcDbEntity
8
0
100
AcDbCircle
10
5.2982916100879844
20
-76.463666119480024
30
0
40
0.49999999999999933
210
0
220
0
230
1
0
CIRCLE
5
135
100
AcDbEntity
8
0
100
AcDbCircle
10
5.2982916100879818
20
-84.46366611948001
30
0
40
0.50000000000000155
210
0
220
0
230
1
0
CIRCLE
5
136
100
AcDbEntity
8
0
100
AcDbCircle
10
84.46366611948001
20
5.2982916100880004
30
0
40
0.50000000000000711
210
0
220
0
230
1
0
CIRCLE
5
137
100
AcDbEntity
8
0
100
AcDbCircle
10
-5.29829161008802
20
80.463666119480038
30
0
40
0.49999999999999878
210
0
220
0
230
1
0
CIRCLE
5
138
100
AcDbEntity
8
0
100
AcDbCircle
10
-59.228648316038502
20
51.735732463644482
30
0
40
0.49999999999999822
210
0
220
0
230
1
0
CIRCLE
5
139
100
AcDbEntity
8
0
100
AcDbCircle
10
-64.885502565530857
20
57.392586713136851
30
0
40
0.49999999999999822
210
0
220
0
230
1
0
CIRCLE
5
140
100
AcDbEntity
8
0
100
AcDbCircle
10
-60.642861878411587
20
53.149946026017574
30
0
40
0.49999999999999822
210
0
220
0
230
1
0
CIRCLE
5
141
100
AcDbEntity
8
0
100
AcDbCircle
10
-5.29829161008802
20
82.463666119480038
30
0
40
0.49999999999999989
210
0
220
0
230
1
0
CIRCLE
5
142
100
AcDbEntity
8
0
100
AcDbCircle
10
54.564159588390652
20
62.057075440784686
30
0
40
0.49999999999999822
210
0
220
0
230
1
0
CIRCLE
5
143
100
AcDbEntity
8
0
100
AcDbCircle
10
5.2982916100879818
20
-86.463666119479996
30
0
40
0.50000000000000044
210
0
220
0
230
1
0
CIRCLE
5
144
100
AcDbEntity
8
0
100
AcDbCircle
10
5.2982916100879827
20
-78.463666119480024
30
0
40
0.49999999999999711
210
0
220
0
230
1
0
CIRCLE
5
145
100
AcDbEntity
8
0
100
AcDbCircle
10
-57.392586713136822
20
-64.885502565530857
30
0
40
0.49999999999999822
210
0
220
0
230
1
0
CIRCLE
5
146
100
AcDbEntity
8
0
100
AcDbCircle
10
-51.735732463644474
20
-59.228648316038502
30
0
40
0.49999999999999822
210
0
220
0
230
1
0
CIRCLE
5
147
100
AcDbEntity
8
0
100
AcDbCircle
10
-84.46366611948001
20
-5.2982916100879907
30
0
40
0.50000000000000711
210
0
220
0
230
1
0
CIRCLE
5
148
100
AcDbEntity
8
0
100
AcDbCircle
10
-76.463666119480024
20
-5.2982916100879915
30
0
40
0.49999999999999822
210
0
220
0
230
1
0
CIRCLE
5
149
100
AcDbEntity
8
0
100
AcDbCircle
10
0
20
0
30
0
40
96.559687499999995
210
0
220
0
230
1
0
ENDSEC
0
SECTION
2
OBJECTS
0
DICTIONARY
5
C
100
AcDbDictionary
3
ACAD_GROUP
350
D
3
ACAD_MLINESTYLE
350
17
0
DICTIONARY
5
D
100
AcDbDictionary
0
DICTIONARY
5
1A
330
C
100
AcDbDictionary
0
DICTIONARY
5
17
100
AcDbDictionary
0
ENDSEC
0
EOF
