0
SECTION
2
HEADER
9
$INSUNITS
70
1
9
$ACADVER
1
AC1014
9
$HANDSEED
5
FFFF
0
ENDSEC
0
SECTION
2
TABLES
0
TABLE
2
VPORT
5
8
100
AcDbSymbolTable
0
ENDTAB
0
TABLE
2
LTYPE
5
5
100
AcDbSymbolTable
0
LTYPE
5
14
100
AcDbSymbolTableRecord
100
AcDbLinetypeTableRecord
2
BYBLOCK
70
0
0
LTYPE
5
15
100
AcDbSymbolTableRecord
100
AcDbLinetypeTableRecord
2
BYLAYER
70
0
0
ENDTAB
0
TABLE
2
LAYER
5
2
100
AcDbSymbolTable
70
2
0
LAYER
5
50
100
AcDbSymbolTableRecord
100
AcDbLayerTableRecord
2
0
70
0
6
CONTINUOUS
0
ENDTAB
0
TABLE
2
STYLE
5
3
100
AcDbSymbolTable
70
1
0
STYLE
5
11
100
AcDbSymbolTableRecord
100
AcDbTextStyleTableRecord
2
STANDARD
70
0
0
ENDTAB
0
TABLE
2
VIEW
5
6
100
AcDbSymbolTable
70
0
0
ENDTAB
0
TABLE
2
UCS
5
7
100
AcDbSymbolTable
70
0
0
ENDTAB
0
TABLE
2
APPID
5
9
100
AcDbSymbolTable
70
2
0
APPID
5
12
100
AcDbSymbolTableRecord
100
AcDbRegAppTableRecord
2
ACAD
70
0
0
ENDTAB
0
TABLE
2
DIMSTYLE
5
A
100
AcDbSymbolTable
70
1
0
ENDTAB
0
TABLE
2
BLOCK_RECORD
5
1
100
AcDbSymbolTable
70
1
0
BLOCK_RECORD
5
1F
100
AcDbSymbolTableRecord
100
AcDbBlockTableRecord
2
*MODEL_SPACE
0
BLOCK_RECORD
5
1B
100
AcDbSymbolTableRecord
100
AcDbBlockTableRecord
2
*PAPER_SPACE
0
ENDTAB
0
ENDSEC
0
SECTION
2
BLOCKS
0
BLOCK
5
20
100
AcDbEntity
100
AcDbBlockBegin
2
*MODEL_SPACE
0
ENDBLK
5
21
100
AcDbEntity
100
AcDbBlockEnd
0
BLOCK
5
1C
100
AcDbEntity
100
AcDbBlockBegin
2
*PAPER_SPACE
0
ENDBLK
5
1D
100
AcDbEntity
100
AcDbBlockEnd
0
ENDSEC
0
SECTION
2
ENTITIES
0
CIRCLE
5
100
100
AcDbEntity
8
0
100
AcDbCircle
10
0.44180974497577064
20
-0.44180974497577064
30
0
40
0.053503937007873974
210
0
220
0
230
1
0
CIRCLE
5
101
100
AcDbEntity
8
0
100
AcDbCircle
10
-0.44180974497577052
20
0.44180974497577069
30
0
40
0.053503937007873974
210
0
220
0
230
1
0
CIRCLE
5
102
100
AcDbEntity
8
0
100
AcDbCircle
10
0.44180974497577064
20
0.4418097449757708
30
0
40
0.053503937007873974
210
0
220
0
230
1
0
CIRCLE
5
103
100
AcDbEntity
8
0
100
AcDbCircle
10
-0.44180974497577069
20
-0.44180974497577052
30
0
40
0.053503937007873974
210
0
220
0
230
1
0
CIRCLE
5
104
100
AcDbEntity
8
0
100
AcDbCircle
10
-2.358599426877106e-16
20
1.0622187500000002
30
0
40
0.084749999999999992
210
0
220
0
230
1
0
CIRCLE
5
105
100
AcDbEntity
8
0
100
AcDbCircle
10
-2.358599426877106e-16
20
-1.06221875
30
0
40
0.084749999999999992
210
0
220
0
230
1
0
CIRCLE
5
106
100
AcDbEntity
8
0
100
AcDbCircle
10
1.06221875
20
0
30
0
40
0.084750000000000006
210
0
220
0
230
1
0
CIRCLE
5
107
100
AcDbEntity
8
0
100
AcDbCircle
10
-1.06221875
20
1.3008427921818025e-16
30
0
40
0.084750000000000006
210
0
220
0
230
1
0
CIRCLE
5
108
100
AcDbEntity
8
0
100
AcDbCircle
10
0
20
0
30
0
40
0.24999999999999994
210
0
220
0
230
1
0
LWPOLYLINE
5
109
100
AcDbEntity
8
0
100
AcDbPolyline
90
4
70
1
43
0.0
10
1.080563881851399
20
1.6829182768153828
10
0.93361756877828128
20
1.4806640282216454
10
1.1196914774845197
20
1.3454734201943772
10
1.2666377905576374
20
1.5477276687881143
0
LWPOLYLINE
5
110
100
AcDbEntity
8
0
100
AcDbPolyline
90
4
70
1
43
0.0
10
1.8633890878510881
20
0.72636997217568799
10
1.6256249587773004
20
0.64911572358195047
10
1.696698867483539
20
0.43037272483406541
10
1.9344629965573268
20
0.50762697342780283
0
LWPOLYLINE
5
111
100
AcDbEntity
8
0
100
AcDbPolyline
90
4
70
1
43
0.0
10
1.9344629965573261
20
-0.50762697342780394
10
1.6966988674835373
20
-0.43037272483406785
10
1.6256249587773
20
-0.64911572358195324
10
1.8633890878510888
20
-0.72636997217568944
0
LWPOLYLINE
5
112
100
AcDbEntity
8
0
100
AcDbPolyline
90
4
70
1
43
0.0
10
1.266637790557636
20
-1.5477276687881147
10
1.1196914774845173
20
-1.3454734201943781
10
0.93361756877827973
20
-1.4806640282216477
10
1.0805638818513983
20
-1.6829182768153839
0
LWPOLYLINE
5
113
100
AcDbEntity
8
0
100
AcDbPolyline
90
4
70
1
43
0.0
10
0.11499999999999945
20
-1.9966490000000052
10
0.11499999999999869
20
-1.7466490000000052
10
-0.11500000000000131
20
-1.7466490000000061
10
-0.11500000000000055
20
-1.9966490000000059
0
LWPOLYLINE
5
114
100
AcDbEntity
8
0
100
AcDbPolyline
90
4
70
1
43
0.0
10
-1.0805638818513987
20
-1.6829182768153828
10
-0.93361756877828117
20
-1.4806640282216454
10
-1.1196914774845195
20
-1.3454734201943772
10
-1.2666377905576371
20
-1.5477276687881143
0
LWPOLYLINE
5
115
100
AcDbEntity
8
0
100
AcDbPolyline
90
4
70
1
43
0.0
10
-1.8633890878510881
20
-0.72636997217568822
10
-1.6256249587773004
20
-0.6491157235819508
10
-1.696698867483539
20
-0.43037272483406558
10
-1.9344629965573268
20
-0.50762697342780305
0
LWPOLYLINE
5
116
100
AcDbEntity
8
0
100
AcDbPolyline
90
4
70
1
43
0.0
10
-1.9344629965573261
20
0.50762697342780383
10
-1.6966988674835377
20
0.43037272483406763
10
-1.6256249587773004
20
0.64911572358195324
10
-1.8633890878510888
20
0.72636997217568933
0
LWPOLYLINE
5
117
100
AcDbEntity
8
0
100
AcDbPolyline
90
4
70
1
43
0.0
10
-1.266637790557636
20
1.5477276687881143
10
-1.119691477484517
20
1.3454734201943779
10
-0.93361756877827973
20
1.4806640282216477
10
-1.0805638818513983
20
1.6829182768153839
0
LWPOLYLINE
5
118
100
AcDbEntity
8
0
100
AcDbPolyline
90
4
70
1
43
0.0
10
0.11500000000000031
20
1.9966490000000059
10
-0.1149999999999997
20
1.9966490000000052
10
-0.11499999999999891
20
1.7466490000000052
10
0.11500000000000109
20
1.7466490000000061
0
CIRCLE
5
119
100
AcDbEntity
8
0
100
AcDbCircle
10
0
20
0
30
0
40
2.0995501582665916
210
0
220
0
230
1
0
ENDSEC
0
SECTION
2
OBJECTS
0
DICTIONARY
5
C
100
AcDbDictionary
3
ACAD_GROUP
350
D
3
ACAD_MLINESTYLE
350
17
0
DICTIONARY
5
D
100
AcDbDictionary
0
DICTIONARY
5
1A
330
C
100
AcDbDictionary
0
DICTIONARY
5
17
100
AcDbDictionary
0
ENDSEC
0
EOF
