0
SECTION
2
HEADER
9
$INSUNITS
70
1
9
$ACADVER
1
AC1014
9
$HANDSEED
5
FFFF
0
ENDSEC
0
SECTION
2
TABLES
0
TABLE
2
VPORT
5
8
100
AcDbSymbolTable
0
ENDTAB
0
TABLE
2
LTYPE
5
5
100
AcDbSymbolTable
0
LTYPE
5
14
100
AcDbSymbolTableRecord
100
AcDbLinetypeTableRecord
2
BYBLOCK
70
0
0
LTYPE
5
15
100
AcDbSymbolTableRecord
100
AcDbLinetypeTableRecord
2
BYLAYER
70
0
0
ENDTAB
0
TABLE
2
LAYER
5
2
100
AcDbSymbolTable
70
2
0
LAYER
5
50
100
AcDbSymbolTableRecord
100
AcDbLayerTableRecord
2
0
70
0
6
CONTINUOUS
0
ENDTAB
0
TABLE
2
STYLE
5
3
100
AcDbSymbolTable
70
1
0
STYLE
5
11
100
AcDbSymbolTableRecord
100
AcDbTextStyleTableRecord
2
STANDARD
70
0
0
ENDTAB
0
TABLE
2
VIEW
5
6
100
AcDbSymbolTable
70
0
0
ENDTAB
0
TABLE
2
UCS
5
7
100
AcDbSymbolTable
70
0
0
ENDTAB
0
TABLE
2
APPID
5
9
100
AcDbSymbolTable
70
2
0
APPID
5
12
100
AcDbSymbolTableRecord
100
AcDbRegAppTableRecord
2
ACAD
70
0
0
ENDTAB
0
TABLE
2
DIMSTYLE
5
A
100
AcDbSymbolTable
70
1
0
ENDTAB
0
TABLE
2
BLOCK_RECORD
5
1
100
AcDbSymbolTable
70
1
0
BLOCK_RECORD
5
1F
100
AcDbSymbolTableRecord
100
AcDbBlockTableRecord
2
*MODEL_SPACE
0
BLOCK_RECORD
5
1B
100
AcDbSymbolTableRecord
100
AcDbBlockTableRecord
2
*PAPER_SPACE
0
ENDTAB
0
ENDSEC
0
SECTION
2
BLOCKS
0
BLOCK
5
20
100
AcDbEntity
100
AcDbBlockBegin
2
*MODEL_SPACE
0
ENDBLK
5
21
100
AcDbEntity
100
AcDbBlockEnd
0
BLOCK
5
1C
100
AcDbEntity
100
AcDbBlockBegin
2
*PAPER_SPACE
0
ENDBLK
5
1D
100
AcDbEntity
100
AcDbBlockEnd
0
ENDSEC
0
SECTION
2
ENTITIES
0
LWPOLYLINE
5
100
100
AcDbEntity
8
0
100
AcDbPolyline
90
10
70
1
43
0.0
10
-1.2340846194774309
20
-1.6985717585802838
10
-1.9967908593079635
20
-0.64879667944698738
10
-1.9967908593079635
20
0.64879667944698771
10
-1.2340846194774309
20
1.6985717585802838
10
0
20
2.0995501582665921
10
1.2340846194774306
20
1.6985717585802838
10
1.9967908593079635
20
0.6487966794469876
10
1.9967908593079635
20
-0.64879667944698738
10
1.2340846194774306
20
-1.6985717585802833
10
0
20
-2.0995501582665916
0
LWPOLYLINE
5
101
100
AcDbEntity
8
0
100
AcDbPolyline
90
6
70
1
43
0.0
10
0.46967358231625178
20
-1.5303337540960733
10
1.5303337540960733
20
-0.46967358231625206
10
1.3238585739896016
20
-0.26319840220978008
42
0.41421356237309515
10
0.97030518339632765
20
-0.26319840220977997
10
0.26319840220977991
20
-0.97030518339632765
42
0.41421356237309531
10
0.26319840220977986
20
-1.3238585739896016
0
LWPOLYLINE
5
102
100
AcDbEntity
8
0
100
AcDbPolyline
90
6
70
1
43
0.0
10
-1.5303337540960733
20
0.46967358231625234
10
-1.3238585739896016
20
0.26319840220978036
42
0.41421356237309503
10
-0.97030518339632799
20
0.26319840220978008
10
-0.26319840220977975
20
0.97030518339632799
42
0.41421356237309509
10
-0.26319840220977958
20
1.3238585739896018
10
-0.46967358231625145
20
1.5303337540960733
0
LWPOLYLINE
5
103
100
AcDbEntity
8
0
100
AcDbPolyline
90
6
70
1
43
0.0
10
0.46967358231625178
20
1.530333754096074
10
0.26319840220977953
20
1.3238585739896016
42
0.4142135623730947
10
0.26319840220977991
20
0.97030518339632799
10
0.97030518339632799
20
0.26319840220978019
42
0.41421356237309509
10
1.3238585739896018
20
0.26319840220978019
10
1.5303337540960735
20
0.46967358231625217
0
LWPOLYLINE
5
104
100
AcDbEntity
8
0
100
AcDbPolyline
90
6
70
1
43
0.0
10
-0.46967358231625239
20
-1.5303337540960733
10
-0.26319840220978036
20
-1.3238585739896014
42
0.41421356237309498
10
-0.26319840220978008
20
-0.97030518339632776
10
-0.97030518339632776
20
-0.26319840220977947
42
0.41421356237309515
10
-1.3238585739896016
20
-0.26319840220977958
10
-1.5303337540960735
20
-0.46967358231625145
0
CIRCLE
5
105
100
AcDbEntity
8
0
100
AcDbCircle
10
0.44180974497577064
20
-0.44180974497577064
30
0
40
0.053503937007873974
210
0
220
0
230
1
0
CIRCLE
5
106
100
AcDbEntity
8
0
100
AcDbCircle
10
-0.44180974497577052
20
0.44180974497577069
30
0
40
0.053503937007873974
210
0
220
0
230
1
0
CIRCLE
5
107
100
AcDbEntity
8
0
100
AcDbCircle
10
0.44180974497577064
20
0.4418097449757708
30
0
40
0.053503937007873974
210
0
220
0
230
1
0
CIRCLE
5
108
100
AcDbEntity
8
0
100
AcDbCircle
10
-0.44180974497577069
20
-0.44180974497577052
30
0
40
0.053503937007873974
210
0
220
0
230
1
0
CIRCLE
5
109
100
AcDbEntity
8
0
100
AcDbCircle
10
-2.358599426877106e-16
20
1.0622187500000002
30
0
40
0.084749999999999992
210
0
220
0
230
1
0
CIRCLE
5
110
100
AcDbEntity
8
0
100
AcDbCircle
10
-2.358599426877106e-16
20
-1.06221875
30
0
40
0.084749999999999992
210
0
220
0
230
1
0
CIRCLE
5
111
100
AcDbEntity
8
0
100
AcDbCircle
10
1.06221875
20
0
30
0
40
0.084750000000000006
210
0
220
0
230
1
0
CIRCLE
5
112
100
AcDbEntity
8
0
100
AcDbCircle
10
-1.06221875
20
1.3008427921818025e-16
30
0
40
0.084750000000000006
210
0
220
0
230
1
0
CIRCLE
5
113
100
AcDbEntity
8
0
100
AcDbCircle
10
0
20
0
30
0
40
0.24999999999999994
210
0
220
0
230
1
0
LWPOLYLINE
5
114
100
AcDbEntity
8
0
100
AcDbPolyline
90
4
70
1
43
0.0
10
1.0846089668232759
20
1.6799793505539227
10
0.937662653750158
20
1.4777251019601856
10
1.115646392512647
20
1.348412346455842
10
1.2625927055857644
20
1.550666595049579
0
LWPOLYLINE
5
115
100
AcDbEntity
8
0
100
AcDbPolyline
90
4
70
1
43
0.0
10
1.8649341728229663
20
0.72161468959421293
10
1.6271700437491778
20
0.6443604410004754
10
1.6951537825116672
20
0.43512800741554192
10
1.9329179115854551
20
0.51238225600927934
0
LWPOLYLINE
5
116
100
AcDbEntity
8
0
100
AcDbPolyline
90
4
70
1
43
0.0
10
1.9329179115854538
20
-0.51238225600928089
10
1.6951537825116658
20
-0.43512800741554469
10
1.6271700437491778
20
-0.64436044100047873
10
1.8649341728229663
20
-0.72161468959421482
0
LWPOLYLINE
5
117
100
AcDbEntity
8
0
100
AcDbPolyline
90
4
70
1
43
0.0
10
1.2625927055857629
20
-1.5506665950495797
10
1.1156463925126441
20
-1.3484123464558433
10
0.93766265375015589
20
-1.477725101960188
10
1.084608966823275
20
-1.6799793505539244
0
LWPOLYLINE
5
118
100
AcDbEntity
8
0
100
AcDbPolyline
90
4
70
1
43
0.0
10
0.10999999999999924
20
-1.9966490000000083
10
0.10999999999999847
20
-1.7466490000000086
10
-0.11000000000000149
20
-1.7466490000000092
10
-0.11000000000000072
20
-1.996649000000009
0
LWPOLYLINE
5
119
100
AcDbEntity
8
0
100
AcDbPolyline
90
4
70
1
43
0.0
10
-1.0846089668232757
20
-1.6799793505539227
10
-0.93766265375015789
20
-1.4777251019601856
10
-1.1156463925126465
20
-1.348412346455842
10
-1.2625927055857644
20
-1.550666595049579
0
LWPOLYLINE
5
120
100
AcDbEntity
8
0
100
AcDbPolyline
90
4
70
1
43
0.0
10
-1.8649341728229663
20
-0.72161468959421315
10
-1.6271700437491778
20
-0.64436044100047574
10
-1.6951537825116672
20
-0.43512800741554208
10
-1.9329179115854551
20
-0.51238225600927978
0
LWPOLYLINE
5
121
100
AcDbEntity
8
0
100
AcDbPolyline
90
4
70
1
43
0.0
10
-1.9329179115854542
20
0.51238225600928078
10
-1.6951537825116658
20
0.43512800741554464
10
-1.6271700437491778
20
0.64436044100047862
10
-1.8649341728229667
20
0.72161468959421471
0
LWPOLYLINE
5
122
100
AcDbEntity
8
0
100
AcDbPolyline
90
4
70
1
43
0.0
10
-1.2625927055857629
20
1.5506665950495795
10
-1.1156463925126441
20
1.3484123464558431
10
-0.93766265375015589
20
1.4777251019601878
10
-1.084608966823275
20
1.679979350553924
0
LWPOLYLINE
5
123
100
AcDbEntity
8
0
100
AcDbPolyline
90
4
70
1
43
0.0
10
0.11000000000000049
20
1.996649000000009
10
-0.10999999999999949
20
1.9966490000000083
10
-0.1099999999999987
20
1.7466490000000086
10
0.11000000000000128
20
1.7466490000000092
0
ENDSEC
0
SECTION
2
OBJECTS
0
DICTIONARY
5
C
100
AcDbDictionary
3
ACAD_GROUP
350
D
3
ACAD_MLINESTYLE
350
17
0
DICTIONARY
5
D
100
AcDbDictionary
0
DICTIONARY
5
1A
330
C
100
AcDbDictionary
0
DICTIONARY
5
17
100
AcDbDictionary
0
ENDSEC
0
EOF
