0
SECTION
2
HEADER
9
$INSUNITS
70
4
9
$ACADVER
1
AC1014
9
$HANDSEED
5
FFFF
0
ENDSEC
0
SECTION
2
TABLES
0
TABLE
2
VPORT
5
8
100
AcDbSymbolTable
0
ENDTAB
0
TABLE
2
LTYPE
5
5
100
AcDbSymbolTable
0
LTYPE
5
14
100
AcDbSymbolTableRecord
100
AcDbLinetypeTableRecord
2
BYBLOCK
70
0
0
LTYPE
5
15
100
AcDbSymbolTableRecord
100
AcDbLinetypeTableRecord
2
BYLAYER
70
0
0
ENDTAB
0
TABLE
2
LAYER
5
2
100
AcDbSymbolTable
70
2
0
LAYER
5
50
100
AcDbSymbolTableRecord
100
AcDbLayerTableRecord
2
0
70
0
6
CONTINUOUS
0
ENDTAB
0
TABLE
2
STYLE
5
3
100
AcDbSymbolTable
70
1
0
STYLE
5
11
100
AcDbSymbolTableRecord
100
AcDbTextStyleTableRecord
2
STANDARD
70
0
0
ENDTAB
0
TABLE
2
VIEW
5
6
100
AcDbSymbolTable
70
0
0
ENDTAB
0
TABLE
2
UCS
5
7
100
AcDbSymbolTable
70
0
0
ENDTAB
0
TABLE
2
APPID
5
9
100
AcDbSymbolTable
70
2
0
APPID
5
12
100
AcDbSymbolTableRecord
100
AcDbRegAppTableRecord
2
ACAD
70
0
0
ENDTAB
0
TABLE
2
DIMSTYLE
5
A
100
AcDbSymbolTable
70
1
0
ENDTAB
0
TABLE
2
BLOCK_RECORD
5
1
100
AcDbSymbolTable
70
1
0
BLOCK_RECORD
5
1F
100
AcDbSymbolTableRecord
100
AcDbBlockTableRecord
2
*MODEL_SPACE
0
BLOCK_RECORD
5
1B
100
AcDbSymbolTableRecord
100
AcDbBlockTableRecord
2
*PAPER_SPACE
0
ENDTAB
0
ENDSEC
0
SECTION
2
BLOCKS
0
BLOCK
5
20
100
AcDbEntity
100
AcDbBlockBegin
2
*MODEL_SPACE
0
ENDBLK
5
21
100
AcDbEntity
100
AcDbBlockEnd
0
BLOCK
5
1C
100
AcDbEntity
100
AcDbBlockBegin
2
*PAPER_SPACE
0
ENDBLK
5
1D
100
AcDbEntity
100
AcDbBlockEnd
0
ENDSEC
0
SECTION
2
ENTITIES
0
CIRCLE
5
100
100
AcDbEntity
8
0
100
AcDbCircle
10
225.93298474121099
20
-13.210395551652161
30
0
40
1.8288000000000082
210
0
220
0
230
1
0
CIRCLE
5
101
100
AcDbEntity
8
0
100
AcDbCircle
10
-48.133035203246983
20
-13.210384480188377
30
0
40
1.8287999999999993
210
0
220
0
230
1
0
LINE
5
102
100
AcDbEntity
8
0
100
AcDbLine
10
-32.512035258796395
20
-0.51039138431233722
30
0
11
-57.912035147704941
21
-0.5103655989601783
31
0
0
LINE
5
103
100
AcDbEntity
8
0
100
AcDbLine
10
-57.912035147704941
20
-0.5103655989601783
30
0
11
-57.912035147704941
21
-25.910394111165147
31
0
0
LINE
5
104
100
AcDbEntity
8
0
100
AcDbLine
10
-57.912035147704941
20
-25.910394111165147
30
0
11
-3.0517578029076731e-05
21
-25.910394111165147
31
0
0
LINE
5
105
100
AcDbEntity
8
0
100
AcDbLine
10
-3.0517578029076731e-05
20
-25.910394111165147
30
0
11
-3.0517578013391175e-05
21
-19.560424111165233
31
0
0
LINE
5
106
100
AcDbEntity
8
0
100
AcDbLine
10
-3.0517578013391175e-05
20
-19.560424111165233
30
0
11
5.5879668999999863
21
-19.560424111165233
31
0
0
LINE
5
107
100
AcDbEntity
8
0
100
AcDbLine
10
5.5879668999999863
20
-19.560424111165233
30
0
11
5.5879668999999863
21
-17.635434111165182
31
0
0
ARC
5
108
100
AcDbEntity
8
0
100
AcDbCircle
10
6.837966899999989
20
-17.635434111165182
30
0
40
1.2500000000000022
210
0
220
-0
230
1
100
AcDbArc
50
90
51
180
0
LINE
5
109
100
AcDbEntity
8
0
100
AcDbLine
10
6.837966899999989
20
-16.385434111165182
30
0
11
50.737449999999988
21
-16.385434111165182
31
0
0
SPLINE
5
110
100
AcDbEntity
8
0
100
AcDbSpline
70
4
71
3
72
8
73
4
74
0
42
0.000000001
43
0.0000000001
44
0.0000000001
40
-1
40
-1
40
-1
40
-1
40
0
40
0
40
0
40
0
41
1
41
0.78146932697811966
41
0.78146932697811966
41
1
10
50.737449999999988
20
-16.385434111165182
30
0
10
51.454266351861328
20
-16.385434111165182
30
0
10
51.987449999999995
20
-16.918617759303853
30
0
10
51.987449999999988
20
-17.635434111165182
30
0
0
LINE
5
111
100
AcDbEntity
8
0
100
AcDbLine
10
51.987449999999988
20
-17.635434111165182
30
0
11
51.987449999999988
21
-20.260194111165106
31
0
0
LINE
5
112
100
AcDbEntity
8
0
100
AcDbLine
10
51.987449999999988
20
-20.260194111165106
30
0
11
57.575454999999991
21
-20.260194111165106
31
0
0
LINE
5
113
100
AcDbEntity
8
0
100
AcDbLine
10
57.575454999999991
20
-20.260194111165106
30
0
11
57.575454999999991
21
-17.635434111165182
31
0
0
SPLINE
5
114
100
AcDbEntity
8
0
100
AcDbSpline
70
4
71
3
72
8
73
4
74
0
42
0.000000001
43
0.0000000001
44
0.0000000001
40
-1
40
-1
40
-1
40
-1
40
0
40
0
40
0
40
0
41
1
41
0.78146932697811966
41
0.78146932697811966
41
1
10
57.575454999999991
20
-17.635434111165182
30
0
10
57.575454999999991
20
-16.918617759303853
30
0
10
58.108638648138673
20
-16.385434111165182
30
0
10
58.825454999999991
20
-16.385434111165182
30
0
0
LINE
5
115
100
AcDbEntity
8
0
100
AcDbLine
10
58.825454999999984
20
-16.385434111165178
30
0
11
118.97446999999998
21
-16.385434111165182
31
0
0
SPLINE
5
116
100
AcDbEntity
8
0
100
AcDbSpline
70
4
71
3
72
8
73
4
74
0
42
0.000000001
43
0.0000000001
44
0.0000000001
40
0
40
0
40
0
40
0
40
1
40
1
40
1
40
1
41
1
41
0.78146932697811966
41
0.78146932697811966
41
1
10
118.97446999999998
20
-16.385434111165182
30
0
10
119.69128635186135
20
-16.385434111165182
30
0
10
120.22447
20
-16.918617759303853
30
0
10
120.22446999999998
20
-17.635434111165182
30
0
0
LINE
5
117
100
AcDbEntity
8
0
100
AcDbLine
10
120.22446999999998
20
-17.635434111165182
30
0
11
120.22446999999998
21
-20.260194111165106
31
0
0
LINE
5
118
100
AcDbEntity
8
0
100
AcDbLine
10
120.22446999999998
20
-20.260194111165106
30
0
11
125.81246999999998
21
-20.260194111165106
31
0
0
LINE
5
119
100
AcDbEntity
8
0
100
AcDbLine
10
125.81246999999998
20
-20.260194111165106
30
0
11
125.81246999999998
21
-17.635434084576143
31
0
0
SPLINE
5
120
100
AcDbEntity
8
0
100
AcDbSpline
70
4
71
3
72
8
73
4
74
0
42
0.000000001
43
0.0000000001
44
0.0000000001
40
-1
40
-1
40
-1
40
-1
40
0
40
0
40
0
40
0
41
1
41
0.78146902907804705
41
0.78146902907804705
41
1
10
125.81246999999998
20
-17.635434084576147
30
0
10
125.81246999999999
20
-16.918616982954475
30
0
10
126.34565456026272
20
-16.385433131563886
30
0
10
127.06247166188375
20
-16.385434084577252
30
0
0
LINE
5
121
100
AcDbEntity
8
0
100
AcDbLine
10
127.06247166188378
20
-16.385434084577252
30
0
11
170.96198166188375
21
-16.385492449283547
31
0
0
ARC
5
122
100
AcDbEntity
8
0
100
AcDbCircle
10
170.96197999999998
20
-17.635492449282481
30
0
40
1.2500000000000355
210
0
220
-0
230
1
100
AcDbArc
50
0
51
89.999923824859067
0
LINE
5
123
100
AcDbEntity
8
0
100
AcDbLine
10
172.21198000000001
20
-17.635492449282442
30
0
11
172.21198000000001
21
-19.560484111165223
31
0
0
LINE
5
124
100
AcDbEntity
8
0
100
AcDbLine
10
172.21198000000001
20
-19.560484111165223
30
0
11
190.49997999999999
21
-19.560484111165223
31
0
0
LINE
5
125
100
AcDbEntity
8
0
100
AcDbLine
10
190.49997999999999
20
-19.560484111165223
30
0
11
190.49997999999999
21
-25.910394111165147
31
0
0
LINE
5
126
100
AcDbEntity
8
0
100
AcDbLine
10
190.49997999999999
20
-25.910394111165147
30
0
11
235.71198474121098
21
-25.910394111165147
31
0
0
LINE
5
127
100
AcDbEntity
8
0
100
AcDbLine
10
235.71198474121098
20
-25.910394111165147
30
0
11
235.71198474121098
21
-0.51040988481530825
31
0
0
LINE
5
128
100
AcDbEntity
8
0
100
AcDbLine
10
235.71198474121098
20
-0.51040988481530825
30
0
11
216.15398474120497
21
-0.51039003009406092
31
0
0
LINE
5
129
100
AcDbEntity
8
0
100
AcDbLine
10
216.15398474120497
20
-0.51039003009406092
30
0
11
190.49997999999999
21
-0.51036398688345475
31
0
0
LINE
5
130
100
AcDbEntity
8
0
100
AcDbLine
10
190.49997999999999
20
-0.51036398688345475
30
0
11
190.49997999999999
21
-6.8603343895679814
31
0
0
LINE
5
131
100
AcDbEntity
8
0
100
AcDbLine
10
190.49997999999999
20
-6.8603343895679814
30
0
11
172.21198000000001
21
-6.8603343895679814
31
0
0
LINE
5
132
100
AcDbEntity
8
0
100
AcDbLine
10
172.21198000000001
20
-6.8603343895679814
30
0
11
172.21198000000001
21
-8.7853260514507614
31
0
0
ARC
5
133
100
AcDbEntity
8
0
100
AcDbCircle
10
170.96197999999998
20
-8.7853260514507241
30
0
40
1.2500000000000366
210
0
220
0
230
1
100
AcDbArc
50
270.00007617514092
51
360
0
LINE
5
134
100
AcDbEntity
8
0
100
AcDbLine
10
170.96198166188375
20
-10.035326051449655
30
0
11
127.06247166188376
21
-10.035384416155953
31
0
0
SPLINE
5
135
100
AcDbEntity
8
0
100
AcDbSpline
70
4
71
3
72
8
73
4
74
0
42
0.000000001
43
0.0000000001
44
0.0000000001
40
0
40
0
40
0
40
0
40
1
40
1
40
1
40
1
41
1
41
0.78146902907804705
41
0.78146902907804705
41
1
10
127.06247166188376
20
-10.035384416155953
30
0
10
126.34565456026272
20
-10.035385369169319
30
0
10
125.81246999999998
20
-9.5022015177787278
30
0
10
125.81246999999999
20
-8.7853844161570578
30
0
0
LINE
5
136
100
AcDbEntity
8
0
100
AcDbLine
10
125.81246999999999
20
-8.785384416157056
30
0
11
125.81246999999999
21
-6.160624389568099
31
0
0
LINE
5
137
100
AcDbEntity
8
0
100
AcDbLine
10
125.81246999999999
20
-6.160624389568099
30
0
11
120.22447
21
-6.160624389568099
31
0
0
LINE
5
138
100
AcDbEntity
8
0
100
AcDbLine
10
120.22447
20
-6.160624389568099
30
0
11
120.22447
21
-8.7853843895680228
31
0
0
SPLINE
5
139
100
AcDbEntity
8
0
100
AcDbSpline
70
4
71
3
72
8
73
4
74
0
42
0.000000001
43
0.0000000001
44
0.0000000001
40
-1
40
-1
40
-1
40
-1
40
0
40
0
40
0
40
0
41
1
41
0.78146932697811966
41
0.78146932697811966
41
1
10
120.22447
20
-8.7853843895680228
30
0
10
120.22447
20
-9.5022007414293519
30
0
10
119.69128635186135
20
-10.035384389568025
30
0
10
118.97447
20
-10.035384389568023
30
0
0
LINE
5
140
100
AcDbEntity
8
0
100
AcDbLine
10
118.97446999999998
20
-10.035384389568023
30
0
11
58.825455000000005
21
-10.035384389568023
31
0
0
SPLINE
5
141
100
AcDbEntity
8
0
100
AcDbSpline
70
4
71
3
72
8
73
4
74
0
42
0.000000001
43
0.0000000001
44
0.0000000001
40
0
40
0
40
0
40
0
40
1
40
1
40
1
40
1
41
1
41
0.78146932697811966
41
0.78146932697811966
41
1
10
58.825455000000005
20
-10.035384389568023
30
0
10
58.108638648138687
20
-10.035384389568025
30
0
10
57.575455000000019
20
-9.5022007414293519
30
0
10
57.575455000000005
20
-8.7853843895680228
30
0
0
LINE
5
142
100
AcDbEntity
8
0
100
AcDbLine
10
57.575455000000005
20
-8.7853843895680228
30
0
11
57.575455000000005
21
-6.160624389568099
31
0
0
LINE
5
143
100
AcDbEntity
8
0
100
AcDbLine
10
57.575455000000005
20
-6.160624389568099
30
0
11
51.98745000000001
21
-6.160624389568099
31
0
0
LINE
5
144
100
AcDbEntity
8
0
100
AcDbLine
10
51.98745000000001
20
-6.160624389568099
30
0
11
51.98745000000001
21
-8.7853843895680228
31
0
0
SPLINE
5
145
100
AcDbEntity
8
0
100
AcDbSpline
70
4
71
3
72
8
73
4
74
0
42
0.000000001
43
0.0000000001
44
0.0000000001
40
0
40
0
40
0
40
0
40
1
40
1
40
1
40
1
41
1
41
0.78146932697811966
41
0.78146932697811966
41
1
10
51.98745000000001
20
-8.7853843895680228
30
0
10
51.98745000000001
20
-9.5022007414293519
30
0
10
51.454266351861335
20
-10.035384389568025
30
0
10
50.73745000000001
20
-10.035384389568023
30
0
0
LINE
5
146
100
AcDbEntity
8
0
100
AcDbLine
10
50.73745000000001
20
-10.035384389568023
30
0
11
6.8379669000000032
21
-10.035384389568023
31
0
0
ARC
5
147
100
AcDbEntity
8
0
100
AcDbCircle
10
6.8379669000000014
20
-8.7853843895680246
30
0
40
1.2499999999999978
210
0
220
0
230
1
100
AcDbArc
50
180
51
270.00000000000011
0
LINE
5
148
100
AcDbEntity
8
0
100
AcDbLine
10
5.5879669000000032
20
-8.7853843895680228
30
0
11
5.5879669000000014
21
-6.860394389567972
31
0
0
LINE
5
149
100
AcDbEntity
8
0
100
AcDbLine
10
5.5879669000000014
20
-6.860394389567972
30
0
11
-3.0517577999100709e-05
21
-6.860394389567972
31
0
0
LINE
5
150
100
AcDbEntity
8
0
100
AcDbLine
10
-3.0517577999100709e-05
20
-6.860394389567972
30
0
11
-3.0517578011313162e-05
21
-0.51042438956805825
31
0
0
LINE
5
151
100
AcDbEntity
8
0
100
AcDbLine
10
-3.0517578011313162e-05
20
-0.51042438956805825
30
0
11
-32.512035258796395
21
-0.51039138431233722
31
0
0
LWPOLYLINE
5
152
100
AcDbEntity
8
0
100
AcDbPolyline
90
4
70
1
43
0.0
10
210.31198474121098
20
-8.977054105314096
10
216.15398474121099
20
-8.977054105314096
10
216.15398474121099
20
-17.443724105314097
10
210.31198474121098
20
-17.443724105314097
0
LWPOLYLINE
5
153
100
AcDbEntity
8
0
100
AcDbPolyline
90
4
70
1
43
0.0
10
-38.354035258789018
20
-8.977054105314096
10
-32.512035258788991
20
-8.977054105314096
10
-32.512035258788991
20
-17.443724105314097
10
-38.354035258789018
20
-17.443724105314097
0
ENDSEC
0
SECTION
2
OBJECTS
0
DICTIONARY
5
C
100
AcDbDictionary
3
ACAD_GROUP
350
D
3
ACAD_MLINESTYLE
350
17
0
DICTIONARY
5
D
100
AcDbDictionary
0
DICTIONARY
5
1A
330
C
100
AcDbDictionary
0
DICTIONARY
5
17
100
AcDbDictionary
0
ENDSEC
0
EOF
