0
SECTION
2
HEADER
9
$INSUNITS
70
4
9
$ACADVER
1
AC1014
9
$HANDSEED
5
FFFF
0
ENDSEC
0
SECTION
2
TABLES
0
TABLE
2
VPORT
5
8
100
AcDbSymbolTable
0
ENDTAB
0
TABLE
2
LTYPE
5
5
100
AcDbSymbolTable
0
LTYPE
5
14
100
AcDbSymbolTableRecord
100
AcDbLinetypeTableRecord
2
BYBLOCK
70
0
0
LTYPE
5
15
100
AcDbSymbolTableRecord
100
AcDbLinetypeTableRecord
2
BYLAYER
70
0
0
ENDTAB
0
TABLE
2
LAYER
5
2
100
AcDbSymbolTable
70
2
0
LAYER
5
50
100
AcDbSymbolTableRecord
100
AcDbLayerTableRecord
2
0
70
0
6
CONTINUOUS
0
ENDTAB
0
TABLE
2
STYLE
5
3
100
AcDbSymbolTable
70
1
0
STYLE
5
11
100
AcDbSymbolTableRecord
100
AcDbTextStyleTableRecord
2
STANDARD
70
0
0
ENDTAB
0
TABLE
2
VIEW
5
6
100
AcDbSymbolTable
70
0
0
ENDTAB
0
TABLE
2
UCS
5
7
100
AcDbSymbolTable
70
0
0
ENDTAB
0
TABLE
2
APPID
5
9
100
AcDbSymbolTable
70
2
0
APPID
5
12
100
AcDbSymbolTableRecord
100
AcDbRegAppTableRecord
2
ACAD
70
0
0
ENDTAB
0
TABLE
2
DIMSTYLE
5
A
100
AcDbSymbolTable
70
1
0
ENDTAB
0
TABLE
2
BLOCK_RECORD
5
1
100
AcDbSymbolTable
70
1
0
BLOCK_RECORD
5
1F
100
AcDbSymbolTableRecord
100
AcDbBlockTableRecord
2
*MODEL_SPACE
0
BLOCK_RECORD
5
1B
100
AcDbSymbolTableRecord
100
AcDbBlockTableRecord
2
*PAPER_SPACE
0
ENDTAB
0
ENDSEC
0
SECTION
2
BLOCKS
0
BLOCK
5
20
100
AcDbEntity
100
AcDbBlockBegin
2
*MODEL_SPACE
0
ENDBLK
5
21
100
AcDbEntity
100
AcDbBlockEnd
0
BLOCK
5
1C
100
AcDbEntity
100
AcDbBlockBegin
2
*PAPER_SPACE
0
ENDBLK
5
1D
100
AcDbEntity
100
AcDbBlockEnd
0
ENDSEC
0
SECTION
2
ENTITIES
0
LWPOLYLINE
5
100
100
AcDbEntity
8
0
100
AcDbPolyline
90
4
70
1
43
0.0
10
15.869279071171754
20
58.146000000000001
10
25.869279071171754
20
58.146000000000001
10
25.869279071171754
20
63.146000000000001
10
15.869279071171754
20
63.146000000000001
0
LWPOLYLINE
5
101
100
AcDbEntity
8
0
100
AcDbPolyline
90
4
70
1
43
0.0
10
-22.800000000000004
20
0
10
-22.800000000000004
20
5
10
-32.800000000000004
20
5
10
-32.800000000000004
20
0
0
LWPOLYLINE
5
102
100
AcDbEntity
8
0
100
AcDbPolyline
90
4
70
1
43
0.0
10
12.311319377671122
20
-42.723994177681433
10
17.311319377671129
20
-42.723994177681433
10
17.311319377671129
20
-32.723994177681433
10
12.311319377671122
20
-32.723994177681433
0
LWPOLYLINE
5
103
100
AcDbEntity
8
0
100
AcDbPolyline
90
4
70
1
43
0.0
10
17.311319377671126
20
-16.642796200000788
10
17.311319377671129
20
-6.642796200000789
10
12.311319377671131
20
-6.642796200000789
10
12.311319377671129
20
-16.642796200000788
0
LWPOLYLINE
5
104
100
AcDbEntity
8
0
100
AcDbPolyline
90
4
70
1
43
0.0
10
-17.288680622328872
20
-42.723994177681433
10
-12.288680622328874
20
-42.723994177681433
10
-12.288680622328874
20
-32.723994177681433
10
-17.288680622328872
20
-32.723994177681433
0
LWPOLYLINE
5
105
100
AcDbEntity
8
0
100
AcDbPolyline
90
4
70
1
43
0.0
10
-12.288680622328872
20
-16.642796200000781
10
-12.288680622328872
20
-6.6427962000007827
10
-17.288680622328872
20
-6.6427962000007827
10
-17.288680622328872
20
-16.642796200000781
0
LWPOLYLINE
5
106
100
AcDbEntity
8
0
100
AcDbPolyline
90
4
70
1
43
0.0
10
5
20
0
10
5
20
5
10
-5
20
5
10
-5
20
0
0
LWPOLYLINE
5
107
100
AcDbEntity
8
0
100
AcDbPolyline
90
4
70
1
43
0.0
10
32.800000000000004
20
5
10
22.800000000000004
20
5
10
22.800000000000004
20
0
10
32.800000000000004
20
0
0
CIRCLE
5
108
100
AcDbEntity
8
0
100
AcDbCircle
10
37.338680622328873
20
16.56813600000001
30
0
40
1.6500000000000004
210
0
220
0
230
1
0
CIRCLE
5
109
100
AcDbEntity
8
0
100
AcDbCircle
10
-37.338680622328873
20
47.56813600000001
30
0
40
1.6500000000000048
210
0
220
0
230
1
0
CIRCLE
5
110
100
AcDbEntity
8
0
100
AcDbCircle
10
-37.338680622328873
20
16.56813600000001
30
0
40
1.6500000000000004
210
0
220
0
230
1
0
CIRCLE
5
111
100
AcDbEntity
8
0
100
AcDbCircle
10
37.338680622328873
20
47.56813600000001
30
0
40
1.6500000000000048
210
0
220
0
230
1
0
LWPOLYLINE
5
112
100
AcDbEntity
8
0
100
AcDbPolyline
90
4
70
1
43
0.0
10
-15.869279071171754
20
63.146000000000001
10
-25.869279071171754
20
63.146000000000001
10
-25.869279071171754
20
58.146000000000001
10
-15.869279071171754
20
58.146000000000001
0
LWPOLYLINE
5
113
100
AcDbEntity
8
0
100
AcDbPolyline
90
16
70
1
43
0.0
10
35.550503983420796
20
68.146000000000001
10
35.550503983420796
20
50.218136000000008
10
40.011319377671136
20
50.218136000000008
10
40.011319377671128
20
13.918136000000011
10
35.550503983420789
20
13.918136000000008
10
35.550503983420796
20
-54.68186399999999
10
-35.527865228078525
20
-54.68186399999999
10
-35.527865228078532
20
13.918136000000008
10
-39.988680622328872
20
13.918136000000008
10
-39.988680622328872
20
50.218136000000008
10
-35.527865228078539
20
50.218136000000008
10
-35.527865228078539
20
68.145999999999987
10
-8.889999999999997
20
68.145999999999987
10
-8.8899999999999952
20
58.065735363165658
10
8.8899999999999917
20
58.065735363165658
10
8.8899999999999899
20
68.146000000000001
0
ENDSEC
0
SECTION
2
OBJECTS
0
DICTIONARY
5
C
100
AcDbDictionary
3
ACAD_GROUP
350
D
3
ACAD_MLINESTYLE
350
17
0
DICTIONARY
5
D
100
AcDbDictionary
0
DICTIONARY
5
1A
330
C
100
AcDbDictionary
0
DICTIONARY
5
17
100
AcDbDictionary
0
ENDSEC
0
EOF
