  0
SECTION
  2
HEADER
  9
$ACADVER
  1
AC1009
  0
ENDSEC
  0
SECTION
  2
ENTITIES
  0
POLYLINE
  5
90
  8
Layer_0
  62
3
  66
1
  10
0
  20
0
  30
0
  0
VERTEX
  5
90
  8
Layer_0
  10
45.566151
  20
576.43744
  0
VERTEX
  5
91
  8
Layer_0
  10
47.754883
  20
566.67993
  0
SEQEND
  0
POLYLINE
  5
93
  8
Layer_0
  62
3
  66
1
  10
0
  20
0
  30
0
  0
VERTEX
  5
93
  8
Layer_0
  10
65.098267
  20
534.55615
  0
VERTEX
  5
94
  8
Layer_0
  10
58.886795
  20
542.39307
  0
SEQEND
  0
POLYLINE
  5
96
  8
Layer_0
  62
3
  66
1
  10
0
  20
0
  30
0
  0
VERTEX
  5
96
  8
Layer_0
  10
74.163086
  20
552.87097
  0
VERTEX
  5
97
  8
Layer_0
  10
64.163086
  20
552.8717
  0
SEQEND
  0
POLYLINE
  5
99
  8
Layer_0
  62
3
  66
1
  10
0
  20
0
  30
0
  0
VERTEX
  5
99
  8
Layer_0
  10
71.64238
  20
542.72662
  0
VERTEX
  5
9a
  8
Layer_0
  10
62.631615
  20
547.06323
  0
SEQEND
  0
POLYLINE
  5
9c
  8
Layer_0
  62
3
  66
1
  10
0
  20
0
  30
0
  0
VERTEX
  5
9c
  8
Layer_0
  10
65.098267
  20
571.18561
  0
VERTEX
  5
9d
  8
Layer_0
  10
58.886795
  20
563.34869
  0
SEQEND
  0
POLYLINE
  5
9f
  8
Layer_0
  62
3
  66
1
  10
0
  20
0
  30
0
  0
VERTEX
  5
9f
  8
Layer_0
  10
55.801666
  20
530.10059
  0
VERTEX
  5
a0
  8
Layer_0
  10
53.569168
  20
539.84814
  0
SEQEND
  0
POLYLINE
  5
a2
  8
Layer_0
  62
3
  66
1
  10
0
  20
0
  30
0
  0
VERTEX
  5
a2
  8
Layer_0
  10
55.801666
  20
575.64124
  0
VERTEX
  5
a3
  8
Layer_0
  10
53.569168
  20
565.89362
  0
SEQEND
  0
POLYLINE
  5
a5
  8
Layer_0
  62
3
  66
1
  10
0
  20
0
  30
0
  0
VERTEX
  5
a5
  8
Layer_0
  10
45.566151
  20
529.30432
  0
VERTEX
  5
a6
  8
Layer_0
  10
47.754883
  20
539.06189
  0
SEQEND
  0
POLYLINE
  5
a8
  8
Layer_0
  62
3
  66
1
  10
0
  20
0
  30
0
  0
VERTEX
  5
a8
  8
Layer_0
  10
71.64238
  20
563.01514
  0
VERTEX
  5
a9
  8
Layer_0
  10
62.631615
  20
558.67853
  0
SEQEND
  0
POLYLINE
  5
ab
  8
Layer_1
  62
0
  66
1
  10
0
  20
0
  30
0
  0
VERTEX
  5
ab
  8
Layer_1
  10
74.16304
  20
552.29071
  0
VERTEX
  5
ac
  8
Layer_1
  10
74.163132
  20
553.45117
  0
SEQEND
  0
POLYLINE
  5
ae
  8
Layer_1
  62
0
  70
1
  66
1
  10
0
  20
0
  30
0
  0
VERTEX
  5
ae
  8
Layer_1
  10
52.595169
  20
528.14148
  0
VERTEX
  5
af
  8
Layer_1
  10
52.482246
  20
528.16528
  0
VERTEX
  5
b0
  8
Layer_1
  10
52.40049
  20
528.2467
  0
VERTEX
  5
b1
  8
Layer_1
  10
52.376263
  20
528.35956
  0
VERTEX
  5
b2
  8
Layer_1
  10
52.417389
  20
528.46741
  0
VERTEX
  5
b3
  8
Layer_1
  10
52.560593
  20
528.67834
  0
VERTEX
  5
b4
  8
Layer_1
  10
52.678379
  20
528.90173
  0
VERTEX
  5
b5
  8
Layer_1
  10
52.77026
  20
529.1355
  0
VERTEX
  5
b6
  8
Layer_1
  10
52.835751
  20
529.37714
  0
VERTEX
  5
b7
  8
Layer_1
  10
52.874371
  20
529.62457
  0
VERTEX
  5
b8
  8
Layer_1
  10
52.885643
  20
529.87543
  0
VERTEX
  5
b9
  8
Layer_1
  10
52.869083
  20
530.12744
  0
VERTEX
  5
ba
  8
Layer_1
  10
52.824203
  20
530.37842
  0
VERTEX
  5
bb
  8
Layer_1
  10
52.751625
  20
530.62286
  0
VERTEX
  5
bc
  8
Layer_1
  10
52.653263
  20
530.85547
  0
VERTEX
  5
bd
  8
Layer_1
  10
52.530563
  20
531.07458
  0
VERTEX
  5
be
  8
Layer_1
  10
52.384972
  20
531.27832
  0
VERTEX
  5
bf
  8
Layer_1
  10
52.217937
  20
531.46484
  0
VERTEX
  5
c0
  8
Layer_1
  10
52.030914
  20
531.63245
  0
VERTEX
  5
c1
  8
Layer_1
  10
51.825344
  20
531.77924
  0
VERTEX
  5
c2
  8
Layer_1
  10
51.602684
  20
531.90338
  0
VERTEX
  5
c3
  8
Layer_1
  10
51.676079
  20
536.53119
  0
VERTEX
  5
c4
  8
Layer_1
  10
50.701923
  20
537.50397
  0
VERTEX
  5
c5
  8
Layer_1
  10
50.674244
  20
537.50439
  0
VERTEX
  5
c6
  8
Layer_1
  10
49.669731
  20
536.56299
  0
VERTEX
  5
c7
  8
Layer_1
  10
49.595749
  20
531.89825
  0
VERTEX
  5
c8
  8
Layer_1
  10
49.374367
  20
531.77332
  0
VERTEX
  5
c9
  8
Layer_1
  10
49.170082
  20
531.62604
  0
VERTEX
  5
ca
  8
Layer_1
  10
48.984322
  20
531.45813
  0
VERTEX
  5
cb
  8
Layer_1
  10
48.818516
  20
531.27142
  0
VERTEX
  5
cc
  8
Layer_1
  10
48.674095
  20
531.06775
  0
VERTEX
  5
cd
  8
Layer_1
  10
48.55249
  20
530.84888
  0
VERTEX
  5
ce
  8
Layer_1
  10
48.455128
  20
530.61658
  0
VERTEX
  5
cf
  8
Layer_1
  10
48.383434
  20
530.37274
  0
VERTEX
  5
d0
  8
Layer_1
  10
48.339294
  20
530.12244
  0
VERTEX
  5
d1
  8
Layer_1
  10
48.323303
  20
529.87103
  0
VERTEX
  5
d2
  8
Layer_1
  10
48.334984
  20
529.62097
  0
VERTEX
  5
d3
  8
Layer_1
  10
48.373848
  20
529.37427
  0
VERTEX
  5
d4
  8
Layer_1
  10
48.43943
  20
529.13336
  0
VERTEX
  5
d5
  8
Layer_1
  10
48.531235
  20
528.90039
  0
VERTEX
  5
d6
  8
Layer_1
  10
48.648781
  20
528.67767
  0
VERTEX
  5
d7
  8
Layer_1
  10
48.791595
  20
528.46741
  0
VERTEX
  5
d8
  8
Layer_1
  10
48.832718
  20
528.35956
  0
VERTEX
  5
d9
  8
Layer_1
  10
48.808491
  20
528.2467
  0
VERTEX
  5
da
  8
Layer_1
  10
48.72673
  20
528.16528
  0
VERTEX
  5
db
  8
Layer_1
  10
48.613808
  20
528.14148
  0
VERTEX
  5
dc
  8
Layer_1
  10
47.710392
  20
528.2309
  0
VERTEX
  5
dd
  8
Layer_1
  10
46.810852
  20
528.35327
  0
VERTEX
  5
de
  8
Layer_1
  10
46.691944
  20
528.70764
  0
VERTEX
  5
df
  8
Layer_1
  10
46.605328
  20
529.07123
  0
VERTEX
  5
e0
  8
Layer_1
  10
43.065907
  20
529.86517
  0
VERTEX
  5
e1
  8
Layer_1
  10
42.24419
  20
530.15076
  0
VERTEX
  5
e2
  8
Layer_1
  10
41.437286
  20
530.46399
  0
VERTEX
  5
e3
  8
Layer_1
  10
40.645702
  20
530.8042
  0
VERTEX
  5
e4
  8
Layer_1
  10
39.869934
  20
531.17078
  0
VERTEX
  5
e5
  8
Layer_1
  10
39.110485
  20
531.56317
  0
VERTEX
  5
e6
  8
Layer_1
  10
38.367855
  20
531.98071
  0
VERTEX
  5
e7
  8
Layer_1
  10
37.642544
  20
532.42279
  0
VERTEX
  5
e8
  8
Layer_1
  10
36.935059
  20
532.88885
  0
VERTEX
  5
e9
  8
Layer_1
  10
36.245892
  20
533.3783
  0
VERTEX
  5
ea
  8
Layer_1
  10
35.57555
  20
533.8905
  0
VERTEX
  5
eb
  8
Layer_1
  10
34.92453
  20
534.42487
  0
VERTEX
  5
ec
  8
Layer_1
  10
34.293339
  20
534.98077
  0
VERTEX
  5
ed
  8
Layer_1
  10
33.682472
  20
535.55762
  0
VERTEX
  5
ee
  8
Layer_1
  10
33.092438
  20
536.15485
  0
VERTEX
  5
ef
  8
Layer_1
  10
32.523727
  20
536.77179
  0
VERTEX
  5
f0
  8
Layer_1
  10
31.976841
  20
537.4079
  0
VERTEX
  5
f1
  8
Layer_1
  10
31.452288
  20
538.0625
  0
VERTEX
  5
f2
  8
Layer_1
  10
30.950565
  20
538.73505
  0
VERTEX
  5
f3
  8
Layer_1
  10
30.472176
  20
539.42493
  0
VERTEX
  5
f4
  8
Layer_1
  10
30.017618
  20
540.13159
  0
VERTEX
  5
f5
  8
Layer_1
  10
29.587395
  20
540.85431
  0
VERTEX
  5
f6
  8
Layer_1
  10
29.182005
  20
541.59253
  0
VERTEX
  5
f7
  8
Layer_1
  10
28.801952
  20
542.3457
  0
VERTEX
  5
f8
  8
Layer_1
  10
28.447733
  20
543.11322
  0
VERTEX
  5
f9
  8
Layer_1
  10
28.119852
  20
543.89441
  0
VERTEX
  5
fa
  8
Layer_1
  10
27.81881
  20
544.68866
  0
VERTEX
  5
fb
  8
Layer_1
  10
27.545107
  20
545.49548
  0
VERTEX
  5
fc
  8
Layer_1
  10
27.299244
  20
546.31421
  0
VERTEX
  5
fd
  8
Layer_1
  10
27.081722
  20
547.14417
  0
VERTEX
  5
fe
  8
Layer_1
  10
26.893044
  20
547.98486
  0
VERTEX
  5
ff
  8
Layer_1
  10
26.733707
  20
548.83563
  0
VERTEX
  5
100
  8
Layer_1
  10
26.604214
  20
549.69586
  0
VERTEX
  5
101
  8
Layer_1
  10
26.766773
  20
549.91284
  0
VERTEX
  5
102
  8
Layer_1
  10
26.976997
  20
550.07678
  0
VERTEX
  5
103
  8
Layer_1
  10
27.222607
  20
550.18042
  0
VERTEX
  5
104
  8
Layer_1
  10
27.491306
  20
550.21655
  0
VERTEX
  5
105
  8
Layer_1
  10
36.31699
  20
550.21655
  0
VERTEX
  5
106
  8
Layer_1
  10
36.31699
  20
548.1084
  0
VERTEX
  5
107
  8
Layer_1
  10
37.904491
  20
548.1084
  0
VERTEX
  5
108
  8
Layer_1
  10
37.904491
  20
552.36011
  0
VERTEX
  5
109
  8
Layer_1
  10
37.906151
  20
552.36005
  0
VERTEX
  5
10a
  8
Layer_1
  10
37.904491
  20
552.75195
  0
VERTEX
  5
10b
  8
Layer_1
  10
37.904491
  20
557.63336
  0
VERTEX
  5
10c
  8
Layer_1
  10
36.31699
  20
557.63336
  0
VERTEX
  5
10d
  8
Layer_1
  10
36.31699
  20
555.52515
  0
VERTEX
  5
10e
  8
Layer_1
  10
27.491306
  20
555.52515
  0
VERTEX
  5
10f
  8
Layer_1
  10
27.222607
  20
555.56134
  0
VERTEX
  5
110
  8
Layer_1
  10
26.976997
  20
555.66498
  0
VERTEX
  5
111
  8
Layer_1
  10
26.766773
  20
555.82892
  0
VERTEX
  5
112
  8
Layer_1
  10
26.604214
  20
556.0459
  0
VERTEX
  5
113
  8
Layer_1
  10
26.733707
  20
556.90613
  0
VERTEX
  5
114
  8
Layer_1
  10
26.893044
  20
557.7569
  0
VERTEX
  5
115
  8
Layer_1
  10
27.081722
  20
558.5976
  0
VERTEX
  5
116
  8
Layer_1
  10
27.299244
  20
559.42761
  0
VERTEX
  5
117
  8
Layer_1
  10
27.545107
  20
560.24628
  0
VERTEX
  5
118
  8
Layer_1
  10
27.81881
  20
561.0531
  0
VERTEX
  5
119
  8
Layer_1
  10
28.119852
  20
561.84735
  0
VERTEX
  5
11a
  8
Layer_1
  10
28.447731
  20
562.62854
  0
VERTEX
  5
11b
  8
Layer_1
  10
28.801949
  20
563.39606
  0
VERTEX
  5
11c
  8
Layer_1
  10
29.182003
  20
564.14923
  0
VERTEX
  5
11d
  8
Layer_1
  10
29.587391
  20
564.88745
  0
VERTEX
  5
11e
  8
Layer_1
  10
30.017616
  20
565.61023
  0
VERTEX
  5
11f
  8
Layer_1
  10
30.472174
  20
566.31683
  0
VERTEX
  5
120
  8
Layer_1
  10
30.950563
  20
567.00671
  0
VERTEX
  5
121
  8
Layer_1
  10
31.452286
  20
567.67926
  0
VERTEX
  5
122
  8
Layer_1
  10
31.976837
  20
568.33386
  0
VERTEX
  5
123
  8
Layer_1
  10
32.52372
  20
568.96997
  0
VERTEX
  5
124
  8
Layer_1
  10
33.09243
  20
569.58691
  0
VERTEX
  5
125
  8
Layer_1
  10
33.682472
  20
570.18414
  0
VERTEX
  5
126
  8
Layer_1
  10
34.293339
  20
570.76099
  0
VERTEX
  5
127
  8
Layer_1
  10
34.92453
  20
571.31689
  0
VERTEX
  5
128
  8
Layer_1
  10
35.57555
  20
571.85126
  0
VERTEX
  5
129
  8
Layer_1
  10
36.245892
  20
572.36346
  0
VERTEX
  5
12a
  8
Layer_1
  10
36.935055
  20
572.85291
  0
VERTEX
  5
12b
  8
Layer_1
  10
37.642544
  20
573.31897
  0
VERTEX
  5
12c
  8
Layer_1
  10
38.367855
  20
573.76111
  0
VERTEX
  5
12d
  8
Layer_1
  10
39.110485
  20
574.17859
  0
VERTEX
  5
12e
  8
Layer_1
  10
39.869934
  20
574.57098
  0
VERTEX
  5
12f
  8
Layer_1
  10
40.645702
  20
574.93756
  0
VERTEX
  5
130
  8
Layer_1
  10
41.437286
  20
575.27777
  0
VERTEX
  5
131
  8
Layer_1
  10
42.24419
  20
575.591
  0
VERTEX
  5
132
  8
Layer_1
  10
43.065907
  20
575.87659
  0
VERTEX
  5
133
  8
Layer_1
  10
46.605328
  20
576.67053
  0
VERTEX
  5
134
  8
Layer_1
  10
46.691944
  20
577.03418
  0
VERTEX
  5
135
  8
Layer_1
  10
46.810852
  20
577.38849
  0
VERTEX
  5
136
  8
Layer_1
  10
47.710392
  20
577.51086
  0
VERTEX
  5
137
  8
Layer_1
  10
48.613808
  20
577.60028
  0
VERTEX
  5
138
  8
Layer_1
  10
48.726738
  20
577.57648
  0
VERTEX
  5
139
  8
Layer_1
  10
48.808498
  20
577.49506
  0
VERTEX
  5
13a
  8
Layer_1
  10
48.832722
  20
577.3822
  0
VERTEX
  5
13b
  8
Layer_1
  10
48.791595
  20
577.27435
  0
VERTEX
  5
13c
  8
Layer_1
  10
48.648781
  20
577.06409
  0
VERTEX
  5
13d
  8
Layer_1
  10
48.531235
  20
576.84137
  0
VERTEX
  5
13e
  8
Layer_1
  10
48.43943
  20
576.6084
  0
VERTEX
  5
13f
  8
Layer_1
  10
48.373852
  20
576.36749
  0
VERTEX
  5
140
  8
Layer_1
  10
48.334984
  20
576.12085
  0
VERTEX
  5
141
  8
Layer_1
  10
48.323303
  20
575.87073
  0
VERTEX
  5
142
  8
Layer_1
  10
48.339294
  20
575.61938
  0
VERTEX
  5
143
  8
Layer_1
  10
48.383438
  20
575.36902
  0
VERTEX
  5
144
  8
Layer_1
  10
48.455128
  20
575.12518
  0
VERTEX
  5
145
  8
Layer_1
  10
48.55249
  20
574.89288
  0
VERTEX
  5
146
  8
Layer_1
  10
48.674095
  20
574.67401
  0
VERTEX
  5
147
  8
Layer_1
  10
48.818516
  20
574.47034
  0
VERTEX
  5
148
  8
Layer_1
  10
48.984322
  20
574.28363
  0
VERTEX
  5
149
  8
Layer_1
  10
49.170082
  20
574.11572
  0
VERTEX
  5
14a
  8
Layer_1
  10
49.374367
  20
573.96844
  0
VERTEX
  5
14b
  8
Layer_1
  10
49.595749
  20
573.84351
  0
VERTEX
  5
14c
  8
Layer_1
  10
49.669731
  20
569.17877
  0
VERTEX
  5
14d
  8
Layer_1
  10
50.674244
  20
568.23737
  0
VERTEX
  5
14e
  8
Layer_1
  10
50.701923
  20
568.23779
  0
VERTEX
  5
14f
  8
Layer_1
  10
51.676079
  20
569.21057
  0
VERTEX
  5
150
  8
Layer_1
  10
51.602684
  20
573.83838
  0
VERTEX
  5
151
  8
Layer_1
  10
51.825344
  20
573.96252
  0
VERTEX
  5
152
  8
Layer_1
  10
52.030914
  20
574.10931
  0
VERTEX
  5
153
  8
Layer_1
  10
52.217937
  20
574.27692
  0
VERTEX
  5
154
  8
Layer_1
  10
52.384972
  20
574.46344
  0
VERTEX
  5
155
  8
Layer_1
  10
52.530563
  20
574.66718
  0
VERTEX
  5
156
  8
Layer_1
  10
52.653263
  20
574.88629
  0
VERTEX
  5
157
  8
Layer_1
  10
52.751625
  20
575.1189
  0
VERTEX
  5
158
  8
Layer_1
  10
52.824203
  20
575.36334
  0
VERTEX
  5
159
  8
Layer_1
  10
52.869083
  20
575.61432
  0
VERTEX
  5
15a
  8
Layer_1
  10
52.885643
  20
575.86633
  0
VERTEX
  5
15b
  8
Layer_1
  10
52.874371
  20
576.11719
  0
VERTEX
  5
15c
  8
Layer_1
  10
52.835751
  20
576.36462
  0
VERTEX
  5
15d
  8
Layer_1
  10
52.77026
  20
576.60632
  0
VERTEX
  5
15e
  8
Layer_1
  10
52.678379
  20
576.83997
  0
VERTEX
  5
15f
  8
Layer_1
  10
52.560593
  20
577.06342
  0
VERTEX
  5
160
  8
Layer_1
  10
52.417389
  20
577.27435
  0
VERTEX
  5
161
  8
Layer_1
  10
52.376263
  20
577.3822
  0
VERTEX
  5
162
  8
Layer_1
  10
52.400482
  20
577.495
  0
VERTEX
  5
163
  8
Layer_1
  10
52.482243
  20
577.57648
  0
VERTEX
  5
164
  8
Layer_1
  10
52.595169
  20
577.60028
  0
VERTEX
  5
165
  8
Layer_1
  10
53.544659
  20
577.50543
  0
VERTEX
  5
166
  8
Layer_1
  10
54.489799
  20
577.37415
  0
VERTEX
  5
167
  8
Layer_1
  10
54.609783
  20
577.0108
  0
VERTEX
  5
168
  8
Layer_1
  10
54.695721
  20
576.63873
  0
VERTEX
  5
169
  8
Layer_1
  10
54.747177
  20
576.26038
  0
VERTEX
  5
16a
  8
Layer_1
  10
54.763725
  20
575.87811
  0
VERTEX
  5
16b
  8
Layer_1
  10
56.839615
  20
575.4043
  0
VERTEX
  5
16c
  8
Layer_1
  10
57.020386
  20
575.74158
  0
VERTEX
  5
16d
  8
Layer_1
  10
57.230915
  20
576.06012
  0
VERTEX
  5
16e
  8
Layer_1
  10
57.469769
  20
576.35803
  0
VERTEX
  5
16f
  8
Layer_1
  10
57.735512
  20
576.6333
  0
VERTEX
  5
170
  8
Layer_1
  10
58.644012
  20
576.34155
  0
VERTEX
  5
171
  8
Layer_1
  10
59.540627
  20
576.01501
  0
VERTEX
  5
172
  8
Layer_1
  10
59.632053
  20
575.94458
  0
VERTEX
  5
173
  8
Layer_1
  10
59.67038
  20
575.83575
  0
VERTEX
  5
174
  8
Layer_1
  10
59.643246
  20
575.72357
  0
VERTEX
  5
175
  8
Layer_1
  10
59.559402
  20
575.64429
  0
VERTEX
  5
176
  8
Layer_1
  10
59.339462
  20
575.51672
  0
VERTEX
  5
177
  8
Layer_1
  10
59.136887
  20
575.36707
  0
VERTEX
  5
178
  8
Layer_1
  10
58.953087
  20
575.19696
  0
VERTEX
  5
179
  8
Layer_1
  10
58.789459
  20
575.0083
  0
VERTEX
  5
17a
  8
Layer_1
  10
58.647423
  20
574.80292
  0
VERTEX
  5
17b
  8
Layer_1
  10
58.528381
  20
574.58258
  0
VERTEX
  5
17c
  8
Layer_1
  10
58.433746
  20
574.34912
  0
VERTEX
  5
17d
  8
Layer_1
  10
58.364922
  20
574.10443
  0
VERTEX
  5
17e
  8
Layer_1
  10
58.32373
  20
573.85358
  0
VERTEX
  5
17f
  8
Layer_1
  10
58.310707
  20
573.60199
  0
VERTEX
  5
180
  8
Layer_1
  10
58.325348
  20
573.35199
  0
VERTEX
  5
181
  8
Layer_1
  10
58.367142
  20
573.10577
  0
VERTEX
  5
182
  8
Layer_1
  10
58.435577
  20
572.86566
  0
VERTEX
  5
183
  8
Layer_1
  10
58.530155
  20
572.63379
  0
VERTEX
  5
184
  8
Layer_1
  10
58.650364
  20
572.41241
  0
VERTEX
  5
185
  8
Layer_1
  10
58.795692
  20
572.2038
  0
VERTEX
  5
186
  8
Layer_1
  10
56.892868
  20
568.1026
  0
VERTEX
  5
187
  8
Layer_1
  10
57.387558
  20
566.81787
  0
VERTEX
  5
188
  8
Layer_1
  10
57.412666
  20
566.80621
  0
VERTEX
  5
189
  8
Layer_1
  10
58.713097
  20
567.25806
  0
VERTEX
  5
18a
  8
Layer_1
  10
60.601791
  20
571.32886
  0
VERTEX
  5
18b
  8
Layer_1
  10
60.856243
  20
571.34418
  0
VERTEX
  5
18c
  8
Layer_1
  10
61.105095
  20
571.38727
  0
VERTEX
  5
18d
  8
Layer_1
  10
61.346264
  20
571.45709
  0
VERTEX
  5
18e
  8
Layer_1
  10
61.577652
  20
571.55273
  0
VERTEX
  5
18f
  8
Layer_1
  10
61.797173
  20
571.67316
  0
VERTEX
  5
190
  8
Layer_1
  10
62.002739
  20
571.81732
  0
VERTEX
  5
191
  8
Layer_1
  10
62.192261
  20
571.98425
  0
VERTEX
  5
192
  8
Layer_1
  10
62.36364
  20
572.17297
  0
VERTEX
  5
193
  8
Layer_1
  10
62.512924
  20
572.37958
  0
VERTEX
  5
194
  8
Layer_1
  10
62.637169
  20
572.59949
  0
VERTEX
  5
195
  8
Layer_1
  10
62.735832
  20
572.83038
  0
VERTEX
  5
196
  8
Layer_1
  10
62.808357
  20
573.07001
  0
VERTEX
  5
197
  8
Layer_1
  10
62.854195
  20
573.31616
  0
VERTEX
  5
198
  8
Layer_1
  10
62.872807
  20
573.56653
  0
VERTEX
  5
199
  8
Layer_1
  10
62.863632
  20
573.81891
  0
VERTEX
  5
19a
  8
Layer_1
  10
62.826134
  20
574.07104
  0
VERTEX
  5
19b
  8
Layer_1
  10
62.835861
  20
574.1861
  0
VERTEX
  5
19c
  8
Layer_1
  10
62.906639
  20
574.27722
  0
VERTEX
  5
19d
  8
Layer_1
  10
63.01564
  20
574.31512
  0
VERTEX
  5
19e
  8
Layer_1
  10
63.127708
  20
574.2876
  0
VERTEX
  5
19f
  8
Layer_1
  10
63.902878
  20
573.81506
  0
VERTEX
  5
1a0
  8
Layer_1
  10
64.660233
  20
573.31451
  0
VERTEX
  5
1a1
  8
Layer_1
  10
64.612106
  20
572.93488
  0
VERTEX
  5
1a2
  8
Layer_1
  10
64.529503
  20
572.56213
  0
VERTEX
  5
1a3
  8
Layer_1
  10
64.413063
  20
572.19843
  0
VERTEX
  5
1a4
  8
Layer_1
  10
64.26342
  20
571.84631
  0
VERTEX
  5
1a5
  8
Layer_1
  10
65.933113
  20
570.5249
  0
VERTEX
  5
1a6
  8
Layer_1
  10
66.241455
  20
570.75153
  0
VERTEX
  5
1a7
  8
Layer_1
  10
66.568619
  20
570.94836
  0
VERTEX
  5
1a8
  8
Layer_1
  10
66.91246
  20
571.11444
  0
VERTEX
  5
1a9
  8
Layer_1
  10
67.270844
  20
571.24854
  0
VERTEX
  5
1aa
  8
Layer_1
  10
67.998337
  20
570.56152
  0
VERTEX
  5
1ab
  8
Layer_1
  10
68.697525
  20
569.84576
  0
VERTEX
  5
1ac
  8
Layer_1
  10
68.749336
  20
569.74268
  0
VERTEX
  5
1ad
  8
Layer_1
  10
68.736649
  20
569.62793
  0
VERTEX
  5
1ae
  8
Layer_1
  10
68.663544
  20
569.53864
  0
VERTEX
  5
1af
  8
Layer_1
  10
68.553589
  20
569.5036
  0
VERTEX
  5
1b0
  8
Layer_1
  10
68.299995
  20
569.48413
  0
VERTEX
  5
1b1
  8
Layer_1
  10
68.052414
  20
569.43707
  0
VERTEX
  5
1b2
  8
Layer_1
  10
67.81292
  20
569.36353
  0
VERTEX
  5
1b3
  8
Layer_1
  10
67.583572
  20
569.26453
  0
VERTEX
  5
1b4
  8
Layer_1
  10
67.366417
  20
569.14099
  0
VERTEX
  5
1b5
  8
Layer_1
  10
67.163513
  20
568.99402
  0
VERTEX
  5
1b6
  8
Layer_1
  10
66.976936
  20
568.82465
  0
VERTEX
  5
1b7
  8
Layer_1
  10
66.808739
  20
568.63385
  0
VERTEX
  5
1b8
  8
Layer_1
  10
66.662796
  20
568.42554
  0
VERTEX
  5
1b9
  8
Layer_1
  10
66.541969
  20
568.20441
  0
VERTEX
  5
1ba
  8
Layer_1
  10
66.446762
  20
567.97266
  0
VERTEX
  5
1bb
  8
Layer_1
  10
66.377701
  20
567.7326
  0
VERTEX
  5
1bc
  8
Layer_1
  10
66.335289
  20
567.48639
  0
VERTEX
  5
1bd
  8
Layer_1
  10
66.320045
  20
567.23633
  0
VERTEX
  5
1be
  8
Layer_1
  10
66.332489
  20
566.98462
  0
VERTEX
  5
1bf
  8
Layer_1
  10
66.373116
  20
566.73352
  0
VERTEX
  5
1c0
  8
Layer_1
  10
62.959984
  20
563.95526
  0
VERTEX
  5
1c1
  8
Layer_1
  10
62.842247
  20
562.58362
  0
VERTEX
  5
1c2
  8
Layer_1
  10
62.859726
  20
562.56213
  0
VERTEX
  5
1c3
  8
Layer_1
  10
64.22673
  20
562.39905
  0
VERTEX
  5
1c4
  8
Layer_1
  10
67.621742
  20
565.1626
  0
VERTEX
  5
1c5
  8
Layer_1
  10
67.85762
  20
565.06622
  0
VERTEX
  5
1c6
  8
Layer_1
  10
68.100479
  20
564.99725
  0
VERTEX
  5
1c7
  8
Layer_1
  10
68.348007
  20
564.95569
  0
VERTEX
  5
1c8
  8
Layer_1
  10
68.597885
  20
564.94159
  0
VERTEX
  5
1c9
  8
Layer_1
  10
68.847809
  20
564.95496
  0
VERTEX
  5
1ca
  8
Layer_1
  10
69.095451
  20
564.99573
  0
VERTEX
  5
1cb
  8
Layer_1
  10
69.338516
  20
565.06403
  0
VERTEX
  5
1cc
  8
Layer_1
  10
69.574677
  20
565.15973
  0
VERTEX
  5
1cd
  8
Layer_1
  10
69.798706
  20
565.28113
  0
VERTEX
  5
1ce
  8
Layer_1
  10
70.005936
  20
565.42535
  0
VERTEX
  5
1cf
  8
Layer_1
  10
70.194893
  20
565.59052
  0
VERTEX
  5
1d0
  8
Layer_1
  10
70.364113
  20
565.7749
  0
VERTEX
  5
1d1
  8
Layer_1
  10
70.512123
  20
565.97675
  0
VERTEX
  5
1d2
  8
Layer_1
  10
70.637459
  20
566.19421
  0
VERTEX
  5
1d3
  8
Layer_1
  10
70.738647
  20
566.42548
  0
VERTEX
  5
1d4
  8
Layer_1
  10
70.814232
  20
566.66882
  0
VERTEX
  5
1d5
  8
Layer_1
  10
70.872894
  20
566.76819
  0
VERTEX
  5
1d6
  8
Layer_1
  10
70.976219
  20
566.81964
  0
VERTEX
  5
1d7
  8
Layer_1
  10
71.090874
  20
566.80646
  0
VERTEX
  5
1d8
  8
Layer_1
  10
71.179871
  20
566.73303
  0
VERTEX
  5
1d9
  8
Layer_1
  10
71.694458
  20
565.93683
  0
VERTEX
  5
1da
  8
Layer_1
  10
72.178246
  20
565.12152
  0
VERTEX
  5
1db
  8
Layer_1
  10
71.969147
  20
564.80109
  0
VERTEX
  5
1dc
  8
Layer_1
  10
71.73201
  20
564.50177
  0
VERTEX
  5
1dd
  8
Layer_1
  10
71.468422
  20
564.22552
  0
VERTEX
  5
1de
  8
Layer_1
  10
71.179977
  20
563.97412
  0
VERTEX
  5
1df
  8
Layer_1
  10
72.10479
  20
562.05615
  0
VERTEX
  5
1e0
  8
Layer_1
  10
72.481133
  20
562.12524
  0
VERTEX
  5
1e1
  8
Layer_1
  10
72.861435
  20
562.15948
  0
VERTEX
  5
1e2
  8
Layer_1
  10
73.243279
  20
562.15869
  0
VERTEX
  5
1e3
  8
Layer_1
  10
73.624222
  20
562.12274
  0
VERTEX
  5
1e4
  8
Layer_1
  10
73.965057
  20
561.22485
  0
VERTEX
  5
1e5
  8
Layer_1
  10
74.270882
  20
560.31445
  0
VERTEX
  5
1e6
  8
Layer_1
  10
74.272812
  20
560.1991
  0
VERTEX
  5
1e7
  8
Layer_1
  10
74.211609
  20
560.10126
  0
VERTEX
  5
1e8
  8
Layer_1
  10
74.107002
  20
560.05249
  0
VERTEX
  5
1e9
  8
Layer_1
  10
73.992729
  20
560.0686
  0
VERTEX
  5
1ea
  8
Layer_1
  10
73.755661
  20
560.16113
  0
VERTEX
  5
1eb
  8
Layer_1
  10
73.512039
  20
560.2262
  0
VERTEX
  5
1ec
  8
Layer_1
  10
73.264191
  20
560.26385
  0
VERTEX
  5
1ed
  8
Layer_1
  10
73.014427
  20
560.27405
  0
VERTEX
  5
1ee
  8
Layer_1
  10
72.765038
  20
560.2569
  0
VERTEX
  5
1ef
  8
Layer_1
  10
72.518341
  20
560.2124
  0
VERTEX
  5
1f0
  8
Layer_1
  10
72.276627
  20
560.14063
  0
VERTEX
  5
1f1
  8
Layer_1
  10
72.042213
  20
560.0415
  0
VERTEX
  5
1f2
  8
Layer_1
  10
71.820282
  20
559.91699
  0
VERTEX
  5
1f3
  8
Layer_1
  10
71.61544
  20
559.76996
  0
VERTEX
  5
1f4
  8
Layer_1
  10
71.429123
  20
559.60223
  0
VERTEX
  5
1f5
  8
Layer_1
  10
71.262764
  20
559.41565
  0
VERTEX
  5
1f6
  8
Layer_1
  10
71.117813
  20
559.21198
  0
VERTEX
  5
1f7
  8
Layer_1
  10
70.995712
  20
558.99304
  0
VERTEX
  5
1f8
  8
Layer_1
  10
70.897873
  20
558.76062
  0
VERTEX
  5
1f9
  8
Layer_1
  10
70.825752
  20
558.5166
  0
VERTEX
  5
1fa
  8
Layer_1
  10
66.608551
  20
557.53809
  0
VERTEX
  5
1fb
  8
Layer_1
  10
65.899734
  20
556.35791
  0
VERTEX
  5
1fc
  8
Layer_1
  10
65.905991
  20
556.33093
  0
VERTEX
  5
1fd
  8
Layer_1
  10
67.06208
  20
555.58344
  0
VERTEX
  5
1fe
  8
Layer_1
  10
71.271126
  20
556.56006
  0
VERTEX
  5
1ff
  8
Layer_1
  10
71.441902
  20
556.37109
  0
VERTEX
  5
200
  8
Layer_1
  10
71.630829
  20
556.20386
  0
VERTEX
  5
201
  8
Layer_1
  10
71.835831
  20
556.05933
  0
VERTEX
  5
202
  8
Layer_1
  10
72.054825
  20
555.93842
  0
VERTEX
  5
203
  8
Layer_1
  10
72.285721
  20
555.84222
  0
VERTEX
  5
204
  8
Layer_1
  10
72.526466
  20
555.77173
  0
VERTEX
  5
205
  8
Layer_1
  10
72.774956
  20
555.72797
  0
VERTEX
  5
206
  8
Layer_1
  10
73.029114
  20
555.71185
  0
VERTEX
  5
207
  8
Layer_1
  10
73.283485
  20
555.72418
  0
VERTEX
  5
208
  8
Layer_1
  10
73.5326
  20
555.76422
  0
VERTEX
  5
209
  8
Layer_1
  10
73.774361
  20
555.83112
  0
VERTEX
  5
20a
  8
Layer_1
  10
74.006668
  20
555.92389
  0
VERTEX
  5
20b
  8
Layer_1
  10
74.22744
  20
556.0415
  0
VERTEX
  5
20c
  8
Layer_1
  10
74.43457
  20
556.18298
  0
VERTEX
  5
20d
  8
Layer_1
  10
74.625977
  20
556.34735
  0
VERTEX
  5
20e
  8
Layer_1
  10
74.799545
  20
556.53369
  0
VERTEX
  5
20f
  8
Layer_1
  10
74.895508
  20
556.59784
  0
VERTEX
  5
210
  8
Layer_1
  10
75.010902
  20
556.5993
  0
VERTEX
  5
211
  8
Layer_1
  10
75.108505
  20
556.53772
  0
VERTEX
  5
212
  8
Layer_1
  10
75.156822
  20
556.43292
  0
VERTEX
  5
213
  8
Layer_1
  10
75.27005
  20
555.53839
  0
VERTEX
  5
214
  8
Layer_1
  10
75.350677
  20
554.64038
  0
VERTEX
  5
215
  8
Layer_1
  10
75.071014
  20
554.46735
  0
VERTEX
  5
216
  8
Layer_1
  10
74.778549
  20
554.31696
  0
VERTEX
  5
217
  8
Layer_1
  10
74.163124
  20
553.45074
  0
VERTEX
  5
218
  8
Layer_1
  10
74.167961
  20
553.45068
  0
VERTEX
  5
219
  8
Layer_1
  10
74.16304
  20
552.29071
  0
VERTEX
  5
21a
  8
Layer_1
  10
74.778549
  20
551.4248
  0
VERTEX
  5
21b
  8
Layer_1
  10
75.071014
  20
551.27441
  0
VERTEX
  5
21c
  8
Layer_1
  10
75.350677
  20
551.10138
  0
VERTEX
  5
21d
  8
Layer_1
  10
75.270042
  20
550.20337
  0
VERTEX
  5
21e
  8
Layer_1
  10
75.156822
  20
549.30884
  0
VERTEX
  5
21f
  8
Layer_1
  10
75.108505
  20
549.20404
  0
VERTEX
  5
220
  8
Layer_1
  10
75.01091
  20
549.14246
  0
VERTEX
  5
221
  8
Layer_1
  10
74.895508
  20
549.14392
  0
VERTEX
  5
222
  8
Layer_1
  10
74.799545
  20
549.20801
  0
VERTEX
  5
223
  8
Layer_1
  10
74.625977
  20
549.39441
  0
VERTEX
  5
224
  8
Layer_1
  10
74.434578
  20
549.55878
  0
VERTEX
  5
225
  8
Layer_1
  10
74.227448
  20
549.70032
  0
VERTEX
  5
226
  8
Layer_1
  10
74.006676
  20
549.81787
  0
VERTEX
  5
227
  8
Layer_1
  10
73.774368
  20
549.91064
  0
VERTEX
  5
228
  8
Layer_1
  10
73.5326
  20
549.97754
  0
VERTEX
  5
229
  8
Layer_1
  10
73.283485
  20
550.01764
  0
VERTEX
  5
22a
  8
Layer_1
  10
73.029114
  20
550.02991
  0
VERTEX
  5
22b
  8
Layer_1
  10
72.774956
  20
550.01385
  0
VERTEX
  5
22c
  8
Layer_1
  10
72.526466
  20
549.97003
  0
VERTEX
  5
22d
  8
Layer_1
  10
72.285721
  20
549.89954
  0
VERTEX
  5
22e
  8
Layer_1
  10
72.054825
  20
549.80334
  0
VERTEX
  5
22f
  8
Layer_1
  10
71.835831
  20
549.6825
  0
VERTEX
  5
230
  8
Layer_1
  10
71.630829
  20
549.5379
  0
VERTEX
  5
231
  8
Layer_1
  10
71.441902
  20
549.37067
  0
VERTEX
  5
232
  8
Layer_1
  10
71.271126
  20
549.18176
  0
VERTEX
  5
233
  8
Layer_1
  10
67.06208
  20
550.15833
  0
VERTEX
  5
234
  8
Layer_1
  10
65.905991
  20
549.41089
  0
VERTEX
  5
235
  8
Layer_1
  10
65.899734
  20
549.38391
  0
VERTEX
  5
236
  8
Layer_1
  10
66.608551
  20
548.20367
  0
VERTEX
  5
237
  8
Layer_1
  10
70.825752
  20
547.22516
  0
VERTEX
  5
238
  8
Layer_1
  10
70.897873
  20
546.98114
  0
VERTEX
  5
239
  8
Layer_1
  10
70.995712
  20
546.74872
  0
VERTEX
  5
23a
  8
Layer_1
  10
71.117821
  20
546.52979
  0
VERTEX
  5
23b
  8
Layer_1
  10
71.262772
  20
546.32611
  0
VERTEX
  5
23c
  8
Layer_1
  10
71.429123
  20
546.13953
  0
VERTEX
  5
23d
  8
Layer_1
  10
71.61544
  20
545.97186
  0
VERTEX
  5
23e
  8
Layer_1
  10
71.820282
  20
545.82483
  0
VERTEX
  5
23f
  8
Layer_1
  10
72.042221
  20
545.70026
  0
VERTEX
  5
240
  8
Layer_1
  10
72.276642
  20
545.6012
  0
VERTEX
  5
241
  8
Layer_1
  10
72.518341
  20
545.52936
  0
VERTEX
  5
242
  8
Layer_1
  10
72.765045
  20
545.48486
  0
VERTEX
  5
243
  8
Layer_1
  10
73.014435
  20
545.46771
  0
VERTEX
  5
244
  8
Layer_1
  10
73.264206
  20
545.47797
  0
VERTEX
  5
245
  8
Layer_1
  10
73.512039
  20
545.51556
  0
VERTEX
  5
246
  8
Layer_1
  10
73.755661
  20
545.58063
  0
VERTEX
  5
247
  8
Layer_1
  10
73.992729
  20
545.67316
  0
VERTEX
  5
248
  8
Layer_1
  10
74.107002
  20
545.68927
  0
VERTEX
  5
249
  8
Layer_1
  10
74.211617
  20
545.6405
  0
VERTEX
  5
24a
  8
Layer_1
  10
74.27282
  20
545.54272
  0
VERTEX
  5
24b
  8
Layer_1
  10
74.270882
  20
545.42731
  0
VERTEX
  5
24c
  8
Layer_1
  10
73.965057
  20
544.51691
  0
VERTEX
  5
24d
  8
Layer_1
  10
73.624222
  20
543.61902
  0
VERTEX
  5
24e
  8
Layer_1
  10
73.243279
  20
543.58307
  0
VERTEX
  5
24f
  8
Layer_1
  10
72.861435
  20
543.58228
  0
VERTEX
  5
250
  8
Layer_1
  10
72.48114
  20
543.61652
  0
VERTEX
  5
251
  8
Layer_1
  10
72.10479
  20
543.68561
  0
VERTEX
  5
252
  8
Layer_1
  10
71.179977
  20
541.7677
  0
VERTEX
  5
253
  8
Layer_1
  10
71.468414
  20
541.51624
  0
VERTEX
  5
254
  8
Layer_1
  10
71.731995
  20
541.23999
  0
VERTEX
  5
255
  8
Layer_1
  10
71.969131
  20
540.94067
  0
VERTEX
  5
256
  8
Layer_1
  10
72.178246
  20
540.62024
  0
VERTEX
  5
257
  8
Layer_1
  10
71.694458
  20
539.80493
  0
VERTEX
  5
258
  8
Layer_1
  10
71.179871
  20
539.00873
  0
VERTEX
  5
259
  8
Layer_1
  10
71.090866
  20
538.9353
  0
VERTEX
  5
25a
  8
Layer_1
  10
70.976219
  20
538.92212
  0
VERTEX
  5
25b
  8
Layer_1
  10
70.872894
  20
538.97357
  0
VERTEX
  5
25c
  8
Layer_1
  10
70.814232
  20
539.07294
  0
VERTEX
  5
25d
  8
Layer_1
  10
70.738647
  20
539.31628
  0
VERTEX
  5
25e
  8
Layer_1
  10
70.637466
  20
539.54761
  0
VERTEX
  5
25f
  8
Layer_1
  10
70.512131
  20
539.76501
  0
VERTEX
  5
260
  8
Layer_1
  10
70.36412
  20
539.96686
  0
VERTEX
  5
261
  8
Layer_1
  10
70.194901
  20
540.15125
  0
VERTEX
  5
262
  8
Layer_1
  10
70.005943
  20
540.31647
  0
VERTEX
  5
263
  8
Layer_1
  10
69.798714
  20
540.46063
  0
VERTEX
  5
264
  8
Layer_1
  10
69.574684
  20
540.58209
  0
VERTEX
  5
265
  8
Layer_1
  10
69.338524
  20
540.6778
  0
VERTEX
  5
266
  8
Layer_1
  10
69.095459
  20
540.74603
  0
VERTEX
  5
267
  8
Layer_1
  10
68.847809
  20
540.7868
  0
VERTEX
  5
268
  8
Layer_1
  10
68.597885
  20
540.80017
  0
VERTEX
  5
269
  8
Layer_1
  10
68.348007
  20
540.78607
  0
VERTEX
  5
26a
  8
Layer_1
  10
68.100479
  20
540.74457
  0
VERTEX
  5
26b
  8
Layer_1
  10
67.85762
  20
540.6756
  0
VERTEX
  5
26c
  8
Layer_1
  10
67.621742
  20
540.57916
  0
VERTEX
  5
26d
  8
Layer_1
  10
64.22673
  20
543.34271
  0
VERTEX
  5
26e
  8
Layer_1
  10
62.859726
  20
543.17963
  0
VERTEX
  5
26f
  8
Layer_1
  10
62.842247
  20
543.15814
  0
VERTEX
  5
270
  8
Layer_1
  10
62.959984
  20
541.7865
  0
VERTEX
  5
271
  8
Layer_1
  10
66.373116
  20
539.00818
  0
VERTEX
  5
272
  8
Layer_1
  10
66.332489
  20
538.75714
  0
VERTEX
  5
273
  8
Layer_1
  10
66.320045
  20
538.50543
  0
VERTEX
  5
274
  8
Layer_1
  10
66.335289
  20
538.25537
  0
VERTEX
  5
275
  8
Layer_1
  10
66.377701
  20
538.00916
  0
VERTEX
  5
276
  8
Layer_1
  10
66.446762
  20
537.7691
  0
VERTEX
  5
277
  8
Layer_1
  10
66.541977
  20
537.53735
  0
VERTEX
  5
278
  8
Layer_1
  10
66.662804
  20
537.31622
  0
VERTEX
  5
279
  8
Layer_1
  10
66.808746
  20
537.10791
  0
VERTEX
  5
27a
  8
Layer_1
  10
66.976944
  20
536.91711
  0
VERTEX
  5
27b
  8
Layer_1
  10
67.163528
  20
536.74774
  0
VERTEX
  5
27c
  8
Layer_1
  10
67.366417
  20
536.60077
  0
VERTEX
  5
27d
  8
Layer_1
  10
67.583572
  20
536.47723
  0
VERTEX
  5
27e
  8
Layer_1
  10
67.81292
  20
536.37817
  0
VERTEX
  5
27f
  8
Layer_1
  10
68.052414
  20
536.30469
  0
VERTEX
  5
280
  8
Layer_1
  10
68.299995
  20
536.25763
  0
VERTEX
  5
281
  8
Layer_1
  10
68.553589
  20
536.23816
  0
VERTEX
  5
282
  8
Layer_1
  10
68.663544
  20
536.20313
  0
VERTEX
  5
283
  8
Layer_1
  10
68.736649
  20
536.11377
  0
VERTEX
  5
284
  8
Layer_1
  10
68.749336
  20
535.99908
  0
VERTEX
  5
285
  8
Layer_1
  10
68.697525
  20
535.896
  0
VERTEX
  5
286
  8
Layer_1
  10
67.998329
  20
535.18024
  0
VERTEX
  5
287
  8
Layer_1
  10
67.270844
  20
534.49323
  0
VERTEX
  5
288
  8
Layer_1
  10
66.91246
  20
534.62732
  0
VERTEX
  5
289
  8
Layer_1
  10
66.568619
  20
534.7934
  0
VERTEX
  5
28a
  8
Layer_1
  10
66.241455
  20
534.9903
  0
VERTEX
  5
28b
  8
Layer_1
  10
65.933113
  20
535.21686
  0
VERTEX
  5
28c
  8
Layer_1
  10
64.26342
  20
533.89551
  0
VERTEX
  5
28d
  8
Layer_1
  10
64.413063
  20
533.54333
  0
VERTEX
  5
28e
  8
Layer_1
  10
64.529503
  20
533.17969
  0
VERTEX
  5
28f
  8
Layer_1
  10
64.612106
  20
532.80688
  0
VERTEX
  5
290
  8
Layer_1
  10
64.660233
  20
532.42725
  0
VERTEX
  5
291
  8
Layer_1
  10
63.902874
  20
531.92676
  0
VERTEX
  5
292
  8
Layer_1
  10
63.127708
  20
531.45422
  0
VERTEX
  5
293
  8
Layer_1
  10
63.015648
  20
531.42664
  0
VERTEX
  5
294
  8
Layer_1
  10
62.906647
  20
531.46454
  0
VERTEX
  5
295
  8
Layer_1
  10
62.835869
  20
531.55566
  0
VERTEX
  5
296
  8
Layer_1
  10
62.826134
  20
531.67065
  0
VERTEX
  5
297
  8
Layer_1
  10
62.863628
  20
531.92285
  0
VERTEX
  5
298
  8
Layer_1
  10
62.872799
  20
532.17523
  0
VERTEX
  5
299
  8
Layer_1
  10
62.854187
  20
532.4256
  0
VERTEX
  5
29a
  8
Layer_1
  10
62.80835
  20
532.67175
  0
VERTEX
  5
29b
  8
Layer_1
  10
62.735825
  20
532.91138
  0
VERTEX
  5
29c
  8
Layer_1
  10
62.637169
  20
533.14227
  0
VERTEX
  5
29d
  8
Layer_1
  10
62.512924
  20
533.36218
  0
VERTEX
  5
29e
  8
Layer_1
  10
62.36364
  20
533.56879
  0
VERTEX
  5
29f
  8
Layer_1
  10
62.192253
  20
533.75751
  0
VERTEX
  5
2a0
  8
Layer_1
  10
62.002735
  20
533.92444
  0
VERTEX
  5
2a1
  8
Layer_1
  10
61.797173
  20
534.0686
  0
VERTEX
  5
2a2
  8
Layer_1
  10
61.577652
  20
534.18903
  0
VERTEX
  5
2a3
  8
Layer_1
  10
61.346264
  20
534.28467
  0
VERTEX
  5
2a4
  8
Layer_1
  10
61.105095
  20
534.35449
  0
VERTEX
  5
2a5
  8
Layer_1
  10
60.856243
  20
534.39758
  0
VERTEX
  5
2a6
  8
Layer_1
  10
60.601791
  20
534.41296
  0
VERTEX
  5
2a7
  8
Layer_1
  10
58.713097
  20
538.4837
  0
VERTEX
  5
2a8
  8
Layer_1
  10
57.412666
  20
538.93555
  0
VERTEX
  5
2a9
  8
Layer_1
  10
57.387558
  20
538.92389
  0
VERTEX
  5
2aa
  8
Layer_1
  10
56.892868
  20
537.63916
  0
VERTEX
  5
2ab
  8
Layer_1
  10
58.795692
  20
533.53796
  0
VERTEX
  5
2ac
  8
Layer_1
  10
58.650364
  20
533.32935
  0
VERTEX
  5
2ad
  8
Layer_1
  10
58.530151
  20
533.10803
  0
VERTEX
  5
2ae
  8
Layer_1
  10
58.435574
  20
532.8761
  0
VERTEX
  5
2af
  8
Layer_1
  10
58.367134
  20
532.63599
  0
VERTEX
  5
2b0
  8
Layer_1
  10
58.325336
  20
532.38977
  0
VERTEX
  5
2b1
  8
Layer_1
  10
58.310696
  20
532.13977
  0
VERTEX
  5
2b2
  8
Layer_1
  10
58.323715
  20
531.88818
  0
VERTEX
  5
2b3
  8
Layer_1
  10
58.364906
  20
531.63733
  0
VERTEX
  5
2b4
  8
Layer_1
  10
58.433731
  20
531.39258
  0
VERTEX
  5
2b5
  8
Layer_1
  10
58.528366
  20
531.15918
  0
VERTEX
  5
2b6
  8
Layer_1
  10
58.647408
  20
530.93884
  0
VERTEX
  5
2b7
  8
Layer_1
  10
58.789448
  20
530.73346
  0
VERTEX
  5
2b8
  8
Layer_1
  10
58.953079
  20
530.5448
  0
VERTEX
  5
2b9
  8
Layer_1
  10
59.136883
  20
530.37469
  0
VERTEX
  5
2ba
  8
Layer_1
  10
59.339462
  20
530.22504
  0
VERTEX
  5
2bb
  8
Layer_1
  10
59.559402
  20
530.09753
  0
VERTEX
  5
2bc
  8
Layer_1
  10
59.643238
  20
530.01819
  0
VERTEX
  5
2bd
  8
Layer_1
  10
59.670372
  20
529.90601
  0
VERTEX
  5
2be
  8
Layer_1
  10
59.632046
  20
529.79718
  0
VERTEX
  5
2bf
  8
Layer_1
  10
59.540627
  20
529.72675
  0
VERTEX
  5
2c0
  8
Layer_1
  10
58.644012
  20
529.40027
  0
VERTEX
  5
2c1
  8
Layer_1
  10
57.735512
  20
529.10846
  0
VERTEX
  5
2c2
  8
Layer_1
  10
57.469761
  20
529.38373
  0
VERTEX
  5
2c3
  8
Layer_1
  10
57.230907
  20
529.68164
  0
VERTEX
  5
2c4
  8
Layer_1
  10
57.020382
  20
530.00024
  0
VERTEX
  5
2c5
  8
Layer_1
  10
56.839615
  20
530.33746
  0
VERTEX
  5
2c6
  8
Layer_1
  10
54.763725
  20
529.86365
  0
VERTEX
  5
2c7
  8
Layer_1
  10
54.747185
  20
529.48138
  0
VERTEX
  5
2c8
  8
Layer_1
  10
54.695724
  20
529.10303
  0
VERTEX
  5
2c9
  8
Layer_1
  10
54.609783
  20
528.73096
  0
VERTEX
  5
2ca
  8
Layer_1
  10
54.489799
  20
528.36761
  0
VERTEX
  5
2cb
  8
Layer_1
  10
53.544659
  20
528.23633
  0
VERTEX
  5
2cc
  8
Layer_1
  10
52.595169
  20
528.14148
  0
SEQEND
  0
ENDSEC
  0
EOF
