0
SECTION
2
HEADER
9
$INSUNITS
70
4
9
$ACADVER
1
AC1014
9
$HANDSEED
5
FFFF
0
ENDSEC
0
SECTION
2
TABLES
0
TABLE
2
VPORT
5
8
100
AcDbSymbolTable
0
ENDTAB
0
TABLE
2
LTYPE
5
5
100
AcDbSymbolTable
0
LTYPE
5
14
100
AcDbSymbolTableRecord
100
AcDbLinetypeTableRecord
2
BYBLOCK
70
0
0
LTYPE
5
15
100
AcDbSymbolTableRecord
100
AcDbLinetypeTableRecord
2
BYLAYER
70
0
0
ENDTAB
0
TABLE
2
LAYER
5
2
100
AcDbSymbolTable
70
2
0
LAYER
5
50
100
AcDbSymbolTableRecord
100
AcDbLayerTableRecord
2
0
70
0
6
CONTINUOUS
0
ENDTAB
0
TABLE
2
STYLE
5
3
100
AcDbSymbolTable
70
1
0
STYLE
5
11
100
AcDbSymbolTableRecord
100
AcDbTextStyleTableRecord
2
STANDARD
70
0
0
ENDTAB
0
TABLE
2
VIEW
5
6
100
AcDbSymbolTable
70
0
0
ENDTAB
0
TABLE
2
UCS
5
7
100
AcDbSymbolTable
70
0
0
ENDTAB
0
TABLE
2
APPID
5
9
100
AcDbSymbolTable
70
2
0
APPID
5
12
100
AcDbSymbolTableRecord
100
AcDbRegAppTableRecord
2
ACAD
70
0
0
ENDTAB
0
TABLE
2
DIMSTYLE
5
A
100
AcDbSymbolTable
70
1
0
ENDTAB
0
TABLE
2
BLOCK_RECORD
5
1
100
AcDbSymbolTable
70
1
0
BLOCK_RECORD
5
1F
100
AcDbSymbolTableRecord
100
AcDbBlockTableRecord
2
*MODEL_SPACE
0
BLOCK_RECORD
5
1B
100
AcDbSymbolTableRecord
100
AcDbBlockTableRecord
2
*PAPER_SPACE
0
ENDTAB
0
ENDSEC
0
SECTION
2
BLOCKS
0
BLOCK
5
20
100
AcDbEntity
100
AcDbBlockBegin
2
*MODEL_SPACE
0
ENDBLK
5
21
100
AcDbEntity
100
AcDbBlockEnd
0
BLOCK
5
1C
100
AcDbEntity
100
AcDbBlockBegin
2
*PAPER_SPACE
0
ENDBLK
5
1D
100
AcDbEntity
100
AcDbBlockEnd
0
ENDSEC
0
SECTION
2
ENTITIES
0
LWPOLYLINE
5
100
100
AcDbEntity
8
OUTER_PROFILES
100
AcDbPolyline
90
20
70
1
43
0.0
10
-297.99141592653598
20
7.1054273576010019e-14
10
-297.99141592653586
20
199.96000000000004
10
-197.95999999999998
20
199.95999999999998
10
-197.95999999999998
20
199.99141592653589
10
-246.97141592653588
20
199.99141592653589
10
-246.97141592653591
20
298.97141592653588
10
49.011415926535946
20
298.97141592653588
10
49.011415926535911
20
199.99141592653589
10
0
20
199.99141592653589
10
0
20
199.95999999999998
10
400.55424777958541
20
199.95999999999995
10
400.55424777958535
20
-3.5576363879725492e-14
10
0
20
0
10
0
20
-0.031415926535916794
10
49.011415926535911
20
-0.031415926535913741
10
49.011415926535946
20
-99.011415926535904
10
-246.97141592653591
20
-99.011415926535889
10
-246.97141592653591
20
-0.031415926535909987
10
-197.95999999999998
20
-0.031415926535893937
10
-197.95999999999998
20
1.7582379996394079e-14
0
LINE
5
101
100
AcDbEntity
8
BEND
100
AcDbLine
10
301.55853981633982
20
-1.3336379395074709e-13
30
7.7221783815170475e-11
11
301.55853981633982
21
199.95999999999992
31
7.7260070494761516e-11
0
LINE
5
102
100
AcDbEntity
8
BEND
100
AcDbLine
10
100.04712388980373
20
-6.2176674821211623e-14
30
6.1234427070603686e-11
11
100.04712388980373
21
199.95999999999992
31
6.1256407049717875e-11
0
LINE
5
103
100
AcDbEntity
8
BEND
100
AcDbLine
10
0.01570796326795687
20
199.99141592653592
30
-3.2231095646791566e-14
11
0.015707963267992398
21
298.97141592653588
31
-1.3956162248119617e-11
0
LINE
5
104
100
AcDbEntity
8
BEND
100
AcDbLine
10
-197.97570796326792
20
298.97141592653588
30
-1.6260066663165101e-10
11
-197.97570796326795
21
199.99141592653589
31
-1.4867299247391264e-10
0
LINE
5
105
100
AcDbEntity
8
BEND
100
AcDbLine
10
0.01570796326795687
20
-99.011415926535904
30
-1.39134535060424e-11
11
0.01570796326795687
21
-0.031415926535913741
31
1.4220651695959651e-14
0
LINE
5
106
100
AcDbEntity
8
BEND
100
AcDbLine
10
1.0357079632679955
20
-5.3381299380816974e-14
30
7.6669174607168619e-13
11
1.03570796326796
21
199.95999999999992
31
7.8084708963562462e-13
0
LINE
5
107
100
AcDbEntity
8
BEND
100
AcDbLine
10
-197.97570796326792
20
-0.031415926535931685
30
-1.487194442212554e-10
11
-197.97570796326795
21
-99.011415926535889
31
-1.6264337537372825e-10
0
LINE
5
108
100
AcDbEntity
8
BEND
100
AcDbLine
10
0
20
199.97570796326795
30
3.6082248300317588e-15
11
-197.95999999999998
21
199.97570796326795
31
-1.4866001222862901e-10
0
LINE
5
109
100
AcDbEntity
8
BEND
100
AcDbLine
10
-197.95999999999998
20
-0.015707963267939343
30
-1.4866001222862901e-10
11
0
21
-0.015707963267956926
31
3.6082248300317588e-15
0
LINE
5
110
100
AcDbEntity
8
BEND
100
AcDbLine
10
-198.99570796326813
20
199.96000000000004
30
-1.4944186560778226e-10
11
-198.99570796326822
21
0
31
-1.494455429217488e-10
0
LINE
5
111
100
AcDbEntity
8
BEND_EXTENT
100
AcDbLine
10
301.57424777960779
20
199.95999999999998
30
7.7243911095782809e-11
11
301.57424777960779
21
-7.1054273576010019e-14
31
7.7226147527388807e-11
0
LINE
5
112
100
AcDbEntity
8
BEND_EXTENT
100
AcDbLine
10
301.5428318530719
20
-6.2309520374737051e-14
30
7.7255845560421326e-11
11
301.54283185307185
21
199.95999999999992
31
7.7255845560421249e-11
0
LINE
5
113
100
AcDbEntity
8
BEND_EXTENT
100
AcDbLine
10
-199.01141592653596
20
1.767576449000196e-14
30
-1.4947097433424578e-10
11
-199.01141592653588
21
199.96000000000004
31
-1.494709743342457e-10
0
LINE
5
114
100
AcDbEntity
8
BEND_EXTENT
100
AcDbLine
10
-198.98000000000002
20
1.7672974195203549e-14
30
-1.4942961809370221e-10
11
-198.97999999999996
21
199.95999999999998
31
-1.4942961809370213e-10
0
LINE
5
115
100
AcDbEntity
8
BEND_EXTENT
100
AcDbLine
10
100.06283185307186
20
199.95999999999992
30
6.123611915876786e-11
11
100.06283185307186
21
-7.1054273576010019e-14
31
6.1218355590373857e-11
0
LINE
5
116
100
AcDbEntity
8
BEND_EXTENT
100
AcDbLine
10
100.03141592653594
20
-2.6648142885807422e-14
30
6.1212526486618269e-11
11
100.03141592653591
21
199.95999999999992
31
6.1212526486618269e-11
0
LINE
5
117
100
AcDbEntity
8
BEND_EXTENT
100
AcDbLine
10
1.0514159265359524
20
199.95999999999992
30
7.8959031239272042e-13
11
1.0514159265359524
21
-7.1054273576010019e-14
31
7.8959031239272042e-13
0
LINE
5
118
100
AcDbEntity
8
BEND_EXTENT
100
AcDbLine
10
1.0200000000000387
20
199.95999999999995
30
7.6599764024315509e-13
11
1.0200000000000387
21
0
31
7.6599764024315509e-13
0
LINE
5
119
100
AcDbEntity
8
BEND_EXTENT
100
AcDbLine
10
-197.99141592653592
20
-99.011415926535889
30
-1.6266714145168863e-10
11
-197.99141592653592
21
-0.031415926535931504
31
-1.4874050383079062e-10
0
LINE
5
120
100
AcDbEntity
8
BEND_EXTENT
100
AcDbLine
10
-197.95999999999998
20
-0.031415926535893937
30
-1.4866362045345904e-10
11
-197.95999999999998
21
-99.011415926535889
31
-1.6257249450596301e-10
0
LINE
5
121
100
AcDbEntity
8
BEND_EXTENT
100
AcDbLine
10
0
20
-0.031415926535916794
30
0
11
-197.95999999999998
21
-0.031415926535893937
31
-1.4866362045345904e-10
0
LINE
5
122
100
AcDbEntity
8
BEND_EXTENT
100
AcDbLine
10
0
20
-99.011415926535904
30
-1.3908874052503961e-11
11
0
21
-0.031415926535916794
31
0
0
LINE
5
123
100
AcDbEntity
8
BEND_EXTENT
100
AcDbLine
10
0.031415926535913741
20
-0.031415926535918327
30
4.1356240543567833e-14
11
0.031415926535913741
21
-99.011415926535904
31
-1.3903044948748398e-11
0
LINE
5
124
100
AcDbEntity
8
BEND_EXTENT
100
AcDbLine
10
0.031415926535949268
20
298.97141592653588
30
-1.3956335653930374e-11
11
0.031415926535913741
21
199.99141592653592
31
-2.9698033032442185e-14
0
LINE
5
125
100
AcDbEntity
8
BEND_EXTENT
100
AcDbLine
10
0
20
199.99141592653589
30
0
11
3.5527136788005009e-14
21
298.97141592653588
31
-1.3908874052503929e-11
0
LINE
5
126
100
AcDbEntity
8
BEND_EXTENT
100
AcDbLine
10
-197.95999999999998
20
199.99141592653589
30
-1.4866362045345904e-10
11
0
21
199.99141592653589
31
0
0
LINE
5
127
100
AcDbEntity
8
BEND_EXTENT
100
AcDbLine
10
-197.95999999999995
20
298.97141592653588
30
-1.6257249450596301e-10
11
-197.95999999999998
21
199.99141592653589
31
-1.4866362045345904e-10
0
LINE
5
128
100
AcDbEntity
8
BEND_EXTENT
100
AcDbLine
10
-197.99141592653592
20
199.99141592653589
30
-1.4866944955721461e-10
11
-197.99141592653586
21
298.97141592653588
31
-1.6261385074650657e-10
0
LINE
5
129
100
AcDbEntity
8
BEND_EXTENT
100
AcDbLine
10
-197.95999999999998
20
1.7582379996394079e-14
30
-1.4866362045345904e-10
11
0
21
0
31
0
0
LINE
5
130
100
AcDbEntity
8
BEND_EXTENT
100
AcDbLine
10
0
20
199.95999999999998
30
0
11
-197.95999999999998
21
199.95999999999998
31
-1.4866362045345904e-10
0
ENDSEC
0
SECTION
2
OBJECTS
0
DICTIONARY
5
C
100
AcDbDictionary
3
ACAD_GROUP
350
D
3
ACAD_MLINESTYLE
350
17
0
DICTIONARY
5
D
100
AcDbDictionary
0
DICTIONARY
5
1A
330
C
100
AcDbDictionary
0
DICTIONARY
5
17
100
AcDbDictionary
0
ENDSEC
0
EOF
