0
SECTION
2
HEADER
9
$INSUNITS
70
1
9
$ACADVER
1
AC1014
9
$HANDSEED
5
FFFF
0
ENDSEC
0
SECTION
2
TABLES
0
TABLE
2
VPORT
5
8
100
AcDbSymbolTable
0
ENDTAB
0
TABLE
2
LTYPE
5
5
100
AcDbSymbolTable
0
LTYPE
5
14
100
AcDbSymbolTableRecord
100
AcDbLinetypeTableRecord
2
BYBLOCK
70
0
0
LTYPE
5
15
100
AcDbSymbolTableRecord
100
AcDbLinetypeTableRecord
2
BYLAYER
70
0
0
ENDTAB
0
TABLE
2
LAYER
5
2
100
AcDbSymbolTable
70
2
0
LAYER
5
50
100
AcDbSymbolTableRecord
100
AcDbLayerTableRecord
2
0
70
0
6
CONTINUOUS
0
ENDTAB
0
TABLE
2
STYLE
5
3
100
AcDbSymbolTable
70
1
0
STYLE
5
11
100
AcDbSymbolTableRecord
100
AcDbTextStyleTableRecord
2
STANDARD
70
0
0
ENDTAB
0
TABLE
2
VIEW
5
6
100
AcDbSymbolTable
70
0
0
ENDTAB
0
TABLE
2
UCS
5
7
100
AcDbSymbolTable
70
0
0
ENDTAB
0
TABLE
2
APPID
5
9
100
AcDbSymbolTable
70
2
0
APPID
5
12
100
AcDbSymbolTableRecord
100
AcDbRegAppTableRecord
2
ACAD
70
0
0
ENDTAB
0
TABLE
2
DIMSTYLE
5
A
100
AcDbSymbolTable
70
1
0
ENDTAB
0
TABLE
2
BLOCK_RECORD
5
1
100
AcDbSymbolTable
70
1
0
BLOCK_RECORD
5
1F
100
AcDbSymbolTableRecord
100
AcDbBlockTableRecord
2
*MODEL_SPACE
0
BLOCK_RECORD
5
1B
100
AcDbSymbolTableRecord
100
AcDbBlockTableRecord
2
*PAPER_SPACE
0
ENDTAB
0
ENDSEC
0
SECTION
2
BLOCKS
0
BLOCK
5
20
100
AcDbEntity
100
AcDbBlockBegin
2
*MODEL_SPACE
0
ENDBLK
5
21
100
AcDbEntity
100
AcDbBlockEnd
0
BLOCK
5
1C
100
AcDbEntity
100
AcDbBlockBegin
2
*PAPER_SPACE
0
ENDBLK
5
1D
100
AcDbEntity
100
AcDbBlockEnd
0
ENDSEC
0
SECTION
2
ENTITIES
0
CIRCLE
5
100
100
AcDbEntity
8
0
100
AcDbCircle
10
0.28984314260445154
20
0.16733826755207204
30
4.3709567898628207e-17
40
0.059055118110236303
210
0
220
-0
230
1
0
CIRCLE
5
101
100
AcDbEntity
8
0
100
AcDbCircle
10
-0.28984314260391048
20
-0.16733826755325507
30
4.3709567898628207e-17
40
0.059055118110236303
210
0
220
-0
230
1
0
CIRCLE
5
102
100
AcDbEntity
8
0
100
AcDbCircle
10
2.3805764770527247e-06
20
0.33468065838367672
30
4.3709567898628207e-17
40
0.059055118110236303
210
0
220
-0
230
1
0
CIRCLE
5
103
100
AcDbEntity
8
0
100
AcDbCircle
10
0.28984076202824494
20
-0.16734239083219618
30
4.3709567898628207e-17
40
0.059055118110236303
210
0
220
-0
230
1
0
CIRCLE
5
104
100
AcDbEntity
8
0
100
AcDbCircle
10
-2.3805759358940113e-06
20
-0.33468065838485989
30
4.3709567898628207e-17
40
0.059055118110236303
210
0
220
-0
230
1
0
CIRCLE
5
105
100
AcDbEntity
8
0
100
AcDbCircle
10
-0.28984076202770381
20
0.16734239083101307
30
4.3709567898628207e-17
40
0.059055118110236303
210
0
220
-0
230
1
0
ARC
5
106
100
AcDbEntity
8
0
100
AcDbCircle
10
-2.444917347366227e-06
20
-3.4970624706616941e-05
30
4.3709567898628207e-17
40
0.51375944881885427
210
0
220
0
230
1
100
AcDbArc
50
169.10395895971135
51
174.8960402681173
0
SPLINE
5
107
100
AcDbEntity
8
0
100
AcDbSpline
70
4
71
5
72
66
73
60
74
0
42
0.000000001
43
0.0000000001
44
0.0000000001
40
0
40
0
40
0
40
0
40
0
40
0
40
0.018181818181818181
40
0.036363636363636362
40
0.054545454545454543
40
0.072727272727272724
40
0.090909090909090912
40
0.1090909090909091
40
0.12727272727272729
40
0.14545454545454548
40
0.16363636363636366
40
0.18181818181818185
40
0.20000000000000004
40
0.21818181818181823
40
0.23636363636363641
40
0.25454545454545457
40
0.27272727272727276
40
0.29090909090909095
40
0.30909090909090914
40
0.32727272727272733
40
0.34545454545454551
40
0.3636363636363637
40
0.38181818181818189
40
0.40000000000000008
40
0.41818181818181827
40
0.43636363636363645
40
0.45454545454545464
40
0.47272727272727283
40
0.49090909090909102
40
0.50909090909090915
40
0.52727272727272734
40
0.54545454545454553
40
0.56363636363636371
40
0.5818181818181819
40
0.60000000000000009
40
0.61818181818181828
40
0.63636363636363646
40
0.65454545454545465
40
0.67272727272727284
40
0.69090909090909103
40
0.70909090909090922
40
0.7272727272727274
40
0.74545454545454559
40
0.76363636363636378
40
0.78181818181818197
40
0.80000000000000016
40
0.81818181818181834
40
0.83636363636363653
40
0.85454545454545472
40
0.87272727272727291
40
0.89090909090909109
40
0.90909090909090928
40
0.92727272727272747
40
0.94545454545454566
40
0.96363636363636385
40
0.98181818181818203
40
1
40
1
40
1
40
1
40
1
40
1
41
1
41
1
41
1
41
1
41
1
41
1
41
1
41
1
41
1
41
1
41
1
41
1
41
1
41
1
41
1
41
1
41
1
41
1
41
1
41
1
41
1
41
1
41
1
41
1
41
1
41
1
41
1
41
1
41
1
41
1
41
1
41
1
41
1
41
1
41
1
41
1
41
1
41
1
41
1
41
1
41
1
41
1
41
1
41
1
41
1
41
1
41
1
41
1
41
1
41
1
41
1
41
1
41
1
41
1
41
1
41
1
41
1
41
1
41
1
41
1
10
-0.5117247961718866
20
0.045670679760983546
30
4.3709567898628207e-17
10
-0.51269344759269664
20
0.045779449221174037
30
4.3709567898628207e-17
10
-0.51458735985874637
20
0.045989876449659496
30
4.3709567898628207e-17
10
-0.51729805630721015
20
0.046284182204496378
30
4.3709567898628207e-17
10
-0.52065183613449706
20
0.046633896839592119
30
4.3709567898628207e-17
10
-0.52441196190648853
20
0.046999943188664468
30
4.3709567898628207e-17
10
-0.52774755035741738
20
0.047295299909209894
30
4.3709567898628207e-17
10
-0.53067473601436566
20
0.047520952956709391
30
4.3709567898628207e-17
10
-0.5332215302959854
20
0.047678711596524932
30
4.3709567898628207e-17
10
-0.53543060688733335
20
0.047771424583274158
30
4.3709567898628207e-17
10
-0.53736340897764345
20
0.047803272189411841
30
4.3709567898628207e-17
10
-0.53910051385065505
20
0.047779846717224524
30
4.3709567898628207e-17
10
-0.54072825566396676
20
0.047707440570592896
30
4.3709567898628207e-17
10
-0.54232682132362708
20
0.047592431877670663
30
4.3709567898628207e-17
10
-0.54395909728439351
20
0.047440686873568429
30
4.3709567898628207e-17
10
-0.54565594109800564
20
0.047256825896631632
30
4.3709567898628207e-17
10
-0.54741542062731896
20
0.047044048542477547
30
4.3709567898628207e-17
10
-0.54921671069244482
20
0.046804554608389073
30
4.3709567898628207e-17
10
-0.5510303942283441
20
0.046539811018196826
30
4.3709567898628207e-17
10
-0.5528293788477191
20
0.046250863912778446
30
4.3709567898628207e-17
10
-0.55460165097997083
20
0.045938672551394812
30
4.3709567898628207e-17
10
-0.55634902522544982
20
0.045604170455663388
30
4.3709567898628207e-17
10
-0.5580809667749016
20
0.045248225479063181
30
4.3709567898628207e-17
10
-0.55981004922568689
20
0.044871633968736391
30
4.3709567898628207e-17
10
-0.56154679758373161
20
0.04447510119459306
30
4.3709567898628207e-17
10
-0.56329463349200271
20
0.04405922712092266
30
4.3709567898628207e-17
10
-0.56505181879438793
20
0.043624524306489686
30
4.3709567898628207e-17
10
-0.56681369625232025
20
0.043171438386655603
30
4.3709567898628207e-17
10
-0.56857473764434552
20
0.042700367171417092
30
4.3709567898628207e-17
10
-0.57033083764280734
20
0.042211681869004952
30
4.3709567898628207e-17
10
-0.57208100328354283
20
0.041705743790917044
30
4.3709567898628207e-17
10
-0.57382617611369369
20
0.041182898884554599
30
4.3709567898628207e-17
10
-0.57556839974158902
20
0.040643475229984655
30
4.3709567898628207e-17
10
-0.57730991769669238
20
0.040087779969559145
30
4.3709567898628207e-17
10
-0.57905215634971396
20
0.039516096047653493
30
4.3709567898628207e-17
10
-0.58079525364228457
20
0.038928681714458166
30
4.3709567898628207e-17
10
-0.58253860921643863
20
0.038325775130031013
30
4.3709567898628207e-17
10
-0.5842812176573503
20
0.037707598207668495
30
4.3709567898628207e-17
10
-0.58602205556279674
20
0.037074360651338054
30
4.3709567898628207e-17
10
-0.58776052429527359
20
0.036426265087377382
30
4.3709567898628207e-17
10
-0.5894965442087795
20
0.035763508261626331
30
4.3709567898628207e-17
10
-0.59123032714286894
20
0.035086278787792545
30
4.3709567898628207e-17
10
-0.59296223530503422
20
0.034394756017676616
30
4.3709567898628207e-17
10
-0.59469261794183303
20
0.033689108916374014
30
4.3709567898628207e-17
10
-0.59642162536378507
20
0.032969494674258172
30
4.3709567898628207e-17
10
-0.59814920615564404
20
0.032236060437895668
30
4.3709567898628207e-17
10
-0.59987519255030386
20
0.031488946522733922
30
4.3709567898628207e-17
10
-0.60159935873295478
20
0.030728289548698193
30
4.3709567898628207e-17
10
-0.60332148670658603
20
0.029954225493778752
30
4.3709567898628207e-17
10
-0.60504143820764955
20
0.029166894003573449
30
4.3709567898628207e-17
10
-0.60675914928344721
20
0.028366434701002981
30
4.3709567898628207e-17
10
-0.60847460626824834
20
0.027552981835565621
30
4.3709567898628207e-17
10
-0.61018782819629547
20
0.026726659699922155
30
4.3709567898628207e-17
10
-0.61189884707392417
20
0.025887578040382497
30
4.3709567898628207e-17
10
-0.61360768799364052
20
0.025035827469509806
30
4.3709567898628207e-17
10
-0.61531436856518429
20
0.024171478751225821
30
4.3709567898628207e-17
10
-0.6166779939580822
20
0.023469961812058515
30
4.3709567898628207e-17
10
-0.61769974878106149
20
0.022938191435584624
30
4.3709567898628207e-17
10
-0.61838049035264731
20
0.022581175788882604
30
4.3709567898628207e-17
10
-0.61872075406072247
20
0.022402042449893383
30
4.3709567898628207e-17
0
ARC
5
108
100
AcDbEntity
8
0
100
AcDbCircle
10
-2.2448432409167372e-06
20
-3.4972370736148036e-05
30
4.3709567898628207e-17
40
0.61912520000591464
210
0
220
0
230
1
100
AcDbArc
50
177.923153812587
51
181.07684541524162
0
SPLINE
5
109
100
AcDbEntity
8
0
100
AcDbSpline
70
4
71
5
72
66
73
60
74
0
42
0.000000001
43
0.0000000001
44
0.0000000001
40
-1
40
-1
40
-1
40
-1
40
-1
40
-1
40
-0.98181818181818203
40
-0.96363636363636385
40
-0.94545454545454566
40
-0.92727272727272747
40
-0.90909090909090928
40
-0.89090909090909109
40
-0.87272727272727291
40
-0.85454545454545472
40
-0.83636363636363653
40
-0.81818181818181834
40
-0.80000000000000016
40
-0.78181818181818197
40
-0.76363636363636378
40
-0.74545454545454559
40
-0.7272727272727274
40
-0.70909090909090922
40
-0.69090909090909103
40
-0.67272727272727284
40
-0.65454545454545465
40
-0.63636363636363646
40
-0.61818181818181828
40
-0.60000000000000009
40
-0.5818181818181819
40
-0.56363636363636371
40
-0.54545454545454553
40
-0.52727272727272734
40
-0.50909090909090915
40
-0.49090909090909102
40
-0.47272727272727283
40
-0.45454545454545464
40
-0.43636363636363645
40
-0.41818181818181827
40
-0.40000000000000008
40
-0.38181818181818189
40
-0.3636363636363637
40
-0.34545454545454551
40
-0.32727272727272733
40
-0.30909090909090914
40
-0.29090909090909095
40
-0.27272727272727276
40
-0.25454545454545457
40
-0.23636363636363641
40
-0.21818181818181823
40
-0.20000000000000004
40
-0.18181818181818185
40
-0.16363636363636366
40
-0.14545454545454548
40
-0.12727272727272729
40
-0.1090909090909091
40
-0.090909090909090912
40
-0.072727272727272724
40
-0.054545454545454543
40
-0.036363636363636362
40
-0.018181818181818181
40
0
40
0
40
0
40
0
40
0
40
0
41
1
41
1
41
1
41
1
41
1
41
1
41
1
41
1
41
1
41
1
41
1
41
1
41
1
41
1
41
1
41
1
41
1
41
1
41
1
41
1
41
1
41
1
41
1
41
1
41
1
41
1
41
1
41
1
41
1
41
1
41
1
41
1
41
1
41
1
41
1
41
1
41
1
41
1
41
1
41
1
41
1
41
1
41
1
41
1
41
1
41
1
41
1
41
1
41
1
41
1
41
1
41
1
41
1
41
1
41
1
41
1
41
1
41
1
41
1
41
1
10
-0.61901810029363757
20
-0.011670434689761418
30
4.3709567898628207e-17
10
-0.61868101471971171
20
-0.011855479170943328
30
4.3709567898628207e-17
10
-0.61800660761551607
20
-0.012224321030101003
30
4.3709567898628207e-17
10
-0.61699428909090237
20
-0.012773842509456774
30
4.3709567898628207e-17
10
-0.61564311455327869
20
-0.01349905116698864
30
4.3709567898628207e-17
10
-0.61395177889462915
20
-0.014393053946568372
30
4.3709567898628207e-17
10
-0.61225806334867405
20
-0.015274498200805998
30
4.3709567898628207e-17
10
-0.61056194907336225
20
-0.016143313483885743
30
4.3709567898628207e-17
10
-0.60886340939860151
20
-0.016999409634967537
30
4.3709567898628207e-17
10
-0.60716241040759511
20
-0.017842677483043363
30
4.3709567898628207e-17
10
-0.60545893089979219
20
-0.018672993086577439
30
4.3709567898628207e-17
10
-0.6037529821958596
20
-0.01949022197801965
30
4.3709567898628207e-17
10
-0.6020446258019978
20
-0.020294223439587058
30
4.3709567898628207e-17
10
-0.60033399752353578
20
-0.021084855433918345
30
4.3709567898628207e-17
10
-0.59862131295114029
20
-0.021861978199158433
30
4.3709567898628207e-17
10
-0.59690679548087899
20
-0.022625451195174503
30
4.3709567898628207e-17
10
-0.59519061040546395
20
-0.023375131199947108
30
4.3709567898628207e-17
10
-0.59347280656424894
20
-0.024110870191999458
30
4.3709567898628207e-17
10
-0.59175323092625509
20
-0.024832513628181077
30
4.3709567898628207e-17
10
-0.590031531349267
20
-0.025539898664328497
30
4.3709567898628207e-17
10
-0.58830734255083406
20
-0.026232852297355027
30
4.3709567898628207e-17
10
-0.5865804494318998
20
-0.026911189639392798
30
4.3709567898628207e-17
10
-0.58485092819264584
20
-0.027574712584552411
30
4.3709567898628207e-17
10
-0.58311937384307855
20
-0.028223208089683441
30
4.3709567898628207e-17
10
-0.58138680596971293
20
-0.028856448621912324
30
4.3709567898628207e-17
10
-0.57965422596131833
20
-0.029474194754819123
30
4.3709567898628207e-17
10
-0.5779222299279535
20
-0.030076197886919356
30
4.3709567898628207e-17
10
-0.57619067544190639
20
-0.030662202214770964
30
4.3709567898628207e-17
10
-0.57445813141164548
20
-0.03123194973071278
30
4.3709567898628207e-17
10
-0.57272234928903243
20
-0.031785172494191091
30
4.3709567898628207e-17
10
-0.57098128005120152
20
-0.032321578141018263
30
4.3709567898628207e-17
10
-0.56923397625679573
20
-0.032840837208758786
30
4.3709567898628207e-17
10
-0.56748142441298022
20
-0.033342571111317006
30
4.3709567898628207e-17
10
-0.5657277227436659
20
-0.033826337049095573
30
4.3709567898628207e-17
10
-0.56397839168558073
20
-0.03429164079184336
30
4.3709567898628207e-17
10
-0.56223807999055619
20
-0.034737955491987861
30
4.3709567898628207e-17
10
-0.560508516604586
20
-0.035164738333799711
30
4.3709567898628207e-17
10
-0.55878626993500979
20
-0.035571449160317459
30
4.3709567898628207e-17
10
-0.55706080427024851
20
-0.035957566495871666
30
4.3709567898628207e-17
10
-0.55531953402977807
20
-0.036322513554310341
30
4.3709567898628207e-17
10
-0.55355298031830724
20
-0.036665587804817018
30
4.3709567898628207e-17
10
-0.55175931251964527
20
-0.036985887537121759
30
4.3709567898628207e-17
10
-0.5499505256332704
20
-0.037282243972182945
30
4.3709567898628207e-17
10
-0.54815368966247802
20
-0.037553138300733716
30
4.3709567898628207e-17
10
-0.54639819159056502
20
-0.037796590423388614
30
4.3709567898628207e-17
10
-0.54470481503385348
20
-0.038010037428119446
30
4.3709567898628207e-17
10
-0.54307543599452901
20
-0.038190246486155273
30
4.3709567898628207e-17
10
-0.54147912098453332
20
-0.038333136501805705
30
4.3709567898628207e-17
10
-0.53985289074703824
20
-0.038433939654239101
30
4.3709567898628207e-17
10
-0.5381164592751021
20
-0.038487678242285196
30
4.3709567898628207e-17
10
-0.53618339574257967
20
-0.038489567560403316
30
4.3709567898628207e-17
10
-0.5339730375388505
20
-0.038435422426634898
30
4.3709567898628207e-17
10
-0.53142387787691237
20
-0.038322135537535301
30
4.3709567898628207e-17
10
-0.5284931998534641
20
-0.038147603331427464
30
4.3709567898628207e-17
10
-0.52515296474007278
20
-0.037910505685537624
30
4.3709567898628207e-17
10
-0.52138702325972741
20
-0.037610138381080016
30
4.3709567898628207e-17
10
-0.51802765086347624
20
-0.037319008583108722
30
4.3709567898628207e-17
10
-0.51531223092023959
20
-0.037072055865162913
30
4.3709567898628207e-17
10
-0.51341493464230359
20
-0.036894714037918386
30
4.3709567898628207e-17
10
-0.51244453246173771
20
-0.036802866455191811
30
4.3709567898628207e-17
0
ARC
5
110
100
AcDbEntity
8
0
100
AcDbCircle
10
-2.444917347366227e-06
20
-3.4970624706616941e-05
30
4.3709567898628207e-17
40
0.51375944881885538
210
0
220
0
230
1
100
AcDbArc
50
184.1039589597126
51
189.89604026811867
0
SPLINE
5
111
100
AcDbEntity
8
0
100
AcDbSpline
70
4
71
5
72
66
73
60
74
0
42
0.000000001
43
0.0000000001
44
0.0000000001
40
0
40
0
40
0
40
0
40
0
40
0
40
0.018181818181818181
40
0.036363636363636362
40
0.054545454545454543
40
0.072727272727272724
40
0.090909090909090912
40
0.1090909090909091
40
0.12727272727272729
40
0.14545454545454548
40
0.16363636363636366
40
0.18181818181818185
40
0.20000000000000004
40
0.21818181818181823
40
0.23636363636363641
40
0.25454545454545457
40
0.27272727272727276
40
0.29090909090909095
40
0.30909090909090914
40
0.32727272727272733
40
0.34545454545454551
40
0.3636363636363637
40
0.38181818181818189
40
0.40000000000000008
40
0.41818181818181827
40
0.43636363636363645
40
0.45454545454545464
40
0.47272727272727283
40
0.49090909090909102
40
0.50909090909090915
40
0.52727272727272734
40
0.54545454545454553
40
0.56363636363636371
40
0.5818181818181819
40
0.60000000000000009
40
0.61818181818181828
40
0.63636363636363646
40
0.65454545454545465
40
0.67272727272727284
40
0.69090909090909103
40
0.70909090909090922
40
0.7272727272727274
40
0.74545454545454559
40
0.76363636363636378
40
0.78181818181818197
40
0.80000000000000016
40
0.81818181818181834
40
0.83636363636363653
40
0.85454545454545472
40
0.87272727272727291
40
0.89090909090909109
40
0.90909090909090928
40
0.92727272727272747
40
0.94545454545454566
40
0.96363636363636385
40
0.98181818181818203
40
1
40
1
40
1
40
1
40
1
40
1
41
1
41
1
41
1
41
1
41
1
41
1
41
1
41
1
41
1
41
1
41
1
41
1
41
1
41
1
41
1
41
1
41
1
41
1
41
1
41
1
41
1
41
1
41
1
41
1
41
1
41
1
41
1
41
1
41
1
41
1
41
1
41
1
41
1
41
1
41
1
41
1
41
1
41
1
41
1
41
1
41
1
41
1
41
1
41
1
41
1
41
1
41
1
41
1
41
1
41
1
41
1
41
1
41
1
41
1
41
1
41
1
41
1
41
1
41
1
41
1
10
-0.50611777267208713
20
-0.088330192819158007
30
4.3709567898628207e-17
10
-0.50708156970405038
20
-0.088475835024216382
30
4.3709567898628207e-17
10
-0.50896541104908766
20
-0.088762758493868721
30
4.3709567898628207e-17
10
-0.51165991469054584
20
-0.089180060830793398
30
4.3709567898628207e-17
10
-0.51498993004948546
20
-0.089710284525300679
30
4.3709567898628207e-17
10
-0.51871667240928643
20
-0.090329903064884851
30
4.3709567898628207e-17
10
-0.52201504738415294
20
-0.09090792419827054
30
4.3709567898628207e-17
10
-0.52490089491460767
20
-0.091447571488485951
30
4.3709567898628207e-17
10
-0.52740174022575925
20
-0.09195434720801679
30
4.3709567898628207e-17
10
-0.52955954024411589
20
-0.092436544433619067
30
4.3709567898628207e-17
10
-0.53143472646716727
20
-0.092906027999733021
30
4.3709567898628207e-17
10
-0.53310657796862981
20
-0.093378251092786677
30
4.3709567898628207e-17
10
-0.53466011573495642
20
-0.093869480641593533
30
4.3709567898628207e-17
10
-0.53617444515063406
20
-0.094394309745900684
30
4.3709567898628207e-17
10
-0.53771182815977436
20
-0.094963348269883147
30
4.3709567898628207e-17
10
-0.539303266700074
20
-0.095580119831481611
30
4.3709567898628207e-17
10
-0.54094772258664336
20
-0.096241033784763549
30
4.3709567898628207e-17
10
-0.5426256495898294
20
-0.096938575335547159
30
4.3709567898628207e-17
10
-0.54430901267462251
20
-0.097663713847536762
30
4.3709567898628207e-17
10
-0.54597191336563844
20
-0.098408426800431492
30
4.3709567898628207e-17
10
-0.54760299571934079
20
-0.09916867828006723
30
4.3709567898628207e-17
10
-0.54920425411824414
20
-0.09994403622693375
30
4.3709567898628207e-17
10
-0.5507850558515438
20
-0.10073611213057271
30
4.3709567898628207e-17
10
-0.552357752191457
20
-0.10154739106517496
30
4.3709567898628207e-17
10
-0.55393269205030693
20
-0.10237991586430269
30
4.3709567898628207e-17
10
-0.55551333576359141
20
-0.10323399259331976
30
4.3709567898628207e-17
10
-0.55709813706140288
20
-0.10410867629057262
30
4.3709567898628207e-17
10
-0.55868271273565162
20
-0.10500233112331786
30
4.3709567898628207e-17
10
-0.56026182589526874
20
-0.10591314202760778
30
4.3709567898628207e-17
10
-0.56183160717400538
20
-0.1068396879068419
30
4.3709567898628207e-17
10
-0.56339119095642543
20
-0.1077813627628765
30
4.3709567898628207e-17
10
-0.56494157624500518
20
-0.10873807612651409
30
4.3709567898628207e-17
10
-0.56648482192717697
20
-0.10971004002150155
30
4.3709567898628207e-17
10
-0.56802317458028317
20
-0.11069753843926163
30
4.3709567898628207e-17
10
-0.56955808520402551
20
-0.11170066724842061
30
4.3709567898628207e-17
10
-0.57108975387985439
20
-0.11271921270037016
30
4.3709567898628207e-17
10
-0.5726176623468674
20
-0.11375278936608471
30
4.3709567898628207e-17
10
-0.5741408968843067
20
-0.11480092267327481
30
4.3709567898628207e-17
10
-0.57565852323691213
20
-0.11586314518747644
30
4.3709567898628207e-17
10
-0.57717001560881476
20
-0.11693910624788972
30
4.3709567898628207e-17
10
-0.57867534798944875
20
-0.11802859519872434
30
4.3709567898628207e-17
10
-0.58017477381692961
20
-0.11913148468124055
30
4.3709567898628207e-17
10
-0.58166868937649152
20
-0.12024769520109956
30
4.3709567898628207e-17
10
-0.58315747574579124
20
-0.12137715394221252
30
4.3709567898628207e-17
10
-0.58464131879750703
20
-0.12251974797356291
30
4.3709567898628207e-17
10
-0.5861202069526612
20
-0.1236753218552368
30
4.3709567898628207e-17
10
-0.58759401447698512
20
-0.12484369663159724
30
4.3709567898628207e-17
10
-0.58906255860996082
20
-0.12602468189275615
30
4.3709567898628207e-17
10
-0.59052566397633288
20
-0.12721808987228325
30
4.3709567898628207e-17
10
-0.59198323316670898
20
-0.12842374989764968
30
4.3709567898628207e-17
10
-0.59343524054459262
20
-0.12964151055129514
30
4.3709567898628207e-17
10
-0.59488170765622794
20
-0.13087123862121117
30
4.3709567898628207e-17
10
-0.5963226850565867
20
-0.13211281897633154
30
4.3709567898628207e-17
10
-0.59775823206585443
20
-0.13336615389370937
30
4.3709567898628207e-17
10
-0.59918839637379495
20
-0.13463116234274841
30
4.3709567898628207e-17
10
-0.60061321330516526
20
-0.13590778052848237
30
4.3709567898628207e-17
10
-0.60174880834523536
20
-0.13693832607966996
30
4.3709567898628207e-17
10
-0.60259811541584618
20
-0.13771642642757126
30
4.3709567898628207e-17
10
-0.6031632588321153
20
-0.13823746594462683
30
4.3709567898628207e-17
10
-0.60344556521575787
20
-0.13849856219111145
30
4.3709567898628207e-17
0
ARC
5
112
100
AcDbEntity
8
0
100
AcDbCircle
10
-2.5393036049914024e-06
20
-3.4995034669073513e-05
30
4.3709567898628207e-17
40
0.61912490254527963
210
0
220
0
230
1
100
AcDbArc
50
192.92315305479491
51
196.07684617303374
0
SPLINE
5
113
100
AcDbEntity
8
0
100
AcDbSpline
70
4
71
5
72
66
73
60
74
0
42
0.000000001
43
0.0000000001
44
0.0000000001
40
-1
40
-1
40
-1
40
-1
40
-1
40
-1
40
-0.98181818181818203
40
-0.96363636363636385
40
-0.94545454545454566
40
-0.92727272727272747
40
-0.90909090909090928
40
-0.89090909090909109
40
-0.87272727272727291
40
-0.85454545454545472
40
-0.83636363636363653
40
-0.81818181818181834
40
-0.80000000000000016
40
-0.78181818181818197
40
-0.76363636363636378
40
-0.74545454545454559
40
-0.7272727272727274
40
-0.70909090909090922
40
-0.69090909090909103
40
-0.67272727272727284
40
-0.65454545454545465
40
-0.63636363636363646
40
-0.61818181818181828
40
-0.60000000000000009
40
-0.5818181818181819
40
-0.56363636363636371
40
-0.54545454545454553
40
-0.52727272727272734
40
-0.50909090909090915
40
-0.49090909090909102
40
-0.47272727272727283
40
-0.45454545454545464
40
-0.43636363636363645
40
-0.41818181818181827
40
-0.40000000000000008
40
-0.38181818181818189
40
-0.3636363636363637
40
-0.34545454545454551
40
-0.32727272727272733
40
-0.30909090909090914
40
-0.29090909090909095
40
-0.27272727272727276
40
-0.25454545454545457
40
-0.23636363636363641
40
-0.21818181818181823
40
-0.20000000000000004
40
-0.18181818181818185
40
-0.16363636363636366
40
-0.14545454545454548
40
-0.12727272727272729
40
-0.1090909090909091
40
-0.090909090909090912
40
-0.072727272727272724
40
-0.054545454545454543
40
-0.036363636363636362
40
-0.018181818181818181
40
0
40
0
40
0
40
0
40
0
40
0
41
1
41
1
41
1
41
1
41
1
41
1
41
1
41
1
41
1
41
1
41
1
41
1
41
1
41
1
41
1
41
1
41
1
41
1
41
1
41
1
41
1
41
1
41
1
41
1
41
1
41
1
41
1
41
1
41
1
41
1
41
1
41
1
41
1
41
1
41
1
41
1
41
1
41
1
41
1
41
1
41
1
41
1
41
1
41
1
41
1
41
1
41
1
41
1
41
1
41
1
41
1
41
1
41
1
41
1
41
1
41
1
41
1
41
1
41
1
41
1
10
-0.59491417362391752
20
-0.17148700669401523
30
4.3709567898628207e-17
10
-0.59454068092644063
20
-0.17157850177104603
30
4.3709567898628207e-17
10
-0.59379379038923086
20
-0.17176022624591533
30
4.3709567898628207e-17
10
-0.59267373915727262
20
-0.17202901592105629
30
4.3709567898628207e-17
10
-0.59118090696329584
20
-0.17237980398922403
30
4.3709567898628207e-17
10
-0.58931581722398974
20
-0.1728055944826673
30
4.3709567898628207e-17
10
-0.587451679075638
20
-0.1732186384119766
30
4.3709567898628207e-17
10
-0.58558849255090328
20
-0.17361886285504424
30
4.3709567898628207e-17
10
-0.5837262552237773
20
-0.17400617382046327
30
4.3709567898628207e-17
10
-0.58186496258867826
20
-0.17438045707882488
30
4.3709567898628207e-17
10
-0.58000462624588212
20
-0.17474158742469104
30
4.3709567898628207e-17
10
-0.57814529193308895
20
-0.17508943790238396
30
4.3709567898628207e-17
10
-0.57628705548118131
20
-0.1754238885079358
30
4.3709567898628207e-17
10
-0.57443008483001856
20
-0.17574483719279568
30
4.3709567898628207e-17
10
-0.57257462439722528
20
-0.17605220475634858
30
4.3709567898628207e-17
10
-0.57072092634129301
20
-0.17634591326640892
30
4.3709567898628207e-17
10
-0.5688691873913021
20
-0.17662586716203182
30
4.3709567898628207e-17
10
-0.56701949303321564
20
-0.17689193610600648
30
4.3709567898628207e-17
10
-0.56517173544916754
20
-0.17714393121377983
30
4.3709567898628207e-17
10
-0.56332561664306857
20
-0.1773816040488565
30
4.3709567898628207e-17
10
-0.56148082855566128
20
-0.17760469296103085
30
4.3709567898628207e-17
10
-0.55963721126971366
20
-0.17781296369060398
30
4.3709567898628207e-17
10
-0.55779488966252944
20
-0.17800624460403944
30
4.3709567898628207e-17
10
-0.55595449360926663
20
-0.17818448391737854
30
4.3709567898628207e-17
10
-0.55411706684471218
20
-0.17834772573915125
30
4.3709567898628207e-17
10
-0.55228363860425911
20
-0.17849599797968022
30
4.3709567898628207e-17
10
-0.55045484902880426
20
-0.17862921479300733
30
4.3709567898628207e-17
10
-0.54863062675054419
20
-0.1787470922289757
30
4.3709567898628207e-17
10
-0.54680965621850663
20
-0.17884901067757891
30
4.3709567898628207e-17
10
-0.544989834850092
20
-0.17893412936103342
30
4.3709567898628207e-17
10
-0.5431692591106152
20
-0.17900163555107823
30
4.3709567898628207e-17
10
-0.54134709911315104
20
-0.17905096579556953
30
4.3709567898628207e-17
10
-0.53952440573574201
20
-0.17908200973526409
30
4.3709567898628207e-17
10
-0.53770525216367226
20
-0.17909540035699426
30
4.3709567898628207e-17
10
-0.53589509864555562
20
-0.17909208906516083
30
4.3709567898628207e-17
10
-0.5340985718890332
20
-0.17907277014959722
30
4.3709567898628207e-17
10
-0.53231748241874188
20
-0.17903736677472268
30
4.3709567898628207e-17
10
-0.53054865537361384
20
-0.1789844690274415
30
4.3709567898628207e-17
10
-0.52878204900556802
20
-0.17891084635812457
30
4.3709567898628207e-17
10
-0.52700565586057557
20
-0.17881268424619615
30
4.3709567898628207e-17
10
-0.52521050185721818
20
-0.17868685078036672
30
4.3709567898628207e-17
10
-0.52339505213582804
20
-0.17853200117706436
30
4.3709567898628207e-17
10
-0.52157119547846742
20
-0.17835011101673998
30
4.3709567898628207e-17
10
-0.51976547259721317
20
-0.17814671947470656
30
4.3709567898628207e-17
10
-0.51800678162563463
20
-0.17792751983279056
30
4.3709567898628207e-17
10
-0.51631586132595453
20
-0.17769541570380795
30
4.3709567898628207e-17
10
-0.51469536049479181
20
-0.17744776996005224
30
4.3709567898628207e-17
10
-0.51311645594240685
20
-0.17717263438994862
30
4.3709567898628207e-17
10
-0.51151954838091329
20
-0.17684910340109219
30
4.3709567898628207e-17
10
-0.50982837580654128
20
-0.1764515893556991
30
4.3709567898628207e-17
10
-0.50796069082502293
20
-0.17595310063921515
30
4.3709567898628207e-17
10
-0.50583966254232848
20
-0.17532871765643876
30
4.3709567898628207e-17
10
-0.50340668419374102
20
-0.17455951985485621
30
4.3709567898628207e-17
10
-0.50062103886102638
20
-0.17363241940181975
30
4.3709567898628207e-17
10
-0.49745598488525339
20
-0.17253888419976424
30
4.3709567898628207e-17
10
-0.49389610552800201
20
-0.17127405428515718
30
4.3709567898628207e-17
10
-0.49072655090683232
20
-0.1701233749388289
30
4.3709567898628207e-17
10
-0.4881675727213492
20
-0.16918203453404276
30
4.3709567898628207e-17
10
-0.48638082468898941
20
-0.1685196790721929
30
4.3709567898628207e-17
10
-0.48546726006468266
20
-0.16817980255427117
30
4.3709567898628207e-17
0
ARC
5
114
100
AcDbEntity
8
0
100
AcDbCircle
10
-2.444917347366227e-06
20
-3.4970624706616941e-05
30
4.3709567898628207e-17
40
0.51375944881885915
210
0
220
0
230
1
100
AcDbArc
50
199.10395895971379
51
204.89604026811992
0
SPLINE
5
115
100
AcDbEntity
8
0
100
AcDbSpline
70
4
71
5
72
66
73
60
74
0
42
0.000000001
43
0.0000000001
44
0.0000000001
40
0
40
0
40
0
40
0
40
0
40
0
40
0.018181818181818181
40
0.036363636363636362
40
0.054545454545454543
40
0.072727272727272724
40
0.090909090909090912
40
0.1090909090909091
40
0.12727272727272729
40
0.14545454545454548
40
0.16363636363636366
40
0.18181818181818185
40
0.20000000000000004
40
0.21818181818181823
40
0.23636363636363641
40
0.25454545454545457
40
0.27272727272727276
40
0.29090909090909095
40
0.30909090909090914
40
0.32727272727272733
40
0.34545454545454551
40
0.3636363636363637
40
0.38181818181818189
40
0.40000000000000008
40
0.41818181818181827
40
0.43636363636363645
40
0.45454545454545464
40
0.47272727272727283
40
0.49090909090909102
40
0.50909090909090915
40
0.52727272727272734
40
0.54545454545454553
40
0.56363636363636371
40
0.5818181818181819
40
0.60000000000000009
40
0.61818181818181828
40
0.63636363636363646
40
0.65454545454545465
40
0.67272727272727284
40
0.69090909090909103
40
0.70909090909090922
40
0.7272727272727274
40
0.74545454545454559
40
0.76363636363636378
40
0.78181818181818197
40
0.80000000000000016
40
0.81818181818181834
40
0.83636363636363653
40
0.85454545454545472
40
0.87272727272727291
40
0.89090909090909109
40
0.90909090909090928
40
0.92727272727272747
40
0.94545454545454566
40
0.96363636363636385
40
0.98181818181818203
40
1
40
1
40
1
40
1
40
1
40
1
41
1
41
1
41
1
41
1
41
1
41
1
41
1
41
1
41
1
41
1
41
1
41
1
41
1
41
1
41
1
41
1
41
1
41
1
41
1
41
1
41
1
41
1
41
1
41
1
41
1
41
1
41
1
41
1
41
1
41
1
41
1
41
1
41
1
41
1
41
1
41
1
41
1
41
1
41
1
41
1
41
1
41
1
41
1
41
1
41
1
41
1
41
1
41
1
41
1
41
1
41
1
41
1
41
1
41
1
41
1
41
1
41
1
41
1
41
1
41
1
10
-0.46601982598092423
20
-0.21631389192150133
30
4.3709567898628207e-17
10
-0.46691308744893933
20
-0.21670402051622115
30
4.3709567898628207e-17
10
-0.46865847719827547
20
-0.21746874132372257
30
4.3709567898628207e-17
10
-0.47115316206219138
20
-0.21856921328778026
30
4.3709567898628207e-17
10
-0.47423247790900525
20
-0.21994324144335756
30
4.3709567898628207e-17
10
-0.47767186552352742
20
-0.22150629889210335
30
4.3709567898628207e-17
10
-0.48070824821877306
20
-0.2229183066944061
30
4.3709567898628207e-17
10
-0.4833560918828595
20
-0.22418647825130733
30
4.3709567898628207e-17
10
-0.48564055974867426
20
-0.22532325240236833
30
4.3709567898628207e-17
10
-0.48760003268890745
20
-0.22634749889625133
30
4.3709567898628207e-17
10
-0.48928981220259071
20
-0.22728631910543654
30
4.3709567898628207e-17
10
-0.49078247641555389
20
-0.22817515859595044
30
4.3709567898628207e-17
10
-0.49215593910341315
20
-0.22905173506498144
30
4.3709567898628207e-17
10
-0.4934828332278996
20
-0.22995061834454172
30
4.3709567898628207e-17
10
-0.49482055317391371
20
-0.23089817135337939
30
4.3709567898628207e-17
10
-0.49619813253431383
20
-0.23190582153697994
30
4.3709567898628207e-17
10
-0.49761549782705849
20
-0.23296983189568418
30
4.3709567898628207e-17
10
-0.49905571381597491
20
-0.23407788475921756
30
4.3709567898628207e-17
10
-0.50049403803736614
20
-0.23521400120176045
30
4.3709567898628207e-17
10
-0.50190753086603634
20
-0.23636372904508904
30
4.3709567898628207e-17
10
-0.50328626787428943
20
-0.23752023076101561
30
4.3709567898628207e-17
10
-0.5046322873129313
20
-0.23868360519627779
30
4.3709567898628207e-17
10
-0.50595422020433378
20
-0.23985783336308911
30
4.3709567898628207e-17
10
-0.50726335377679566
20
-0.2410485124032746
30
4.3709567898628207e-17
10
-0.50856915558777549
20
-0.24226029403813876
30
4.3709567898628207e-17
10
-0.50987488884915189
20
-0.24349436950484971
30
4.3709567898628207e-17
10
-0.51117930455295724
20
-0.24474942583643847
30
4.3709567898628207e-17
10
-0.51247859222996206
20
-0.24602274848207695
30
4.3709567898628207e-17
10
-0.51376816320494789
20
-0.24731122881747572
30
4.3709567898628207e-17
10
-0.51504464776399228
20
-0.24861249270305028
30
4.3709567898628207e-17
10
-0.51630736663065613
20
-0.24992573075178406
30
4.3709567898628207e-17
10
-0.51755730818238188
20
-0.25125111413800982
30
4.3709567898628207e-17
10
-0.5187964062759296
20
-0.25258938054021796
30
4.3709567898628207e-17
10
-0.52002675743598348
20
-0.25394138573006075
30
4.3709567898628207e-17
10
-0.52124973840800282
20
-0.2553075978558757
30
4.3709567898628207e-17
10
-0.52246559777803792
20
-0.25668786223725393
30
4.3709567898628207e-17
10
-0.52367393470087087
20
-0.25808167244255387
30
4.3709567898628207e-17
10
-0.52487398941836971
20
-0.25948833358181067
30
4.3709567898628207e-17
10
-0.52606498049019124
20
-0.26090715234494771
30
4.3709567898628207e-17
10
-0.5272464907942227
20
-0.26233765393365838
30
4.3709567898628207e-17
10
-0.52841854972791891
20
-0.26377962813804384
30
4.3709567898628207e-17
10
-0.52958143505657018
20
-0.26523301753361922
30
4.3709567898628207e-17
10
-0.53073555013696849
20
-0.26669784790091583
30
4.3709567898628207e-17
10
-0.53188128190805262
20
-0.26817414753514801
30
4.3709567898628207e-17
10
-0.53301883913773662
20
-0.26966185546071958
30
4.3709567898628207e-17
10
-0.53414825087239581
20
-0.27116081853734375
30
4.3709567898628207e-17
10
-0.53526944197917714
20
-0.27267083136472559
30
4.3709567898628207e-17
10
-0.53638228520668141
20
-0.27419166271913425
30
4.3709567898628207e-17
10
-0.53748665975295162
20
-0.27572308584166838
30
4.3709567898628207e-17
10
-0.53858251570104576
20
-0.2772649106639189
30
4.3709567898628207e-17
10
-0.53966986747776102
20
-0.27881698429253926
30
4.3709567898628207e-17
10
-0.54074877037298019
20
-0.28037918363118902
30
4.3709567898628207e-17
10
-0.54181930301717096
20
-0.28195141055638717
30
4.3709567898628207e-17
10
-0.542881548001789
20
-0.28353358602821072
30
4.3709567898628207e-17
10
-0.5439355723638607
20
-0.28512564412013208
30
4.3709567898628207e-17
10
-0.54498142673582406
20
-0.28672753235366621
30
4.3709567898628207e-17
10
-0.54581160249773286
20
-0.28801687654061947
30
4.3709567898628207e-17
10
-0.54643058294262981
20
-0.28898828060711612
30
4.3709567898628207e-17
10
-0.54684161461367919
20
-0.28963783601250231
30
4.3709567898628207e-17
10
-0.5470467249593608
20
-0.28996310188876973
30
4.3709567898628207e-17
0
ARC
5
116
100
AcDbEntity
8
0
100
AcDbCircle
10
-2.2990390575540519e-06
20
-3.4888090773708193e-05
30
4.3709567898628207e-17
40
0.61912516754414904
210
0
220
0
230
1
100
AcDbArc
50
207.92315372988949
51
211.07684549793902
0
SPLINE
5
117
100
AcDbEntity
8
0
100
AcDbSpline
70
4
71
5
72
66
73
60
74
0
42
0.000000001
43
0.0000000001
44
0.0000000001
40
-1
40
-1
40
-1
40
-1
40
-1
40
-1
40
-0.98181818181818203
40
-0.96363636363636385
40
-0.94545454545454566
40
-0.92727272727272747
40
-0.90909090909090928
40
-0.89090909090909109
40
-0.87272727272727291
40
-0.85454545454545472
40
-0.83636363636363653
40
-0.81818181818181834
40
-0.80000000000000016
40
-0.78181818181818197
40
-0.76363636363636378
40
-0.74545454545454559
40
-0.7272727272727274
40
-0.70909090909090922
40
-0.69090909090909103
40
-0.67272727272727284
40
-0.65454545454545465
40
-0.63636363636363646
40
-0.61818181818181828
40
-0.60000000000000009
40
-0.5818181818181819
40
-0.56363636363636371
40
-0.54545454545454553
40
-0.52727272727272734
40
-0.50909090909090915
40
-0.49090909090909102
40
-0.47272727272727283
40
-0.45454545454545464
40
-0.43636363636363645
40
-0.41818181818181827
40
-0.40000000000000008
40
-0.38181818181818189
40
-0.3636363636363637
40
-0.34545454545454551
40
-0.32727272727272733
40
-0.30909090909090914
40
-0.29090909090909095
40
-0.27272727272727276
40
-0.25454545454545457
40
-0.23636363636363641
40
-0.21818181818181823
40
-0.20000000000000004
40
-0.18181818181818185
40
-0.16363636363636366
40
-0.14545454545454548
40
-0.12727272727272729
40
-0.1090909090909091
40
-0.090909090909090912
40
-0.072727272727272724
40
-0.054545454545454543
40
-0.036363636363636362
40
-0.018181818181818181
40
0
40
0
40
0
40
0
40
0
40
0
41
1
41
1
41
1
41
1
41
1
41
1
41
1
41
1
41
1
41
1
41
1
41
1
41
1
41
1
41
1
41
1
41
1
41
1
41
1
41
1
41
1
41
1
41
1
41
1
41
1
41
1
41
1
41
1
41
1
41
1
41
1
41
1
41
1
41
1
41
1
41
1
41
1
41
1
41
1
41
1
41
1
41
1
41
1
41
1
41
1
41
1
41
1
41
1
41
1
41
1
41
1
41
1
41
1
41
1
41
1
41
1
41
1
41
1
41
1
41
1
10
-0.53026799578095785
20
-0.31961940577803238
30
4.3709567898628207e-17
10
-0.52988354887012701
20
-0.31961111621262484
30
4.3709567898628207e-17
10
-0.52911507425587201
20
-0.31959333908057386
30
4.3709567898628207e-17
10
-0.52796361995720631
20
-0.31956307937935075
30
4.3709567898628207e-17
10
-0.52643086415392903
20
-0.31951554123101877
30
4.3709567898628207e-17
10
-0.52451912311738702
20
-0.31944410251983801
30
4.3709567898628207e-17
10
-0.52261160030062481
20
-0.31936059786300464
30
4.3709567898628207e-17
10
-0.52070831460888467
20
-0.31926495683164791
30
4.3709567898628207e-17
10
-0.5188092880256312
20
-0.31915708800916026
30
4.3709567898628207e-17
10
-0.51691454576356277
20
-0.31903687989227836
30
4.3709567898628207e-17
10
-0.51502413143322645
20
-0.31890421454420576
30
4.3709567898628207e-17
10
-0.51313812207236986
20
-0.3187589811729532
30
4.3709567898628207e-17
10
-0.51125664130580295
20
-0.31860108866643616
30
4.3709567898628207e-17
10
-0.50937987776306715
20
-0.3184304819193513
30
4.3709567898628207e-17
10
-0.50750808803208314
20
-0.31824714768971268
30
4.3709567898628207e-17
10
-0.50564153584959115
20
-0.31805107596423077
30
4.3709567898628207e-17
10
-0.50378043597429245
20
-0.31784222535535783
30
4.3709567898628207e-17
10
-0.50192490471305118
20
-0.31762049209241555
30
4.3709567898628207e-17
10
-0.50007488680872814
20
-0.31738566582162253
30
4.3709567898628207e-17
10
-0.49823015871929849
20
-0.31713742944468881
30
4.3709567898628207e-17
10
-0.49639049060242357
20
-0.31687545049532045
30
4.3709567898628207e-17
10
-0.49455578862078692
20
-0.31659946130639649
30
4.3709567898628207e-17
10
-0.4927262178186288
20
-0.31630932841327414
30
4.3709567898628207e-17
10
-0.4909024000113047
20
-0.31600516482017588
30
4.3709567898628207e-17
10
-0.48908533195307508
20
-0.31568728327110984
30
4.3709567898628207e-17
10
-0.48727600058526321
20
-0.31535597711109886
30
4.3709567898628207e-17
10
-0.48547504645506517
20
-0.31501132909997115
30
4.3709567898628207e-17
10
-0.48368247411818444
20
-0.31465304649159154
30
4.3709567898628207e-17
10
-0.48189717321683206
20
-0.31428019029900811
30
4.3709567898628207e-17
10
-0.48011733042147425
20
-0.31389140420482442
30
4.3709567898628207e-17
10
-0.47834131740835151
20
-0.31348541050279544
30
4.3709567898628207e-17
10
-0.47656847840039779
20
-0.31306145014940412
30
4.3709567898628207e-17
10
-0.47479985703092825
20
-0.31261968853305672
30
4.3709567898628207e-17
10
-0.47303922386575664
20
-0.3121617912900061
30
4.3709567898628207e-17
10
-0.47129160685845273
20
-0.3116900906226614
30
4.3709567898628207e-17
10
-0.46956129536998414
20
-0.31120645464355418
30
4.3709567898628207e-17
10
-0.46785005811936836
20
-0.31071127773346996
30
4.3709567898628207e-17
10
-0.46615519333866912
20
-0.31020237630642833
30
4.3709567898628207e-17
10
-0.46446783757184945
20
-0.30967403089546941
30
4.3709567898628207e-17
10
-0.46277737977953259
20
-0.30911944919887741
30
4.3709567898628207e-17
10
-0.46107596226299929
20
-0.30853328335947394
30
4.3709567898628207e-17
10
-0.45936245051725538
20
-0.30791383716516146
30
4.3709567898628207e-17
10
-0.45764781690608425
20
-0.30726609592333248
30
4.3709567898628207e-17
10
-0.45595626414466034
20
-0.30660227930821699
30
4.3709567898628207e-17
10
-0.45431423215675792
20
-0.30593536599508442
30
4.3709567898628207e-17
10
-0.45274100153811453
20
-0.30527352824516812
30
4.3709567898628207e-17
10
-0.45123981336866864
20
-0.30461490434771998
30
4.3709567898628207e-17
10
-0.44978591900977427
20
-0.30394049322618172
30
4.3709567898628207e-17
10
-0.44832716073550899
20
-0.3032146761981972
30
4.3709567898628207e-17
10
-0.44679649767485874
20
-0.30239299944464682
30
4.3709567898628207e-17
10
-0.44512147088946807
20
-0.301428103875923
30
4.3709567898628207e-17
10
-0.44323431710037547
20
-0.30027603371281703
30
4.3709567898628207e-17
10
-0.44108332351926588
20
-0.29890334455808959
30
4.3709567898628207e-17
10
-0.43863254800357682
20
-0.29728685622220868
30
4.3709567898628207e-17
10
-0.43585836836362241
20
-0.29541140608106548
30
4.3709567898628207e-17
10
-0.43274715102469391
20
-0.29326830962476202
30
4.3709567898628207e-17
10
-0.42998341408783924
20
-0.29133649762571001
30
4.3709567898628207e-17
10
-0.42775526779415779
20
-0.28976492032670026
30
4.3709567898628207e-17
10
-0.42620083193270092
20
-0.28866268966008229
30
4.3709567898628207e-17
10
-0.42540636278387334
20
-0.28809794622982421
30
4.3709567898628207e-17
0
ARC
5
118
100
AcDbEntity
8
0
100
AcDbCircle
10
-2.444917347366227e-06
20
-3.4970624706616941e-05
30
4.3709567898628207e-17
40
0.51375944881886537
210
0
220
0
230
1
100
AcDbArc
50
214.10395895971487
51
219.8960402681208
0
SPLINE
5
119
100
AcDbEntity
8
0
100
AcDbSpline
70
4
71
5
72
66
73
60
74
0
42
0.000000001
43
0.0000000001
44
0.0000000001
40
0
40
0
40
0
40
0
40
0
40
0
40
0.018181818181818181
40
0.036363636363636362
40
0.054545454545454543
40
0.072727272727272724
40
0.090909090909090912
40
0.1090909090909091
40
0.12727272727272729
40
0.14545454545454548
40
0.16363636363636366
40
0.18181818181818185
40
0.20000000000000004
40
0.21818181818181823
40
0.23636363636363641
40
0.25454545454545457
40
0.27272727272727276
40
0.29090909090909095
40
0.30909090909090914
40
0.32727272727272733
40
0.34545454545454551
40
0.3636363636363637
40
0.38181818181818189
40
0.40000000000000008
40
0.41818181818181827
40
0.43636363636363645
40
0.45454545454545464
40
0.47272727272727283
40
0.49090909090909102
40
0.50909090909090915
40
0.52727272727272734
40
0.54545454545454553
40
0.56363636363636371
40
0.5818181818181819
40
0.60000000000000009
40
0.61818181818181828
40
0.63636363636363646
40
0.65454545454545465
40
0.67272727272727284
40
0.69090909090909103
40
0.70909090909090922
40
0.7272727272727274
40
0.74545454545454559
40
0.76363636363636378
40
0.78181818181818197
40
0.80000000000000016
40
0.81818181818181834
40
0.83636363636363653
40
0.85454545454545472
40
0.87272727272727291
40
0.89090909090909109
40
0.90909090909090928
40
0.92727272727272747
40
0.94545454545454566
40
0.96363636363636385
40
0.98181818181818203
40
1
40
1
40
1
40
1
40
1
40
1
41
1
41
1
41
1
41
1
41
1
41
1
41
1
41
1
41
1
41
1
41
1
41
1
41
1
41
1
41
1
41
1
41
1
41
1
41
1
41
1
41
1
41
1
41
1
41
1
41
1
41
1
41
1
41
1
41
1
41
1
41
1
41
1
41
1
41
1
41
1
41
1
41
1
41
1
41
1
41
1
41
1
41
1
41
1
41
1
41
1
41
1
41
1
41
1
41
1
41
1
41
1
41
1
41
1
41
1
41
1
41
1
41
1
41
1
41
1
41
1
10
-0.39416356490041099
20
-0.32955853995528533
30
4.3709567898628207e-17
10
-0.39492541651167457
20
-0.33016656832067587
30
4.3709567898628207e-17
10
-0.39641340923838697
20
-0.33135697200679387
30
4.3709567898628207e-17
10
-0.3985382666740605
20
-0.33306561825229147
30
4.3709567898628207e-17
10
-0.40115703272267528
20
-0.33518981312085178
30
4.3709567898628207e-17
10
-0.40407467700983785
20
-0.33758978969669828
30
4.3709567898628207e-17
10
-0.40664214296256312
20
-0.33973955816961526
30
4.3709567898628207e-17
10
-0.4088715365902349
20
-0.34164983019731404
30
4.3709567898628207e-17
10
-0.41078394430081377
20
-0.34333913350008161
30
4.3709567898628207e-17
10
-0.41241155532015644
20
-0.34483562855630623
30
4.3709567898628207e-17
10
-0.41380077244306812
20
-0.3461798063627663
30
4.3709567898628207e-17
10
-0.41501252676815942
20
-0.34742468930833575
30
4.3709567898628207e-17
10
-0.41611231516514458
20
-0.34862687545984389
30
4.3709567898628207e-17
10
-0.41716134835668328
20
-0.3498385555046431
30
4.3709567898628207e-17
10
-0.41820824183596844
20
-0.35110004882670137
30
4.3709567898628207e-17
10
-0.41927808225963825
20
-0.35242990793752199
30
4.3709567898628207e-17
10
-0.42037176585616981
20
-0.35382450415406574
30
4.3709567898628207e-17
10
-0.4214761224912289
20
-0.35526755635883905
30
4.3709567898628207e-17
10
-0.42257138843044911
20
-0.35673722627388638
30
4.3709567898628207e-17
10
-0.42363914619638077
20
-0.35821361695512771
30
4.3709567898628207e-17
10
-0.42467157921052517
20
-0.35968755522660384
30
4.3709567898628207e-17
10
-0.42567063068856331
20
-0.36115966410506478
30
4.3709567898628207e-17
10
-0.42664360719613398
20
-0.36263602282599317
30
4.3709567898628207e-17
10
-0.42759996271164874
20
-0.36412495916287552
30
4.3709567898628207e-17
10
-0.42854763823929376
20
-0.3656334167176325
30
4.3709567898628207e-17
10
-0.42948947748482857
20
-0.36716339071838866
30
4.3709567898628207e-17
10
-0.43042461382005626
20
-0.36871328966939132
30
4.3709567898628207e-17
10
-0.43135006919179397
20
-0.37027950529388265
30
4.3709567898628207e-17
10
-0.43226221585131575
20
-0.37185784725484416
30
4.3709567898628207e-17
10
-0.43315841337746014
20
-0.37344515016339469
30
4.3709567898628207e-17
10
-0.43403821512434665
20
-0.37504045640203437
30
4.3709567898628207e-17
10
-0.43490253148809516
20
-0.37664418712337711
30
4.3709567898628207e-17
10
-0.43575303950564936
20
-0.37825755538908717
30
4.3709567898628207e-17
10
-0.43659154277434553
20
-0.37988193043162144
30
4.3709567898628207e-17
10
-0.43741924996247
20
-0.38151812077549435
30
4.3709567898628207e-17
10
-0.43823644121994609
20
-0.38316604134970794
30
4.3709567898628207e-17
10
-0.43904286043417756
20
-0.38482509923248115
30
4.3709567898628207e-17
10
-0.43983795358592265
20
-0.38649442657177796
30
4.3709567898628207e-17
10
-0.44062114530362412
20
-0.38817315142984649
30
4.3709567898628207e-17
10
-0.44139215556510486
20
-0.38986070722759253
30
4.3709567898628207e-17
10
-0.44215106717245217
20
-0.39155689852647013
30
4.3709567898628207e-17
10
-0.44289816328888565
20
-0.39326174174963729
30
4.3709567898628207e-17
10
-0.44363382685465308
20
-0.39497536619559459
30
4.3709567898628207e-17
10
-0.44435842430072847
20
-0.39669789934258709
30
4.3709567898628207e-17
10
-0.44507217306307784
20
-0.398429336325821
30
4.3709567898628207e-17
10
-0.44577514083396513
20
-0.40016953674088607
30
4.3709567898628207e-17
10
-0.44646730820213421
20
-0.40191828274051317
30
4.3709567898628207e-17
10
-0.4471486120972773
20
-0.40367531804464124
30
4.3709567898628207e-17
10
-0.4478189945231868
20
-0.40544039235514551
30
4.3709567898628207e-17
10
-0.4484784564571252
20
-0.40721330916059612
30
4.3709567898628207e-17
10
-0.4491270514060241
20
-0.40899392451130651
30
4.3709567898628207e-17
10
-0.4497648646354887
20
-0.41078213381543
30
4.3709567898628207e-17
10
-0.45039199749294423
20
-0.41257786264403162
30
4.3709567898628207e-17
10
-0.45100855021264763
20
-0.4143810560266431
30
4.3709567898628207e-17
10
-0.45161460461042968
20
-0.41619166763356402
30
4.3709567898628207e-17
10
-0.45221022317589249
20
-0.41800965987907279
30
4.3709567898628207e-17
10
-0.45267840455339875
20
-0.41946993602616928
30
4.3709567898628207e-17
10
-0.45302487587817908
20
-0.42056844422938605
30
4.3709567898628207e-17
10
-0.45325378467489064
20
-0.42130224939560162
30
4.3709567898628207e-17
10
-0.45336772105151485
20
-0.42166951856967355
30
4.3709567898628207e-17
0
ARC
5
120
100
AcDbEntity
8
0
100
AcDbCircle
10
-2.3155822798327114e-06
20
-3.4843527540700039e-05
30
4.3709567898628207e-17
40
0.61912518126318283
210
0
220
0
230
1
100
AcDbArc
50
222.92315376483924
51
226.07684546298944
0
SPLINE
5
121
100
AcDbEntity
8
0
100
AcDbSpline
70
4
71
5
72
66
73
60
74
0
42
0.000000001
43
0.0000000001
44
0.0000000001
40
-1
40
-1
40
-1
40
-1
40
-1
40
-1
40
-0.98181818181818203
40
-0.96363636363636385
40
-0.94545454545454566
40
-0.92727272727272747
40
-0.90909090909090928
40
-0.89090909090909109
40
-0.87272727272727291
40
-0.85454545454545472
40
-0.83636363636363653
40
-0.81818181818181834
40
-0.80000000000000016
40
-0.78181818181818197
40
-0.76363636363636378
40
-0.74545454545454559
40
-0.7272727272727274
40
-0.70909090909090922
40
-0.69090909090909103
40
-0.67272727272727284
40
-0.65454545454545465
40
-0.63636363636363646
40
-0.61818181818181828
40
-0.60000000000000009
40
-0.5818181818181819
40
-0.56363636363636371
40
-0.54545454545454553
40
-0.52727272727272734
40
-0.50909090909090915
40
-0.49090909090909102
40
-0.47272727272727283
40
-0.45454545454545464
40
-0.43636363636363645
40
-0.41818181818181827
40
-0.40000000000000008
40
-0.38181818181818189
40
-0.3636363636363637
40
-0.34545454545454551
40
-0.32727272727272733
40
-0.30909090909090914
40
-0.29090909090909095
40
-0.27272727272727276
40
-0.25454545454545457
40
-0.23636363636363641
40
-0.21818181818181823
40
-0.20000000000000004
40
-0.18181818181818185
40
-0.16363636363636366
40
-0.14545454545454548
40
-0.12727272727272729
40
-0.1090909090909091
40
-0.090909090909090912
40
-0.072727272727272724
40
-0.054545454545454543
40
-0.036363636363636362
40
-0.018181818181818181
40
0
40
0
40
0
40
0
40
0
40
0
41
1
41
1
41
1
41
1
41
1
41
1
41
1
41
1
41
1
41
1
41
1
41
1
41
1
41
1
41
1
41
1
41
1
41
1
41
1
41
1
41
1
41
1
41
1
41
1
41
1
41
1
41
1
41
1
41
1
41
1
41
1
41
1
41
1
41
1
41
1
41
1
41
1
41
1
41
1
41
1
41
1
41
1
41
1
41
1
41
1
41
1
41
1
41
1
41
1
41
1
41
1
41
1
41
1
41
1
41
1
41
1
41
1
41
1
41
1
41
1
10
-0.42948509695189596
20
-0.44597265374460154
30
4.3709567898628207e-17
10
-0.4291158952492734
20
-0.44586514445688996
30
4.3709567898628207e-17
10
-0.42837820683282996
20
-0.44564907720000585
30
4.3709567898628207e-17
10
-0.4272738191749042
20
-0.44532183027096839
30
4.3709567898628207e-17
10
-0.4258055945372709
20
-0.44487920555235588
30
4.3709567898628207e-17
10
-0.42397748419592945
20
-0.44431540606671849
30
4.3709567898628207e-17
10
-0.42215657123856265
20
-0.44374104352821009
30
4.3709567898628207e-17
10
-0.42034289215454745
20
-0.44315605480076087
30
4.3709567898628207e-17
10
-0.41853649183862812
20
-0.44256035727241921
30
4.3709567898628207e-17
10
-0.41673742350356491
20
-0.44195384976482338
30
4.3709567898628207e-17
10
-0.41494575979820364
20
-0.44133642964702158
30
4.3709567898628207e-17
10
-0.4131616038103792
20
-0.44070800984102226
30
4.3709567898628207e-17
10
-0.41138509853403882
20
-0.44006853433578463
30
4.3709567898628207e-17
10
-0.40961644043363465
20
-0.43941799872460224
30
4.3709567898628207e-17
10
-0.40785588078134449
20
-0.43875645662654222
30
4.3709567898628207e-17
10
-0.40610367691892446
20
-0.43808396662959737
30
4.3709567898628207e-17
10
-0.40436004699923295
20
-0.43740054434010062
30
4.3709567898628207e-17
10
-0.4026251302238964
20
-0.43670611962569655
30
4.3709567898628207e-17
10
-0.40089892766218327
20
-0.43600047499863276
30
4.3709567898628207e-17
10
-0.39918130546015823
20
-0.43528324630854848
30
4.3709567898628207e-17
10
-0.39747212765577999
20
-0.43455405293009047
30
4.3709567898628207e-17
10
-0.39577137288651137
20
-0.43381261202979271
30
4.3709567898628207e-17
10
-0.39407923511603626
20
-0.43305883740730372
30
4.3709567898628207e-17
10
-0.39239628572421853
20
-0.43229299915397718
30
4.3709567898628207e-17
10
-0.39072340655763382
20
-0.43151565733631403
30
4.3709567898628207e-17
10
-0.38906147500511867
20
-0.43072735074306084
30
4.3709567898628207e-17
10
-0.38741108836793325
20
-0.42992832509988571
30
4.3709567898628207e-17
10
-0.38577232681482709
20
-0.42911829881484004
30
4.3709567898628207e-17
10
-0.38414436085024084
20
-0.42829607751442839
30
4.3709567898628207e-17
10
-0.38252578997311848
20
-0.42745988177243066
30
4.3709567898628207e-17
10
-0.38091537203819453
20
-0.42660805597818185
30
4.3709567898628207e-17
10
-0.37931267006838154
20
-0.4257396972243509
30
4.3709567898628207e-17
10
-0.37771864933038546
20
-0.42485523537605369
30
4.3709567898628207e-17
10
-0.37613652081272209
20
-0.42395725520861066
30
4.3709567898628207e-17
10
-0.37457053752720132
20
-0.42304931078670843
30
4.3709567898628207e-17
10
-0.37302435917525806
20
-0.42213431673679713
30
4.3709567898628207e-17
10
-0.37149959213501116
20
-0.42121311177962767
30
4.3709567898628207e-17
10
-0.3699941918526673
20
-0.42028288746410558
30
4.3709567898628207e-17
10
-0.36850107719410541
20
-0.41933582517814749
30
4.3709567898628207e-17
10
-0.36701175665939251
20
-0.41836261772302485
30
4.3709567898628207e-17
10
-0.36552002442169573
20
-0.41735606574329842
30
4.3709567898628207e-17
10
-0.36402522364534295
20
-0.41631423719240335
30
4.3709567898628207e-17
10
-0.36253666252738903
20
-0.41524478736422155
30
4.3709567898628207e-17
10
-0.36107455641106218
20
-0.41416578368131107
30
4.3709567898628207e-17
10
-0.35966108517322976
20
-0.41309660573712764
30
4.3709567898628207e-17
10
-0.35831275730240397
20
-0.41205013751522895
30
4.3709567898628207e-17
10
-0.35703318528759825
20
-0.41102541959433381
30
4.3709567898628207e-17
10
-0.3558033816200793
20
-0.40999769292484467
30
4.3709567898628207e-17
10
-0.35458218459871732
20
-0.40891905308876203
30
4.3709567898628207e-17
10
-0.35331634320982602
20
-0.40772920953991199
30
4.3709567898628207e-17
10
-0.3519481249278763
20
-0.40636366315730771
30
4.3709567898628207e-17
10
-0.35042345204445308
20
-0.4047624174914482
30
4.3709567898628207e-17
10
-0.34870102988871043
20
-0.40287978348079623
30
4.3709567898628207e-17
10
-0.34675214049136721
20
-0.40068406827059233
30
4.3709567898628207e-17
10
-0.34455789094516737
20
-0.39815451201802293
30
4.3709567898628207e-17
10
-0.34210735994469338
20
-0.39527919750188489
30
4.3709567898628207e-17
10
-0.33993778479709708
20
-0.39269790264551846
30
4.3709567898628207e-17
10
-0.33819231488291768
20
-0.39060318884826339
30
4.3709567898628207e-17
10
-0.33697612342746625
20
-0.38913619817546719
30
4.3709567898628207e-17
10
-0.33635489151367115
20
-0.38838507416446472
30
4.3709567898628207e-17
0
ARC
5
122
100
AcDbEntity
8
0
100
AcDbCircle
10
-2.444917347366227e-06
20
-3.4970624706616941e-05
30
4.3709567898628207e-17
40
0.51375944881887448
210
0
220
0
230
1
100
AcDbArc
50
229.10395895971573
51
234.89604026812142
0
SPLINE
5
123
100
AcDbEntity
8
0
100
AcDbSpline
70
4
71
5
72
66
73
60
74
0
42
0.000000001
43
0.0000000001
44
0.0000000001
40
0
40
0
40
0
40
0
40
0
40
0
40
0.018181818181818181
40
0.036363636363636362
40
0.054545454545454543
40
0.072727272727272724
40
0.090909090909090912
40
0.1090909090909091
40
0.12727272727272729
40
0.14545454545454548
40
0.16363636363636366
40
0.18181818181818185
40
0.20000000000000004
40
0.21818181818181823
40
0.23636363636363641
40
0.25454545454545457
40
0.27272727272727276
40
0.29090909090909095
40
0.30909090909090914
40
0.32727272727272733
40
0.34545454545454551
40
0.3636363636363637
40
0.38181818181818189
40
0.40000000000000008
40
0.41818181818181827
40
0.43636363636363645
40
0.45454545454545464
40
0.47272727272727283
40
0.49090909090909102
40
0.50909090909090915
40
0.52727272727272734
40
0.54545454545454553
40
0.56363636363636371
40
0.5818181818181819
40
0.60000000000000009
40
0.61818181818181828
40
0.63636363636363646
40
0.65454545454545465
40
0.67272727272727284
40
0.69090909090909103
40
0.70909090909090922
40
0.7272727272727274
40
0.74545454545454559
40
0.76363636363636378
40
0.78181818181818197
40
0.80000000000000016
40
0.81818181818181834
40
0.83636363636363653
40
0.85454545454545472
40
0.87272727272727291
40
0.89090909090909109
40
0.90909090909090928
40
0.92727272727272747
40
0.94545454545454566
40
0.96363636363636385
40
0.98181818181818203
40
1
40
1
40
1
40
1
40
1
40
1
41
1
41
1
41
1
41
1
41
1
41
1
41
1
41
1
41
1
41
1
41
1
41
1
41
1
41
1
41
1
41
1
41
1
41
1
41
1
41
1
41
1
41
1
41
1
41
1
41
1
41
1
41
1
41
1
41
1
41
1
41
1
41
1
41
1
41
1
41
1
41
1
41
1
41
1
41
1
41
1
41
1
41
1
41
1
41
1
41
1
41
1
41
1
41
1
41
1
41
1
41
1
41
1
41
1
41
1
41
1
41
1
41
1
41
1
41
1
41
1
10
-0.29544587487509799
20
-0.42034670130263713
30
4.3709567898628207e-17
10
-0.29602439770107503
20
-0.4211311933103854
30
4.3709567898628207e-17
10
-0.29715358915942319
20
-0.42266615583109957
30
4.3709567898628207e-17
10
-0.29876381364360949
20
-0.42486653494002524
30
4.3709567898628207e-17
10
-0.30074356531518043
20
-0.42759613615163689
30
4.3709567898628207e-17
10
-0.30294063363845247
20
-0.43066947741708794
30
4.3709567898628207e-17
10
-0.3048642142872322
20
-0.43341050339188364
30
4.3709567898628207e-17
10
-0.30652322838748219
20
-0.43583269400861463
30
4.3709567898628207e-17
10
-0.30793324851823367
20
-0.43795940323476246
30
4.3709567898628207e-17
10
-0.30911807861583612
20
-0.43982616318836404
30
4.3709567898628207e-17
10
-0.31011206049702617
20
-0.4414840950959697
30
4.3709567898628207e-17
10
-0.31096032587952604
20
-0.44300018478112613
30
4.3709567898628207e-17
10
-0.31171149122376812
20
-0.44444605361558193
30
4.3709567898628207e-17
10
-0.31241117360381554
20
-0.44588795643294288
30
4.3709567898628207e-17
10
-0.31309589655570552
20
-0.44737742138302145
30
4.3709567898628207e-17
10
-0.313785090185701
20
-0.4489388617203427
30
4.3709567898628207e-17
10
-0.31448055935631403
20
-0.45056900436724501
30
4.3709567898628207e-17
10
-0.31517379655792072
20
-0.45224871429026531
30
4.3709567898628207e-17
10
-0.31585136365129418
20
-0.45395178210186504
30
4.3709567898628207e-17
10
-0.31650062042735255
20
-0.45565422203596184
30
4.3709567898628207e-17
10
-0.31711639084368187
20
-0.45734515040559792
30
4.3709567898628207e-17
10
-0.31770039065389438
20
-0.45902567193996613
30
4.3709567898628207e-17
10
-0.31825810403652821
20
-0.46070354980796535
30
4.3709567898628207e-17
10
-0.31879650744712418
20
-0.4623892748907546
30
4.3709567898628207e-17
10
-0.31932147417030454
20
-0.46409160947588185
30
4.3709567898628207e-17
10
-0.31983523461186847
20
-0.46581321681093157
30
4.3709567898628207e-17
10
-0.3203373635826674
20
-0.46755233532916995
30
4.3709567898628207e-17
10
-0.32082591839495977
20
-0.4693047089260059
30
4.3709567898628207e-17
10
-0.32129847945158169
20
-0.47106535111622644
30
4.3709567898628207e-17
10
-0.32175331556446457
20
-0.47283052097768041
30
4.3709567898628207e-17
10
-0.32219024315646455
20
-0.47459917792243017
30
4.3709567898628207e-17
10
-0.32261003260039195
20
-0.4763719643805196
30
4.3709567898628207e-17
10
-0.32301398982608215
20
-0.47815048612863975
30
4.3709567898628207e-17
10
-0.32340350259134554
20
-0.47993653254912222
30
4.3709567898628207e-17
10
-0.3237795291185524
20
-0.48173119744304815
30
4.3709567898628207e-17
10
-0.32414236202974356
20
-0.48353447114627951
30
4.3709567898628207e-17
10
-0.32449190739859668
20
-0.4853457146535381
30
4.3709567898628207e-17
10
-0.32482785470025261
20
-0.48716394629339782
30
4.3709567898628207e-17
10
-0.32514987384256133
20
-0.48898817492154922
30
4.3709567898628207e-17
10
-0.32545784098632957
20
-0.49081778078954086
30
4.3709567898628207e-17
10
-0.32575188669545002
20
-0.49265259654898874
30
4.3709567898628207e-17
10
-0.32603228023396341
20
-0.49449271135147482
30
4.3709567898628207e-17
10
-0.32629935802883125
20
-0.49633834920198866
30
4.3709567898628207e-17
10
-0.32655344103139711
20
-0.49818972807437473
30
4.3709567898628207e-17
10
-0.32679474052777785
20
-0.50004689954617454
30
4.3709567898628207e-17
10
-0.32702335824301371
20
-0.50190974551719547
30
4.3709567898628207e-17
10
-0.32723933181029236
20
-0.50377805053913827
30
4.3709567898628207e-17
10
-0.32744266663853466
20
-0.50565155074067902
30
4.3709567898628207e-17
10
-0.32763337148962796
20
-0.50752998934187088
30
4.3709567898628207e-17
10
-0.3278114981684368
20
-0.50941317678017284
30
4.3709567898628207e-17
10
-0.32797713561561054
20
-0.51130098785946099
30
4.3709567898628207e-17
10
-0.32813039326176363
20
-0.51319334362011726
30
4.3709567898628207e-17
10
-0.32827138826461882
20
-0.51509019839994685
30
4.3709567898628207e-17
10
-0.32840023167043625
20
-0.51699152504409618
30
4.3709567898628207e-17
10
-0.32851701449824566
20
-0.51889729997703171
30
4.3709567898628207e-17
10
-0.32862180683626274
20
-0.52080750306727364
30
4.3709567898628207e-17
10
-0.32869608804220291
20
-0.52233919576835186
30
4.3709567898628207e-17
10
-0.32874643879867466
20
-0.52348994658973003
30
4.3709567898628207e-17
10
-0.32877762496486379
20
-0.52425799390748884
30
4.3709567898628207e-17
10
-0.32879262279666532
20
-0.52464223759216422
30
4.3709567898628207e-17
0
ARC
5
124
100
AcDbEntity
8
0
100
AcDbCircle
10
-2.4720007999776169e-06
20
-3.501660336448828e-05
30
4.3709567898628207e-17
40
0.61912494665774775
210
0
220
0
230
1
100
AcDbArc
50
237.92315316717307
51
241.07684606065544
0
SPLINE
5
125
100
AcDbEntity
8
0
100
AcDbSpline
70
4
71
5
72
66
73
60
74
0
42
0.000000001
43
0.0000000001
44
0.0000000001
40
-1
40
-1
40
-1
40
-1
40
-1
40
-1
40
-0.98181818181818203
40
-0.96363636363636385
40
-0.94545454545454566
40
-0.92727272727272747
40
-0.90909090909090928
40
-0.89090909090909109
40
-0.87272727272727291
40
-0.85454545454545472
40
-0.83636363636363653
40
-0.81818181818181834
40
-0.80000000000000016
40
-0.78181818181818197
40
-0.76363636363636378
40
-0.74545454545454559
40
-0.7272727272727274
40
-0.70909090909090922
40
-0.69090909090909103
40
-0.67272727272727284
40
-0.65454545454545465
40
-0.63636363636363646
40
-0.61818181818181828
40
-0.60000000000000009
40
-0.5818181818181819
40
-0.56363636363636371
40
-0.54545454545454553
40
-0.52727272727272734
40
-0.50909090909090915
40
-0.49090909090909102
40
-0.47272727272727283
40
-0.45454545454545464
40
-0.43636363636363645
40
-0.41818181818181827
40
-0.40000000000000008
40
-0.38181818181818189
40
-0.3636363636363637
40
-0.34545454545454551
40
-0.32727272727272733
40
-0.30909090909090914
40
-0.29090909090909095
40
-0.27272727272727276
40
-0.25454545454545457
40
-0.23636363636363641
40
-0.21818181818181823
40
-0.20000000000000004
40
-0.18181818181818185
40
-0.16363636363636366
40
-0.14545454545454548
40
-0.12727272727272729
40
-0.1090909090909091
40
-0.090909090909090912
40
-0.072727272727272724
40
-0.054545454545454543
40
-0.036363636363636362
40
-0.018181818181818181
40
0
40
0
40
0
40
0
40
0
40
0
41
1
41
1
41
1
41
1
41
1
41
1
41
1
41
1
41
1
41
1
41
1
41
1
41
1
41
1
41
1
41
1
41
1
41
1
41
1
41
1
41
1
41
1
41
1
41
1
41
1
41
1
41
1
41
1
41
1
41
1
41
1
41
1
41
1
41
1
41
1
41
1
41
1
41
1
41
1
41
1
41
1
41
1
41
1
41
1
41
1
41
1
41
1
41
1
41
1
41
1
41
1
41
1
41
1
41
1
41
1
41
1
41
1
41
1
41
1
41
1
10
-0.29943366514031772
20
-0.54193598555341527
30
4.3709567898628207e-17
10
-0.29910486913183348
20
-0.54173658312377571
30
4.3709567898628207e-17
10
-0.29844823915974711
20
-0.54133695036869456
30
4.3709567898628207e-17
10
-0.29746618033641387
20
-0.54073501754940079
30
4.3709567898628207e-17
10
-0.29616254394714242
20
-0.53992747040366196
30
4.3709567898628207e-17
10
-0.29454264699963278
20
-0.5389097321466888
30
4.3709567898628207e-17
10
-0.2929324361104394
20
-0.53788365358414347
30
4.3709567898628207e-17
10
-0.29133196286641544
20
-0.53684918317546337
30
4.3709567898628207e-17
10
-0.28974129201410193
20
-0.53580625274327787
30
4.3709567898628207e-17
10
-0.28816050113996744
20
-0.53475477832928053
30
4.3709567898628207e-17
10
-0.28658968698025233
20
-0.53369467960248118
30
4.3709567898628207e-17
10
-0.28502897164760033
20
-0.53262589913307612
30
4.3709567898628207e-17
10
-0.28347850776028027
20
-0.53154841982808854
30
4.3709567898628207e-17
10
-0.28193848622891898
20
-0.53046228827969322
30
4.3709567898628207e-17
10
-0.28040913588616501
20
-0.52936762131395254
30
4.3709567898628207e-17
10
-0.27889069014137874
20
-0.52826454212747376
30
4.3709567898628207e-17
10
-0.27738335567482525
20
-0.52715312225694089
30
4.3709567898628207e-17
10
-0.27588728509654215
20
-0.52603332998774399
30
4.3709567898628207e-17
10
-0.27440253572933532
20
-0.52490495551959593
30
4.3709567898628207e-17
10
-0.27292907252927973
20
-0.52376761246631154
30
4.3709567898628207e-17
10
-0.2714668626802188
20
-0.52262089798246525
30
4.3709567898628207e-17
10
-0.27001595875021317
20
-0.52146453334287246
30
4.3709567898628207e-17
10
-0.26857657040408672
20
-0.52029848548588042
30
4.3709567898628207e-17
10
-0.26714917964762147
20
-0.51912316318369145
30
4.3709567898628207e-17
10
-0.26573449332332333
20
-0.51793933565769168
30
4.3709567898628207e-17
10
-0.26433321947493854
20
-0.51674775042278431
30
4.3709567898628207e-17
10
-0.26294587145269738
20
-0.51554879942468157
30
4.3709567898628207e-17
10
-0.26157259957502393
20
-0.51434223141564872
30
4.3709567898628207e-17
10
-0.26021291173734223
20
-0.51312667803023582
30
4.3709567898628207e-17
10
-0.25886591570891099
20
-0.51190005799835747
30
4.3709567898628207e-17
10
-0.25753084017311079
20
-0.51066045063206367
30
4.3709567898628207e-17
10
-0.25620749673210164
20
-0.50940687069185242
30
4.3709567898628207e-17
10
-0.25489670650464363
20
-0.50813998322494258
30
4.3709567898628207e-17
10
-0.25360090207838887
20
-0.50686311599755096
30
4.3709567898628207e-17
10
-0.25232327168765278
20
-0.5055808027329971
30
4.3709567898628207e-17
10
-0.25106659597173031
20
-0.5042968059446723
30
4.3709567898628207e-17
10
-0.24983220949583007
20
-0.50301235153586532
30
4.3709567898628207e-17
10
-0.24861886425327331
20
-0.50172419758167497
30
4.3709567898628207e-17
10
-0.2474217439994526
20
-0.50042295915039936
30
4.3709567898628207e-17
10
-0.24623505545557181
20
-0.49909744841651565
30
4.3709567898628207e-17
10
-0.24505466758352082
20
-0.49773910515049546
30
4.3709567898628207e-17
10
-0.24388044597920425
20
-0.496345893137077
30
4.3709567898628207e-17
10
-0.24271940033469588
20
-0.49492761596099732
30
4.3709567898628207e-17
10
-0.24158638097904533
20
-0.49350695752814777
30
4.3709567898628207e-17
10
-0.24049779622026329
20
-0.49210837766290144
30
4.3709567898628207e-17
10
-0.23946625741343275
20
-0.49074859404896037
30
4.3709567898628207e-17
10
-0.23849550227149016
20
-0.48942761493749304
30
4.3709567898628207e-17
10
-0.23757359838295886
20
-0.4881166105941816
30
4.3709567898628207e-17
10
-0.2366731851734008
20
-0.4867586554723014
30
4.3709567898628207e-17
10
-0.23575843045502537
20
-0.48528173099970173
30
4.3709567898628207e-17
10
-0.23479026249131962
20
-0.48360859353251601
30
4.3709567898628207e-17
10
-0.23373197445086893
20
-0.48166729460982843
30
4.3709567898628207e-17
10
-0.23255550394387847
20
-0.47940301413985237
30
4.3709567898628207e-17
10
-0.23124131425652267
20
-0.47677770641828593
30
4.3709567898628207e-17
10
-0.22977652928441317
20
-0.47376642913259803
30
4.3709567898628207e-17
10
-0.22815368426037036
20
-0.47035484448921949
30
4.3709567898628207e-17
10
-0.22672612386301316
20
-0.46729997775422649
30
4.3709567898628207e-17
10
-0.22558228121856222
20
-0.46482487874235556
30
4.3709567898628207e-17
10
-0.22478721560704568
20
-0.46309310105343715
30
4.3709567898628207e-17
10
-0.22438155685662603
20
-0.46220678432176104
30
4.3709567898628207e-17
0
ARC
5
126
100
AcDbEntity
8
0
100
AcDbCircle
10
-2.444917347366227e-06
20
-3.4970624706616941e-05
30
4.3709567898628207e-17
40
0.51375944881888458
210
0
220
0
230
1
100
AcDbArc
50
244.10395895971627
51
249.89604026812208
0
SPLINE
5
127
100
AcDbEntity
8
0
100
AcDbSpline
70
4
71
5
72
66
73
60
74
0
42
0.000000001
43
0.0000000001
44
0.0000000001
40
0
40
0
40
0
40
0
40
0
40
0
40
0.018181818181818181
40
0.036363636363636362
40
0.054545454545454543
40
0.072727272727272724
40
0.090909090909090912
40
0.1090909090909091
40
0.12727272727272729
40
0.14545454545454548
40
0.16363636363636366
40
0.18181818181818185
40
0.20000000000000004
40
0.21818181818181823
40
0.23636363636363641
40
0.25454545454545457
40
0.27272727272727276
40
0.29090909090909095
40
0.30909090909090914
40
0.32727272727272733
40
0.34545454545454551
40
0.3636363636363637
40
0.38181818181818189
40
0.40000000000000008
40
0.41818181818181827
40
0.43636363636363645
40
0.45454545454545464
40
0.47272727272727283
40
0.49090909090909102
40
0.50909090909090915
40
0.52727272727272734
40
0.54545454545454553
40
0.56363636363636371
40
0.5818181818181819
40
0.60000000000000009
40
0.61818181818181828
40
0.63636363636363646
40
0.65454545454545465
40
0.67272727272727284
40
0.69090909090909103
40
0.70909090909090922
40
0.7272727272727274
40
0.74545454545454559
40
0.76363636363636378
40
0.78181818181818197
40
0.80000000000000016
40
0.81818181818181834
40
0.83636363636363653
40
0.85454545454545472
40
0.87272727272727291
40
0.89090909090909109
40
0.90909090909090928
40
0.92727272727272747
40
0.94545454545454566
40
0.96363636363636385
40
0.98181818181818203
40
1
40
1
40
1
40
1
40
1
40
1
41
1
41
1
41
1
41
1
41
1
41
1
41
1
41
1
41
1
41
1
41
1
41
1
41
1
41
1
41
1
41
1
41
1
41
1
41
1
41
1
41
1
41
1
41
1
41
1
41
1
41
1
41
1
41
1
41
1
41
1
41
1
41
1
41
1
41
1
41
1
41
1
41
1
41
1
41
1
41
1
41
1
41
1
41
1
41
1
41
1
41
1
41
1
41
1
41
1
41
1
41
1
41
1
41
1
41
1
41
1
41
1
41
1
41
1
41
1
41
1
10
-0.17659420334151438
20
-0.48249131280226509
30
4.3709567898628207e-17
10
-0.17694997200792775
20
-0.48339880661817514
30
4.3709567898628207e-17
10
-0.17764340966656345
20
-0.485173722813807
30
4.3709567898628207e-17
10
-0.17862926706220647
20
-0.4877158825855793
30
4.3709567898628207e-17
10
-0.17983508755236963
20
-0.49086487232812848
30
4.3709567898628207e-17
10
-0.1811618533363373
20
-0.4944021351548884
30
4.3709567898628207e-17
10
-0.18231045983849356
20
-0.49754762224152627
30
4.3709567898628207e-17
10
-0.183286035341549
20
-0.5003166631601963
30
4.3709567898628207e-17
10
-0.18409757735023202
20
-0.5027358465910996
30
4.3709567898628207e-17
10
-0.184758882312588
20
-0.50484565483664778
30
4.3709567898628207e-17
10
-0.18528989072929361
20
-0.50670435552598203
30
4.3709567898628207e-17
10
-0.18571685928519402
20
-0.50838833294415442
30
4.3709567898628207e-17
10
-0.18606821089994949
20
-0.50997935088977764
30
4.3709567898628207e-17
10
-0.18637086027073851
20
-0.51155321318537683
30
4.3709567898628207e-17
10
-0.1866467499577458
20
-0.51316914518843748
30
4.3709567898628207e-17
10
-0.1869083293871894
20
-0.51485575717360399
30
4.3709567898628207e-17
10
-0.18715818905721845
20
-0.51661035472342332
30
4.3709567898628207e-17
10
-0.1873930638556624
20
-0.518412252909347
30
4.3709567898628207e-17
10
-0.18760675702544533
20
-0.52023265736066371
30
4.3709567898628207e-17
10
-0.18779326703524202
20
-0.52204512807957426
30
4.3709567898628207e-17
10
-0.18795041111747285
20
-0.52383781257339102
30
4.3709567898628207e-17
10
-0.18807956063790798
20
-0.52561222199828561
30
4.3709567898628207e-17
10
-0.18818400365026866
20
-0.52737727440945159
30
4.3709567898628207e-17
10
-0.1882677636532924
20
-0.52914490885951693
30
4.3709567898628207e-17
10
-0.18833424595738604
20
-0.5309251091862548
30
4.3709567898628207e-17
10
-0.188384915669918
20
-0.53272102516079556
30
4.3709567898628207e-17
10
-0.18841981801672988
20
-0.5345308451932862
30
4.3709567898628207e-17
10
-0.18843817806648594
20
-0.5363499553977904
30
4.3709567898628207e-17
10
-0.18843894926513696
20
-0.53817291296162539
30
4.3709567898628207e-17
10
-0.18842142763531586
20
-0.5399956563670163
30
4.3709567898628207e-17
10
-0.18838570517909367
20
-0.5418171329699385
30
4.3709567898628207e-17
10
-0.18833235974633272
20
-0.54363816269731846
30
4.3709567898628207e-17
10
-0.18826223716279911
20
-0.5454606346098515
30
4.3709567898628207e-17
10
-0.1881762147733767
20
-0.54728663629630003
30
4.3709567898628207e-17
10
-0.18807493505324963
20
-0.54911747229357855
30
4.3709567898628207e-17
10
-0.18795868315486752
20
-0.55095320900300315
30
4.3709567898628207e-17
10
-0.18782753373910605
20
-0.55279320488295169
30
4.3709567898628207e-17
10
-0.18768144093724506
20
-0.55463643134189133
30
4.3709567898628207e-17
10
-0.18752034243177509
20
-0.55648184557379898
30
4.3709567898628207e-17
10
-0.18734427900592293
20
-0.5583288168956958
30
4.3709567898628207e-17
10
-0.18715342008767324
20
-0.56017721745387827
30
4.3709567898628207e-17
10
-0.18694800269198891
20
-0.56202720305282616
30
4.3709567898628207e-17
10
-0.18672829380560349
20
-0.5638790771384492
30
4.3709567898628207e-17
10
-0.18649454702792737
20
-0.5657331333256348
30
4.3709567898628207e-17
10
-0.1862469530964265
20
-0.56758947611933164
30
4.3709567898628207e-17
10
-0.18598564083652558
20
-0.56944801777189169
30
4.3709567898628207e-17
10
-0.18571070236121681
20
-0.57130855991642249
30
4.3709567898628207e-17
10
-0.18542221119004143
20
-0.57317084907272864
30
4.3709567898628207e-17
10
-0.18512024224587248
20
-0.5750346394781688
30
4.3709567898628207e-17
10
-0.18480489463076075
20
-0.57689976143747712
30
4.3709567898628207e-17
10
-0.18447628665791438
20
-0.57876611704002168
30
4.3709567898628207e-17
10
-0.18413454446544039
20
-0.58063365833940062
30
4.3709567898628207e-17
10
-0.18377979303725347
20
-0.58250237155197271
30
4.3709567898628207e-17
10
-0.18341214666399827
20
-0.58437225918904745
30
4.3709567898628207e-17
10
-0.1830316993651086
20
-0.5862433220358626
30
4.3709567898628207e-17
10
-0.18263852405101963
20
-0.58811555878705601
30
4.3709567898628207e-17
10
-0.18231384294396605
20
-0.58961428571575181
30
4.3709567898628207e-17
10
-0.18206464181128734
20
-0.59073885738843845
30
4.3709567898628207e-17
10
-0.18189598006126859
20
-0.59148880570221074
30
4.3709567898628207e-17
10
-0.1818110172707969
20
-0.59186383832532241
30
4.3709567898628207e-17
0
ARC
5
128
100
AcDbEntity
8
0
100
AcDbCircle
10
-2.4264484954174331e-06
20
-3.490402834571174e-05
30
4.3709567898628207e-17
40
0.61912506908369191
210
0
220
0
230
1
100
AcDbArc
50
252.92315347905779
51
256.07684574877089
0
SPLINE
5
129
100
AcDbEntity
8
0
100
AcDbSpline
70
4
71
5
72
66
73
60
74
0
42
0.000000001
43
0.0000000001
44
0.0000000001
40
-1
40
-1
40
-1
40
-1
40
-1
40
-1
40
-0.98181818181818203
40
-0.96363636363636385
40
-0.94545454545454566
40
-0.92727272727272747
40
-0.90909090909090928
40
-0.89090909090909109
40
-0.87272727272727291
40
-0.85454545454545472
40
-0.83636363636363653
40
-0.81818181818181834
40
-0.80000000000000016
40
-0.78181818181818197
40
-0.76363636363636378
40
-0.74545454545454559
40
-0.7272727272727274
40
-0.70909090909090922
40
-0.69090909090909103
40
-0.67272727272727284
40
-0.65454545454545465
40
-0.63636363636363646
40
-0.61818181818181828
40
-0.60000000000000009
40
-0.5818181818181819
40
-0.56363636363636371
40
-0.54545454545454553
40
-0.52727272727272734
40
-0.50909090909090915
40
-0.49090909090909102
40
-0.47272727272727283
40
-0.45454545454545464
40
-0.43636363636363645
40
-0.41818181818181827
40
-0.40000000000000008
40
-0.38181818181818189
40
-0.3636363636363637
40
-0.34545454545454551
40
-0.32727272727272733
40
-0.30909090909090914
40
-0.29090909090909095
40
-0.27272727272727276
40
-0.25454545454545457
40
-0.23636363636363641
40
-0.21818181818181823
40
-0.20000000000000004
40
-0.18181818181818185
40
-0.16363636363636366
40
-0.14545454545454548
40
-0.12727272727272729
40
-0.1090909090909091
40
-0.090909090909090912
40
-0.072727272727272724
40
-0.054545454545454543
40
-0.036363636363636362
40
-0.018181818181818181
40
0
40
0
40
0
40
0
40
0
40
0
41
1
41
1
41
1
41
1
41
1
41
1
41
1
41
1
41
1
41
1
41
1
41
1
41
1
41
1
41
1
41
1
41
1
41
1
41
1
41
1
41
1
41
1
41
1
41
1
41
1
41
1
41
1
41
1
41
1
41
1
41
1
41
1
41
1
41
1
41
1
41
1
41
1
41
1
41
1
41
1
41
1
41
1
41
1
41
1
41
1
41
1
41
1
41
1
41
1
41
1
41
1
41
1
41
1
41
1
41
1
41
1
41
1
41
1
41
1
41
1
10
-0.14897649050402906
20
-0.60096965872860753
30
4.3709567898628207e-17
10
-0.14871050709427308
20
-0.60069195210299853
30
4.3709567898628207e-17
10
-0.14817968381396304
20
-0.60013598816139468
30
4.3709567898628207e-17
10
-0.14738687951105789
20
-0.5993003901785795
30
4.3709567898628207e-17
10
-0.14633667203569931
20
-0.59818295360910245
30
4.3709567898628207e-17
10
-0.14503538178201947
20
-0.59678063376122381
30
4.3709567898628207e-17
10
-0.14374560617215634
20
-0.59537276473320366
30
4.3709567898628207e-17
10
-0.14246740837485231
20
-0.59395931009229419
30
4.3709567898628207e-17
10
-0.14120086857605757
20
-0.59254022074181734
30
4.3709567898628207e-17
10
-0.13994608344855267
20
-0.59111543566512204
30
4.3709567898628207e-17
10
-0.13870316722356307
20
-0.58968490230561832
30
4.3709567898628207e-17
10
-0.13747225271677577
20
-0.58824859679547126
30
4.3709567898628207e-17
10
-0.13625349177011081
20
-0.58680654212466643
30
4.3709567898628207e-17
10
-0.13504705673013387
20
-0.5853588327091136
30
4.3709567898628207e-17
10
-0.13385313839540089
20
-0.58390564062037398
30
4.3709567898628207e-17
10
-0.13267193033641228
20
-0.58244714526801755
30
4.3709567898628207e-17
10
-0.1315036136759159
20
-0.58098346924395616
30
4.3709567898628207e-17
10
-0.13034834403223142
20
-0.57951462141260179
30
4.3709567898628207e-17
10
-0.12920623107524629
20
-0.57804041395866679
30
4.3709567898628207e-17
10
-0.12807734095923157
20
-0.57656046459171928
30
4.3709567898628207e-17
10
-0.12696174625028256
20
-0.57507437569951347
30
4.3709567898628207e-17
10
-0.1258595698646337
20
-0.57358189165981399
30
4.3709567898628207e-17
10
-0.1247710228799393
20
-0.57208303480276945
30
4.3709567898628207e-17
10
-0.12369646508000211
20
-0.57057832472428793
30
4.3709567898628207e-17
10
-0.12263638013310937
20
-0.56906868737947647
30
4.3709567898628207e-17
10
-0.12159125848590883
20
-0.56755502806749303
30
4.3709567898628207e-17
10
-0.12056149455362997
20
-0.56603785824363695
30
4.3709567898628207e-17
10
-0.11954729856041947
20
-0.56451697412649937
30
4.3709567898628207e-17
10
-0.11854854932879687
20
-0.56299092661051453
30
4.3709567898628207e-17
10
-0.1175649237023814
20
-0.56145747441684579
30
4.3709567898628207e-17
10
-0.11659617375715087
20
-0.55991456267196626
30
4.3709567898628207e-17
10
-0.11564237251351317
20
-0.55836119094664693
30
4.3709567898628207e-17
10
-0.11470414098439904
20
-0.55679821414834751
30
4.3709567898628207e-17
10
-0.11378296757977349
20
-0.55522947625241537
30
4.3709567898628207e-17
10
-0.11288075848356301
20
-0.55366018167506126
30
4.3709567898628207e-17
10
-0.11199922577695404
20
-0.55209468440755449
30
4.3709567898628207e-17
10
-0.11113934126382895
20
-0.55053451399242992
30
4.3709567898628207e-17
10
-0.11030073853421135
20
-0.54897621596280122
30
4.3709567898628207e-17
10
-0.1094811944521084
20
-0.54740947863491773
30
4.3709567898628207e-17
10
-0.10867800876222931
20
-0.5458219959882743
30
4.3709567898628207e-17
10
-0.10788940673860622
20
-0.54420443028475063
30
4.3709567898628207e-17
10
-0.10711578556814386
20
-0.54255477990510481
30
4.3709567898628207e-17
10
-0.10636137873901222
20
-0.54088432862684255
30
4.3709567898628207e-17
10
-0.10563465954070879
20
-0.53921883096849621
30
4.3709567898628207e-17
10
-0.10494514651332026
20
-0.5375861600887516
30
4.3709567898628207e-17
10
-0.10430069443549313
20
-0.53600572808892732
30
4.3709567898628207e-17
10
-0.1037049115251239
20
-0.53447851033032967
30
4.3709567898628207e-17
10
-0.10315373364210298
20
-0.53297357109266408
30
4.3709567898628207e-17
10
-0.10263546591660064
20
-0.53142884308241667
30
4.3709567898628207e-17
10
-0.10213413689108793
20
-0.5297654876481378
30
4.3709567898628207e-17
10
-0.10163199829233276
20
-0.52789878064975737
30
4.3709567898628207e-17
10
-0.10111221567582117
20
-0.52574972478366111
30
4.3709567898628207e-17
10
-0.10056187133831485
20
-0.52325810482647084
30
4.3709567898628207e-17
10
-0.099971941216230195
20
-0.52038211497622344
30
4.3709567898628207e-17
10
-0.099336443493314858
20
-0.5170943302280554
30
4.3709567898628207e-17
10
-0.098651878652210728
20
-0.51337896931297411
30
4.3709567898628207e-17
10
-0.098063618887097304
20
-0.51005871481895226
30
4.3709567898628207e-17
10
-0.097599354498420735
20
-0.50737190449984781
30
4.3709567898628207e-17
10
-0.097279597138458948
20
-0.50549335758242375
30
4.3709567898628207e-17
10
-0.097117156524930942
20
-0.50453224915063843
30
4.3709567898628207e-17
0
ARC
5
130
100
AcDbEntity
8
0
100
AcDbCircle
10
-2.444917347366227e-06
20
-3.4970624706616941e-05
30
4.3709567898628207e-17
40
0.51375944881889579
210
0
220
0
230
1
100
AcDbArc
50
259.10395895971652
51
264.89604026812214
0
SPLINE
5
131
100
AcDbEntity
8
0
100
AcDbSpline
70
4
71
5
72
66
73
60
74
0
42
0.000000001
43
0.0000000001
44
0.0000000001
40
0
40
0
40
0
40
0
40
0
40
0
40
0.018181818181818181
40
0.036363636363636362
40
0.054545454545454543
40
0.072727272727272724
40
0.090909090909090912
40
0.1090909090909091
40
0.12727272727272729
40
0.14545454545454548
40
0.16363636363636366
40
0.18181818181818185
40
0.20000000000000004
40
0.21818181818181823
40
0.23636363636363641
40
0.25454545454545457
40
0.27272727272727276
40
0.29090909090909095
40
0.30909090909090914
40
0.32727272727272733
40
0.34545454545454551
40
0.3636363636363637
40
0.38181818181818189
40
0.40000000000000008
40
0.41818181818181827
40
0.43636363636363645
40
0.45454545454545464
40
0.47272727272727283
40
0.49090909090909102
40
0.50909090909090915
40
0.52727272727272734
40
0.54545454545454553
40
0.56363636363636371
40
0.5818181818181819
40
0.60000000000000009
40
0.61818181818181828
40
0.63636363636363646
40
0.65454545454545465
40
0.67272727272727284
40
0.69090909090909103
40
0.70909090909090922
40
0.7272727272727274
40
0.74545454545454559
40
0.76363636363636378
40
0.78181818181818197
40
0.80000000000000016
40
0.81818181818181834
40
0.83636363636363653
40
0.85454545454545472
40
0.87272727272727291
40
0.89090909090909109
40
0.90909090909090928
40
0.92727272727272747
40
0.94545454545454566
40
0.96363636363636385
40
0.98181818181818203
40
1
40
1
40
1
40
1
40
1
40
1
41
1
41
1
41
1
41
1
41
1
41
1
41
1
41
1
41
1
41
1
41
1
41
1
41
1
41
1
41
1
41
1
41
1
41
1
41
1
41
1
41
1
41
1
41
1
41
1
41
1
41
1
41
1
41
1
41
1
41
1
41
1
41
1
41
1
41
1
41
1
41
1
41
1
41
1
41
1
41
1
41
1
41
1
41
1
41
1
41
1
41
1
41
1
41
1
41
1
41
1
41
1
41
1
41
1
41
1
41
1
41
1
41
1
41
1
41
1
41
1
10
-0.045708095303000025
20
-0.51175732187929546
30
4.3709567898628207e-17
10
-0.045816864763194222
20
-0.51272597330014447
30
4.3709567898628207e-17
10
-0.046027291991686363
20
-0.51461988556626459
30
4.3709567898628207e-17
10
-0.046321597746531266
20
-0.51733058201481275
30
4.3709567898628207e-17
10
-0.046671312381633447
20
-0.52068436184216826
30
4.3709567898628207e-17
10
-0.04703735873070742
20
-0.5244444876141775
30
4.3709567898628207e-17
10
-0.047332715451249043
20
-0.52778007606506483
30
4.3709567898628207e-17
10
-0.047558368498740684
20
-0.53070726172192961
30
4.3709567898628207e-17
10
-0.047716127138547018
20
-0.53325405600345233
30
4.3709567898628207e-17
10
-0.047808840125288424
20
-0.535463132594719
30
4.3709567898628207e-17
10
-0.047840687731421715
20
-0.5373959346849847
30
4.3709567898628207e-17
10
-0.047817262259233689
20
-0.53913303955799008
30
4.3709567898628207e-17
10
-0.04774485611260422
20
-0.54076078137132466
30
4.3709567898628207e-17
10
-0.047629847419685588
20
-0.5423593470310204
30
4.3709567898628207e-17
10
-0.047478102415586615
20
-0.54399162299181925
30
4.3709567898628207e-17
10
-0.047294241438651484
20
-0.54568846680544791
30
4.3709567898628207e-17
10
-0.047081464084497315
20
-0.54744794633476002
30
4.3709567898628207e-17
10
-0.046841970150407461
20
-0.54924923639987222
30
4.3709567898628207e-17
10
-0.046577226560213576
20
-0.55106291993575507
30
4.3709567898628207e-17
10
-0.046288279454793961
20
-0.55286190455511919
30
4.3709567898628207e-17
10
-0.045976088093409799
20
-0.55463417668736781
30
4.3709567898628207e-17
10
-0.045641585997678459
20
-0.55638155093284869
30
4.3709567898628207e-17
10
-0.045285641021078883
20
-0.55811349248230568
30
4.3709567898628207e-17
10
-0.044909049510752856
20
-0.55984257493309597
30
4.3709567898628207e-17
10
-0.044512516736610219
20
-0.56157932329114391
30
4.3709567898628207e-17
10
-0.044096642662940125
20
-0.56332715919941612
30
4.3709567898628207e-17
10
-0.043661939848507178
20
-0.56508434450180178
30
4.3709567898628207e-17
10
-0.04320885392867263
20
-0.56684622195973189
30
4.3709567898628207e-17
10
-0.042737782713433412
20
-0.56860726335175371
30
4.3709567898628207e-17
10
-0.042249097411020731
20
-0.57036336335021254
30
4.3709567898628207e-17
10
-0.041743159332932593
20
-0.57211352899094725
30
4.3709567898628207e-17
10
-0.041220314426570329
20
-0.5738587018210991
30
4.3709567898628207e-17
10
-0.040680890772000808
20
-0.57560092544899666
30
4.3709567898628207e-17
10
-0.040125195511575826
20
-0.57734244340410235
30
4.3709567898628207e-17
10
-0.039553511589670465
20
-0.57908468205712393
30
4.3709567898628207e-17
10
-0.038966097256475173
20
-0.58082777934969276
30
4.3709567898628207e-17
10
-0.038363190672047888
20
-0.58257113492384582
30
4.3709567898628207e-17
10
-0.037745013749685301
20
-0.58431374336475916
30
4.3709567898628207e-17
10
-0.037111776193354241
20
-0.5860545812702056
30
4.3709567898628207e-17
10
-0.036463680629393126
20
-0.58779305000268456
30
4.3709567898628207e-17
10
-0.035800923803641638
20
-0.58952906991619025
30
4.3709567898628207e-17
10
-0.035123694329807914
20
-0.59126285285027946
30
4.3709567898628207e-17
10
-0.034432171559692637
20
-0.59299476101244375
30
4.3709567898628207e-17
10
-0.033726524458391242
20
-0.59472514364924067
30
4.3709567898628207e-17
10
-0.033006910216276747
20
-0.59645415107119137
30
4.3709567898628207e-17
10
-0.032273475979915034
20
-0.59818173186305046
30
4.3709567898628207e-17
10
-0.031526362064752983
20
-0.59990771825771139
30
4.3709567898628207e-17
10
-0.030765705090715485
20
-0.60163188444036364
30
4.3709567898628207e-17
10
-0.029991641035793
20
-0.60335401241399611
30
4.3709567898628207e-17
10
-0.029204309545584659
20
-0.60507396391506063
30
4.3709567898628207e-17
10
-0.028403850243012615
20
-0.60679167499085851
30
4.3709567898628207e-17
10
-0.02759039737757649
20
-0.60850713197565898
30
4.3709567898628207e-17
10
-0.026764075241937489
20
-0.61022035390370455
30
4.3709567898628207e-17
10
-0.025924993582404996
20
-0.61193137278133181
30
4.3709567898628207e-17
10
-0.025073243011539546
20
-0.61364021370104738
30
4.3709567898628207e-17
10
-0.024208894293259575
20
-0.61534689427259026
30
4.3709567898628207e-17
10
-0.023507377354090128
20
-0.6167105196654884
30
4.3709567898628207e-17
10
-0.022975606977610412
20
-0.61773227448846857
30
4.3709567898628207e-17
10
-0.0226185913309025
20
-0.6184130160600555
30
4.3709567898628207e-17
10
-0.022439457991909838
20
-0.61875327976813133
30
4.3709567898628207e-17
0
ARC
5
132
100
AcDbEntity
8
0
100
AcDbCircle
10
-2.44727762633608e-06
20
-3.5241090642472359e-05
30
4.3709567898628207e-17
40
0.61912472962619702
210
0
220
0
230
1
100
AcDbArc
50
267.92315261427666
51
271.07684661355216
0
SPLINE
5
133
100
AcDbEntity
8
0
100
AcDbSpline
70
4
71
5
72
66
73
60
74
0
42
0.000000001
43
0.0000000001
44
0.0000000001
40
-1
40
-1
40
-1
40
-1
40
-1
40
-1
40
-0.98181818181818203
40
-0.96363636363636385
40
-0.94545454545454566
40
-0.92727272727272747
40
-0.90909090909090928
40
-0.89090909090909109
40
-0.87272727272727291
40
-0.85454545454545472
40
-0.83636363636363653
40
-0.81818181818181834
40
-0.80000000000000016
40
-0.78181818181818197
40
-0.76363636363636378
40
-0.74545454545454559
40
-0.7272727272727274
40
-0.70909090909090922
40
-0.69090909090909103
40
-0.67272727272727284
40
-0.65454545454545465
40
-0.63636363636363646
40
-0.61818181818181828
40
-0.60000000000000009
40
-0.5818181818181819
40
-0.56363636363636371
40
-0.54545454545454553
40
-0.52727272727272734
40
-0.50909090909090915
40
-0.49090909090909102
40
-0.47272727272727283
40
-0.45454545454545464
40
-0.43636363636363645
40
-0.41818181818181827
40
-0.40000000000000008
40
-0.38181818181818189
40
-0.3636363636363637
40
-0.34545454545454551
40
-0.32727272727272733
40
-0.30909090909090914
40
-0.29090909090909095
40
-0.27272727272727276
40
-0.25454545454545457
40
-0.23636363636363641
40
-0.21818181818181823
40
-0.20000000000000004
40
-0.18181818181818185
40
-0.16363636363636366
40
-0.14545454545454548
40
-0.12727272727272729
40
-0.1090909090909091
40
-0.090909090909090912
40
-0.072727272727272724
40
-0.054545454545454543
40
-0.036363636363636362
40
-0.018181818181818181
40
0
40
0
40
0
40
0
40
0
40
0
41
1
41
1
41
1
41
1
41
1
41
1
41
1
41
1
41
1
41
1
41
1
41
1
41
1
41
1
41
1
41
1
41
1
41
1
41
1
41
1
41
1
41
1
41
1
41
1
41
1
41
1
41
1
41
1
41
1
41
1
41
1
41
1
41
1
41
1
41
1
41
1
41
1
41
1
41
1
41
1
41
1
41
1
41
1
41
1
41
1
41
1
41
1
41
1
41
1
41
1
41
1
41
1
41
1
41
1
41
1
41
1
41
1
41
1
41
1
41
1
10
0.011633019147744776
20
-0.61905062600104632
30
4.3709567898628207e-17
10
0.011818063628939437
20
-0.61871354042709692
30
4.3709567898628207e-17
10
0.01218690548811888
20
-0.61803913332286142
30
4.3709567898628207e-17
10
0.01273642696749629
20
-0.61702681479820831
30
4.3709567898628207e-17
10
0.013461635625036144
20
-0.6156756402605712
30
4.3709567898628207e-17
10
0.014355638404600947
20
-0.61398430460194942
30
4.3709567898628207e-17
10
0.015237082658811366
20
-0.61229058905604306
30
4.3709567898628207e-17
10
0.016105897941864861
20
-0.61059447478077844
30
4.3709567898628207e-17
10
0.016961994092930189
20
-0.60889593510604911
30
4.3709567898628207e-17
10
0.017805261941001894
20
-0.60719493611505126
30
4.3709567898628207e-17
10
0.018635577544541784
20
-0.60549145660723869
30
4.3709567898628207e-17
10
0.019452806435995042
20
-0.60378550790328556
30
4.3709567898628207e-17
10
0.020256807897573149
20
-0.60207715150940089
30
4.3709567898628207e-17
10
0.021047439891910741
20
-0.6003665232309251
30
4.3709567898628207e-17
10
0.021824562657151957
20
-0.5986538386585265
30
4.3709567898628207e-17
10
0.022588035653165032
20
-0.59693932118827142
30
4.3709567898628207e-17
10
0.023337715657932894
20
-0.59522313611286715
30
4.3709567898628207e-17
10
0.024073454649981365
20
-0.59350533227166102
30
4.3709567898628207e-17
10
0.024795098086160823
20
-0.59178575663367239
30
4.3709567898628207e-17
10
0.025502483122308267
20
-0.59006405705668485
30
4.3709567898628207e-17
10
0.026195436755335987
20
-0.58833986825824969
30
4.3709567898628207e-17
10
0.026873774097375569
20
-0.58661297513931054
30
4.3709567898628207e-17
10
0.027537297042536411
20
-0.5848834539000527
30
4.3709567898628207e-17
10
0.028185792547668103
20
-0.58315189955048174
30
4.3709567898628207e-17
10
0.028819033079896788
20
-0.58141933167711446
30
4.3709567898628207e-17
10
0.029436779212802921
20
-0.57968675166872197
30
4.3709567898628207e-17
10
0.030038782344902586
20
-0.57795475563536103
30
4.3709567898628207e-17
10
0.030624786672754291
20
-0.57622320114931769
30
4.3709567898628207e-17
10
0.031194534188697123
20
-0.57449065711906044
30
4.3709567898628207e-17
10
0.031747756952176284
20
-0.57275487499645028
30
4.3709567898628207e-17
10
0.032284162599003491
20
-0.57101380575861793
30
4.3709567898628207e-17
10
0.032803421666742688
20
-0.56926650196420558
30
4.3709567898628207e-17
10
0.033305155569298632
20
-0.56751395012038364
30
4.3709567898628207e-17
10
0.033788921507074583
20
-0.56576024845106399
30
4.3709567898628207e-17
10
0.03425422524982133
20
-0.56401091739297682
30
4.3709567898628207e-17
10
0.034700539949967073
20
-0.56227060569795562
30
4.3709567898628207e-17
10
0.035127322791782829
20
-0.5605410423119942
30
4.3709567898628207e-17
10
0.035534033618305982
20
-0.55881879564243064
30
4.3709567898628207e-17
10
0.03592015095386504
20
-0.5570933299776808
30
4.3709567898628207e-17
10
0.036285098012305055
20
-0.55535205973721513
30
4.3709567898628207e-17
10
0.036628172262807818
20
-0.55358550602573386
30
4.3709567898628207e-17
10
0.036948471995103156
20
-0.55179183822704969
30
4.3709567898628207e-17
10
0.037244828430152095
20
-0.54998305134064518
30
4.3709567898628207e-17
10
0.037515722758692999
20
-0.54818621536982937
30
4.3709567898628207e-17
10
0.03775917488134662
20
-0.54643071729791337
30
4.3709567898628207e-17
10
0.037972621886089221
20
-0.54473734074123026
30
4.3709567898628207e-17
10
0.038152830944150382
20
-0.5431079617019654
30
4.3709567898628207e-17
10
0.03829572095983174
20
-0.5415116466920441
30
4.3709567898628207e-17
10
0.038396524112286903
20
-0.53988541645460231
30
4.3709567898628207e-17
10
0.038450262700329731
20
-0.53814898498265873
30
4.3709567898628207e-17
10
0.038452152018408986
20
-0.53621592145004293
30
4.3709567898628207e-17
10
0.038398006884564274
20
-0.53400556324612802
30
4.3709567898628207e-17
10
0.038284719995364487
20
-0.53145640358394364
30
4.3709567898628207e-17
10
0.038110187789157653
20
-0.52852572556024702
30
4.3709567898628207e-17
10
0.037873090143200942
20
-0.5251854904466845
30
4.3709567898628207e-17
10
0.037572722838740615
20
-0.52141954896632825
30
4.3709567898628207e-17
10
0.037281593040841346
20
-0.51806017657025516
30
4.3709567898628207e-17
10
0.037034640323000273
20
-0.51534475662728152
30
4.3709567898628207e-17
10
0.036857298495849143
20
-0.51344746034958044
30
4.3709567898628207e-17
10
0.036765450913175152
20
-0.51247705816914657
30
4.3709567898628207e-17
0
ARC
5
134
100
AcDbEntity
8
0
100
AcDbCircle
10
-2.444917347366227e-06
20
-3.4970624706616941e-05
30
4.3709567898628207e-17
40
0.51375944881890756
210
-0
220
0
230
1
100
AcDbArc
50
274.10395895971641
51
279.89604026812179
0
SPLINE
5
135
100
AcDbEntity
8
0
100
AcDbSpline
70
4
71
5
72
66
73
60
74
0
42
0.000000001
43
0.0000000001
44
0.0000000001
40
0
40
0
40
0
40
0
40
0
40
0
40
0.018181818181818181
40
0.036363636363636362
40
0.054545454545454543
40
0.072727272727272724
40
0.090909090909090912
40
0.1090909090909091
40
0.12727272727272729
40
0.14545454545454548
40
0.16363636363636366
40
0.18181818181818185
40
0.20000000000000004
40
0.21818181818181823
40
0.23636363636363641
40
0.25454545454545457
40
0.27272727272727276
40
0.29090909090909095
40
0.30909090909090914
40
0.32727272727272733
40
0.34545454545454551
40
0.3636363636363637
40
0.38181818181818189
40
0.40000000000000008
40
0.41818181818181827
40
0.43636363636363645
40
0.45454545454545464
40
0.47272727272727283
40
0.49090909090909102
40
0.50909090909090915
40
0.52727272727272734
40
0.54545454545454553
40
0.56363636363636371
40
0.5818181818181819
40
0.60000000000000009
40
0.61818181818181828
40
0.63636363636363646
40
0.65454545454545465
40
0.67272727272727284
40
0.69090909090909103
40
0.70909090909090922
40
0.7272727272727274
40
0.74545454545454559
40
0.76363636363636378
40
0.78181818181818197
40
0.80000000000000016
40
0.81818181818181834
40
0.83636363636363653
40
0.85454545454545472
40
0.87272727272727291
40
0.89090909090909109
40
0.90909090909090928
40
0.92727272727272747
40
0.94545454545454566
40
0.96363636363636385
40
0.98181818181818203
40
1
40
1
40
1
40
1
40
1
40
1
41
1
41
1
41
1
41
1
41
1
41
1
41
1
41
1
41
1
41
1
41
1
41
1
41
1
41
1
41
1
41
1
41
1
41
1
41
1
41
1
41
1
41
1
41
1
41
1
41
1
41
1
41
1
41
1
41
1
41
1
41
1
41
1
41
1
41
1
41
1
41
1
41
1
41
1
41
1
41
1
41
1
41
1
41
1
41
1
41
1
41
1
41
1
41
1
41
1
41
1
41
1
41
1
41
1
41
1
41
1
41
1
41
1
41
1
41
1
41
1
10
0.08829277727714134
20
-0.50615029837949588
30
4.3709567898628207e-17
10
0.08843841948213009
20
-0.50711409541144836
30
4.3709567898628207e-17
10
0.088725342951658723
20
-0.50899793675646687
30
4.3709567898628207e-17
10
0.089142645288444913
20
-0.51169244039790396
30
4.3709567898628207e-17
10
0.089672868982857853
20
-0.51502245575682915
30
4.3709567898628207e-17
10
0.09029248752244752
20
-0.51874919811663234
30
4.3709567898628207e-17
10
0.090870508655923027
20
-0.52204757309151473
30
4.3709567898628207e-17
10
0.091410155946268959
20
-0.52493342062198944
30
4.3709567898628207e-17
10
0.091916931665930207
20
-0.52743426593315912
30
4.3709567898628207e-17
10
0.092399128891631405
20
-0.52959206595152852
30
4.3709567898628207e-17
10
0.092868612457795777
20
-0.53146725217458568
30
4.3709567898628207e-17
10
0.093340835550854068
20
-0.53313910367604822
30
4.3709567898628207e-17
10
0.0938320650996331
20
-0.53469264144237183
30
4.3709567898628207e-17
10
0.094356894203899769
20
-0.53620697085804536
30
4.3709567898628207e-17
10
0.094925932727848633
20
-0.53774435386718067
30
4.3709567898628207e-17
10
0.095542704289430527
20
-0.53933579240747576
30
4.3709567898628207e-17
10
0.096203618242714117
20
-0.54098024829404401
30
4.3709567898628207e-17
10
0.096901159793511174
20
-0.54265817529723348
30
4.3709567898628207e-17
10
0.097626298305517611
20
-0.5443415383820317
30
4.3709567898628207e-17
10
0.098371011258424762
20
-0.54600443907304896
30
4.3709567898628207e-17
10
0.099131262738064566
20
-0.54763552142674854
30
4.3709567898628207e-17
10
0.099906620684928268
20
-0.54923677982564922
30
4.3709567898628207e-17
10
0.10069869658856122
20
-0.55081758155894811
30
4.3709567898628207e-17
10
0.10150997552315785
20
-0.55239027789886541
30
4.3709567898628207e-17
10
0.10234250032228237
20
-0.55396521775772045
30
4.3709567898628207e-17
10
0.10319657705129881
20
-0.55554586147100671
30
4.3709567898628207e-17
10
0.10407126074855275
20
-0.55713066276881706
30
4.3709567898628207e-17
10
0.10496491558129981
20
-0.55871523844306303
30
4.3709567898628207e-17
10
0.10587572648559143
20
-0.56029435160267693
30
4.3709567898628207e-17
10
0.10680227236482699
20
-0.56186413288141146
30
4.3709567898628207e-17
10
0.10774394722086188
20
-0.56342371666383151
30
4.3709567898628207e-17
10
0.10870066058449918
20
-0.56497410195241249
30
4.3709567898628207e-17
10
0.10967262447948546
20
-0.56651734763458583
30
4.3709567898628207e-17
10
0.11066012289724471
20
-0.56805570028769237
30
4.3709567898628207e-17
10
0.11166325170640301
20
-0.56959061091143504
30
4.3709567898628207e-17
10
0.11268179715835286
20
-0.57112227958726469
30
4.3709567898628207e-17
10
0.11371537382406802
20
-0.5726501880542777
30
4.3709567898628207e-17
10
0.11476350713125853
20
-0.57417342259171678
30
4.3709567898628207e-17
10
0.11582572964545973
20
-0.57569104894432033
30
4.3709567898628207e-17
10
0.11690169070587167
20
-0.5772025413162204
30
4.3709567898628207e-17
10
0.11799117965670504
20
-0.57870787369685339
30
4.3709567898628207e-17
10
0.11909406913922102
20
-0.58020729952433514
30
4.3709567898628207e-17
10
0.12021027965908153
20
-0.58170121508389994
30
4.3709567898628207e-17
10
0.12133973840019803
20
-0.58319000145320155
30
4.3709567898628207e-17
10
0.12248233243155252
20
-0.58467384450491788
30
4.3709567898628207e-17
10
0.12363790631322889
20
-0.58615273266007129
30
4.3709567898628207e-17
10
0.12480628108958833
20
-0.58762654018439386
30
4.3709567898628207e-17
10
0.12598726635074192
20
-0.58909508431736901
30
4.3709567898628207e-17
10
0.12718067433025973
20
-0.59055818968374263
30
4.3709567898628207e-17
10
0.12838633435561683
20
-0.59201575887412083
30
4.3709567898628207e-17
10
0.12960409500925715
20
-0.59346776625200603
30
4.3709567898628207e-17
10
0.13083382307917682
20
-0.59491423336364058
30
4.3709567898628207e-17
10
0.13207540343431123
20
-0.59635521076399622
30
4.3709567898628207e-17
10
0.13332873835171166
20
-0.5977907577732593
30
4.3709567898628207e-17
10
0.13459374680077393
20
-0.59922092208119615
30
4.3709567898628207e-17
10
0.13587036498652078
20
-0.60064573901256602
30
4.3709567898628207e-17
10
0.13690091053770129
20
-0.60178133405263823
30
4.3709567898628207e-17
10
0.13767901088558401
20
-0.60263064112325171
30
4.3709567898628207e-17
10
0.13820005040262104
20
-0.60319578453952305
30
4.3709567898628207e-17
10
0.13846114664909484
20
-0.60347809092316673
30
4.3709567898628207e-17
0
ARC
5
136
100
AcDbEntity
8
0
100
AcDbCircle
10
-2.4205073476542406e-06
20
-3.5065011013839394e-05
30
4.3709567898628207e-17
40
0.61912490254527963
210
-0
220
0
230
1
100
AcDbArc
50
282.92315305479497
51
286.0768461730338
0
SPLINE
5
137
100
AcDbEntity
8
0
100
AcDbSpline
70
4
71
5
72
66
73
60
74
0
42
0.000000001
43
0.0000000001
44
0.0000000001
40
-1
40
-1
40
-1
40
-1
40
-1
40
-1
40
-0.98181818181818203
40
-0.96363636363636385
40
-0.94545454545454566
40
-0.92727272727272747
40
-0.90909090909090928
40
-0.89090909090909109
40
-0.87272727272727291
40
-0.85454545454545472
40
-0.83636363636363653
40
-0.81818181818181834
40
-0.80000000000000016
40
-0.78181818181818197
40
-0.76363636363636378
40
-0.74545454545454559
40
-0.7272727272727274
40
-0.70909090909090922
40
-0.69090909090909103
40
-0.67272727272727284
40
-0.65454545454545465
40
-0.63636363636363646
40
-0.61818181818181828
40
-0.60000000000000009
40
-0.5818181818181819
40
-0.56363636363636371
40
-0.54545454545454553
40
-0.52727272727272734
40
-0.50909090909090915
40
-0.49090909090909102
40
-0.47272727272727283
40
-0.45454545454545464
40
-0.43636363636363645
40
-0.41818181818181827
40
-0.40000000000000008
40
-0.38181818181818189
40
-0.3636363636363637
40
-0.34545454545454551
40
-0.32727272727272733
40
-0.30909090909090914
40
-0.29090909090909095
40
-0.27272727272727276
40
-0.25454545454545457
40
-0.23636363636363641
40
-0.21818181818181823
40
-0.20000000000000004
40
-0.18181818181818185
40
-0.16363636363636366
40
-0.14545454545454548
40
-0.12727272727272729
40
-0.1090909090909091
40
-0.090909090909090912
40
-0.072727272727272724
40
-0.054545454545454543
40
-0.036363636363636362
40
-0.018181818181818181
40
0
40
0
40
0
40
0
40
0
40
0
41
1
41
1
41
1
41
1
41
1
41
1
41
1
41
1
41
1
41
1
41
1
41
1
41
1
41
1
41
1
41
1
41
1
41
1
41
1
41
1
41
1
41
1
41
1
41
1
41
1
41
1
41
1
41
1
41
1
41
1
41
1
41
1
41
1
41
1
41
1
41
1
41
1
41
1
41
1
41
1
41
1
41
1
41
1
41
1
41
1
41
1
41
1
41
1
41
1
41
1
41
1
41
1
41
1
41
1
41
1
41
1
41
1
41
1
41
1
41
1
10
0.17144959115199851
20
-0.59494669933132638
30
4.3709567898628207e-17
10
0.17154108622903291
20
-0.59457320663385071
30
4.3709567898628207e-17
10
0.17172281070390838
20
-0.59382631609664305
30
4.3709567898628207e-17
10
0.17199160037905556
20
-0.59270626486468703
30
4.3709567898628207e-17
10
0.17234238844722591
20
-0.59121343267071058
30
4.3709567898628207e-17
10
0.17276817894066507
20
-0.58934834293140148
30
4.3709567898628207e-17
10
0.17318122286996657
20
-0.58748420478304653
30
4.3709567898628207e-17
10
0.17358144731302633
20
-0.58562101825831148
30
4.3709567898628207e-17
10
0.17396875827844027
20
-0.58375878093118805
30
4.3709567898628207e-17
10
0.17434304153680022
20
-0.58189748829609222
30
4.3709567898628207e-17
10
0.17470417188266796
20
-0.58003715195329786
30
4.3709567898628207e-17
10
0.17505202236036427
20
-0.57817781764050291
30
4.3709567898628207e-17
10
0.17538647296591992
20
-0.57631958118858939
30
4.3709567898628207e-17
10
0.17570742165078268
20
-0.57446261053741976
30
4.3709567898628207e-17
10
0.1760147892143365
20
-0.5726071501046236
30
4.3709567898628207e-17
10
0.17630849772439547
20
-0.57075345204869199
30
4.3709567898628207e-17
10
0.17658845162001649
20
-0.56890171309870607
30
4.3709567898628207e-17
10
0.17685452056398909
20
-0.56705201874062705
30
4.3709567898628207e-17
10
0.17710651567176097
20
-0.56520426115658495
30
4.3709567898628207e-17
10
0.17734418850683717
20
-0.56335814235048676
30
4.3709567898628207e-17
10
0.1775672774190124
20
-0.56151335426307636
30
4.3709567898628207e-17
10
0.17777554814858676
20
-0.55966973697712363
30
4.3709567898628207e-17
10
0.1779688290620233
20
-0.55782741536993685
30
4.3709567898628207e-17
10
0.17814706837536318
20
-0.55598701931667271
30
4.3709567898628207e-17
10
0.178310310197136
20
-0.55414959255211882
30
4.3709567898628207e-17
10
0.1784585824376646
20
-0.55231616431166597
30
4.3709567898628207e-17
10
0.17859179925099092
20
-0.55048737473621234
30
4.3709567898628207e-17
10
0.1787096766869585
20
-0.54866315245795449
30
4.3709567898628207e-17
10
0.17881159513556136
20
-0.54684218192591949
30
4.3709567898628207e-17
10
0.17889671381901556
20
-0.54502236055750541
30
4.3709567898628207e-17
10
0.17896422000906051
20
-0.5432017848180275
30
4.3709567898628207e-17
10
0.17901355025355292
20
-0.54137962482056012
30
4.3709567898628207e-17
10
0.17904459419324778
20
-0.53955693144314842
30
4.3709567898628207e-17
10
0.1790579848149787
20
-0.53773777787107802
30
4.3709567898628207e-17
10
0.1790546735231453
20
-0.53592762435296193
30
4.3709567898628207e-17
10
0.17903535460758158
20
-0.53413109759644106
30
4.3709567898628207e-17
10
0.17899995123270607
20
-0.53235000812615074
30
4.3709567898628207e-17
10
0.1789470534854237
20
-0.53058118108102348
30
4.3709567898628207e-17
10
0.17887343081610618
20
-0.52881457471297855
30
4.3709567898628207e-17
10
0.17877526870417818
20
-0.5270381815679861
30
4.3709567898628207e-17
10
0.17864943523834942
20
-0.52524302756462793
30
4.3709567898628207e-17
10
0.17849458563504789
20
-0.52342757784323668
30
4.3709567898628207e-17
10
0.17831269547472417
20
-0.5216037211858745
30
4.3709567898628207e-17
10
0.17810930393269114
20
-0.51979799830461992
30
4.3709567898628207e-17
10
0.1778901042907754
20
-0.51803930733304238
30
4.3709567898628207e-17
10
0.17765800016179284
20
-0.51634838703336439
30
4.3709567898628207e-17
10
0.17741035441803449
20
-0.51472788620220011
30
4.3709567898628207e-17
10
0.17713521884792593
20
-0.51314898164980982
30
4.3709567898628207e-17
10
0.17681168785906473
20
-0.51155207408830905
30
4.3709567898628207e-17
10
0.1764141738136708
20
-0.50986090151393415
30
4.3709567898628207e-17
10
0.17591568509719321
20
-0.50799321653242324
30
4.3709567898628207e-17
10
0.17529130211443358
20
-0.50587218824975544
30
4.3709567898628207e-17
10
0.17452210431287518
20
-0.50343920990120949
30
4.3709567898628207e-17
10
0.17359500385986376
20
-0.50065356456853916
30
4.3709567898628207e-17
10
0.17250146865782454
20
-0.49748851059279592
30
4.3709567898628207e-17
10
0.17123663874321665
20
-0.4939286312355422
30
4.3709567898628207e-17
10
0.1700859593968703
20
-0.49075907661434021
30
4.3709567898628207e-17
10
0.1691446189920594
20
-0.48820009842881462
30
4.3709567898628207e-17
10
0.16848226353018819
20
-0.48641335039641836
30
4.3709567898628207e-17
10
0.16814238701225445
20
-0.48549978577209146
30
4.3709567898628207e-17
0
ARC
5
138
100
AcDbEntity
8
0
100
AcDbCircle
10
-2.444917347366227e-06
20
-3.4970624706616941e-05
30
4.3709567898628207e-17
40
0.51375944881891822
210
-0
220
0
230
1
100
AcDbArc
50
289.10395895971595
51
294.89604026812134
0
SPLINE
5
139
100
AcDbEntity
8
0
100
AcDbSpline
70
4
71
5
72
66
73
60
74
0
42
0.000000001
43
0.0000000001
44
0.0000000001
40
0
40
0
40
0
40
0
40
0
40
0
40
0.018181818181818181
40
0.036363636363636362
40
0.054545454545454543
40
0.072727272727272724
40
0.090909090909090912
40
0.1090909090909091
40
0.12727272727272729
40
0.14545454545454548
40
0.16363636363636366
40
0.18181818181818185
40
0.20000000000000004
40
0.21818181818181823
40
0.23636363636363641
40
0.25454545454545457
40
0.27272727272727276
40
0.29090909090909095
40
0.30909090909090914
40
0.32727272727272733
40
0.34545454545454551
40
0.3636363636363637
40
0.38181818181818189
40
0.40000000000000008
40
0.41818181818181827
40
0.43636363636363645
40
0.45454545454545464
40
0.47272727272727283
40
0.49090909090909102
40
0.50909090909090915
40
0.52727272727272734
40
0.54545454545454553
40
0.56363636363636371
40
0.5818181818181819
40
0.60000000000000009
40
0.61818181818181828
40
0.63636363636363646
40
0.65454545454545465
40
0.67272727272727284
40
0.69090909090909103
40
0.70909090909090922
40
0.7272727272727274
40
0.74545454545454559
40
0.76363636363636378
40
0.78181818181818197
40
0.80000000000000016
40
0.81818181818181834
40
0.83636363636363653
40
0.85454545454545472
40
0.87272727272727291
40
0.89090909090909109
40
0.90909090909090928
40
0.92727272727272747
40
0.94545454545454566
40
0.96363636363636385
40
0.98181818181818203
40
1
40
1
40
1
40
1
40
1
40
1
41
1
41
1
41
1
41
1
41
1
41
1
41
1
41
1
41
1
41
1
41
1
41
1
41
1
41
1
41
1
41
1
41
1
41
1
41
1
41
1
41
1
41
1
41
1
41
1
41
1
41
1
41
1
41
1
41
1
41
1
41
1
41
1
41
1
41
1
41
1
41
1
41
1
41
1
41
1
41
1
41
1
41
1
41
1
41
1
41
1
41
1
41
1
41
1
41
1
41
1
41
1
41
1
41
1
41
1
41
1
41
1
41
1
41
1
41
1
41
1
10
0.21627647637948461
20
-0.46605235168833303
30
4.3709567898628207e-17
10
0.21666660497420681
20
-0.4669456131563573
30
4.3709567898628207e-17
10
0.21743132578171265
20
-0.46869100290570986
30
4.3709567898628207e-17
10
0.21853179774577539
20
-0.47118568776964498
30
4.3709567898628207e-17
10
0.21990582590135671
20
-0.47426500361647406
30
4.3709567898628207e-17
10
0.22146888335010362
20
-0.47770439123099889
30
4.3709567898628207e-17
10
0.22288089115240325
20
-0.48074077392623232
30
4.3709567898628207e-17
10
0.22414906270929932
20
-0.48338861759029933
30
4.3709567898628207e-17
10
0.22528583686035397
20
-0.48567308545609256
30
4.3709567898628207e-17
10
0.22631008335423325
20
-0.4876325583963122
30
4.3709567898628207e-17
10
0.22724890356341823
20
-0.48932233790998947
30
4.3709567898628207e-17
10
0.22813774305393336
20
-0.49081500212295365
30
4.3709567898628207e-17
10
0.22901431952296533
20
-0.49218846481081652
30
4.3709567898628207e-17
10
0.22991320280252567
20
-0.49351535893530735
30
4.3709567898628207e-17
10
0.23086075581136209
20
-0.49485307888132424
30
4.3709567898628207e-17
10
0.23186840599496103
20
-0.49623065824172519
30
4.3709567898628207e-17
10
0.23293241635366466
20
-0.49764802353446913
30
4.3709567898628207e-17
10
0.23404046921719898
20
-0.49908823952338477
30
4.3709567898628207e-17
10
0.23517658565974345
20
-0.50052656374477522
30
4.3709567898628207e-17
10
0.23632631350307354
20
-0.50194005657344509
30
4.3709567898628207e-17
10
0.23748281521900047
20
-0.50331879358169818
30
4.3709567898628207e-17
10
0.23864618965426262
20
-0.50466481302033972
30
4.3709567898628207e-17
10
0.23982041782107338
20
-0.50598674591174164
30
4.3709567898628207e-17
10
0.24101109686125766
20
-0.50729587948420396
30
4.3709567898628207e-17
10
0.24222287849612131
20
-0.50860168129518568
30
4.3709567898628207e-17
10
0.24345695396283196
20
-0.50990741455656319
30
4.3709567898628207e-17
10
0.24471201029442066
20
-0.51121183026036821
30
4.3709567898628207e-17
10
0.24598533294005936
20
-0.5125111179373717
30
4.3709567898628207e-17
10
0.24727381327545925
20
-0.51380068891235642
30
4.3709567898628207e-17
10
0.24857507716103375
20
-0.51507717347140014
30
4.3709567898628207e-17
10
0.24988831520976709
20
-0.51633989233806254
30
4.3709567898628207e-17
10
0.2512136985959923
20
-0.5175898338897883
30
4.3709567898628207e-17
10
0.25255196499820054
20
-0.51882893198333713
30
4.3709567898628207e-17
10
0.25390397018804428
20
-0.52005928314339323
30
4.3709567898628207e-17
10
0.25527018231386006
20
-0.52128226411541356
30
4.3709567898628207e-17
10
0.25665044669523879
20
-0.52249812348544933
30
4.3709567898628207e-17
10
0.25804425690053817
20
-0.5237064604082815
30
4.3709567898628207e-17
10
0.25945091803979414
20
-0.52490651512577902
30
4.3709567898628207e-17
10
0.26086973680293057
20
-0.52609750619759943
30
4.3709567898628207e-17
10
0.26230023839164118
20
-0.52727901650163034
30
4.3709567898628207e-17
10
0.2637422125960267
20
-0.52845107543532677
30
4.3709567898628207e-17
10
0.26519560199160241
20
-0.5296139607639786
30
4.3709567898628207e-17
10
0.26666043235889925
20
-0.53076807584437735
30
4.3709567898628207e-17
10
0.26813673199313121
20
-0.5319138076154617
30
4.3709567898628207e-17
10
0.26962443991870222
20
-0.53305136484514504
30
4.3709567898628207e-17
10
0.27112340299532584
20
-0.5341807765798029
30
4.3709567898628207e-17
10
0.2726334158227075
20
-0.53530196768658367
30
4.3709567898628207e-17
10
0.27415424717711695
20
-0.53641481091408938
30
4.3709567898628207e-17
10
0.27568567029965302
20
-0.53751918546036281
30
4.3709567898628207e-17
10
0.27722749512190537
20
-0.53861504140846039
30
4.3709567898628207e-17
10
0.27877956875052678
20
-0.53970239318517799
30
4.3709567898628207e-17
10
0.28034176808917566
20
-0.54078129608039582
30
4.3709567898628207e-17
10
0.28191399501437098
20
-0.54185182872458126
30
4.3709567898628207e-17
10
0.28349617048619041
20
-0.54291407370919109
30
4.3709567898628207e-17
10
0.28508822857810728
20
-0.54396809807125501
30
4.3709567898628207e-17
10
0.28669011681163931
20
-0.54501395244321493
30
4.3709567898628207e-17
10
0.28797946099859423
20
-0.54584412820512707
30
4.3709567898628207e-17
10
0.28895086506509438
20
-0.54646310865003001
30
4.3709567898628207e-17
10
0.28960042047048379
20
-0.54687414032108494
30
4.3709567898628207e-17
10
0.28992568634675303
20
-0.54707925066676977
30
4.3709567898628207e-17
0
ARC
5
140
100
AcDbEntity
8
0
100
AcDbCircle
10
-2.4534932682314874e-06
20
-3.4955466745812322e-05
30
4.3709567898628207e-17
40
0.61912501740923509
210
-0
220
0
230
1
100
AcDbArc
50
297.92315334741522
51
301.07684588041326
0
SPLINE
5
141
100
AcDbEntity
8
0
100
AcDbSpline
70
4
71
5
72
66
73
60
74
0
42
0.000000001
43
0.0000000001
44
0.0000000001
40
-1
40
-1
40
-1
40
-1
40
-1
40
-1
40
-0.98181818181818203
40
-0.96363636363636385
40
-0.94545454545454566
40
-0.92727272727272747
40
-0.90909090909090928
40
-0.89090909090909109
40
-0.87272727272727291
40
-0.85454545454545472
40
-0.83636363636363653
40
-0.81818181818181834
40
-0.80000000000000016
40
-0.78181818181818197
40
-0.76363636363636378
40
-0.74545454545454559
40
-0.7272727272727274
40
-0.70909090909090922
40
-0.69090909090909103
40
-0.67272727272727284
40
-0.65454545454545465
40
-0.63636363636363646
40
-0.61818181818181828
40
-0.60000000000000009
40
-0.5818181818181819
40
-0.56363636363636371
40
-0.54545454545454553
40
-0.52727272727272734
40
-0.50909090909090915
40
-0.49090909090909102
40
-0.47272727272727283
40
-0.45454545454545464
40
-0.43636363636363645
40
-0.41818181818181827
40
-0.40000000000000008
40
-0.38181818181818189
40
-0.3636363636363637
40
-0.34545454545454551
40
-0.32727272727272733
40
-0.30909090909090914
40
-0.29090909090909095
40
-0.27272727272727276
40
-0.25454545454545457
40
-0.23636363636363641
40
-0.21818181818181823
40
-0.20000000000000004
40
-0.18181818181818185
40
-0.16363636363636366
40
-0.14545454545454548
40
-0.12727272727272729
40
-0.1090909090909091
40
-0.090909090909090912
40
-0.072727272727272724
40
-0.054545454545454543
40
-0.036363636363636362
40
-0.018181818181818181
40
0
40
0
40
0
40
0
40
0
40
0
41
1
41
1
41
1
41
1
41
1
41
1
41
1
41
1
41
1
41
1
41
1
41
1
41
1
41
1
41
1
41
1
41
1
41
1
41
1
41
1
41
1
41
1
41
1
41
1
41
1
41
1
41
1
41
1
41
1
41
1
41
1
41
1
41
1
41
1
41
1
41
1
41
1
41
1
41
1
41
1
41
1
41
1
41
1
41
1
41
1
41
1
41
1
41
1
41
1
41
1
41
1
41
1
41
1
41
1
41
1
41
1
41
1
41
1
41
1
41
1
10
0.31958199023601597
20
-0.53030052148836671
30
4.3709567898628207e-17
10
0.31957370067060303
20
-0.52991607457749301
30
4.3709567898628207e-17
10
0.31955592353854345
20
-0.52914759996316496
30
4.3709567898628207e-17
10
0.31952566383731257
20
-0.52799614566442787
30
4.3709567898628207e-17
10
0.31947812568897838
20
-0.52646338986112451
30
4.3709567898628207e-17
10
0.3194066869778035
20
-0.52455164882463312
30
4.3709567898628207e-17
10
0.31932318232097989
20
-0.52264412600796073
30
4.3709567898628207e-17
10
0.31922754128963277
20
-0.52074084031630752
30
4.3709567898628207e-17
10
0.31911967246715223
20
-0.51884181373310845
30
4.3709567898628207e-17
10
0.31899946435027265
20
-0.51694707147105368
30
4.3709567898628207e-17
10
0.31886679900219794
20
-0.51505665714069748
30
4.3709567898628207e-17
10
0.31872156563094073
20
-0.51317064777980392
30
4.3709567898628207e-17
10
0.31856367312441836
20
-0.51128916701320282
30
4.3709567898628207e-17
10
0.31839306637732989
20
-0.50941240347044647
30
4.3709567898628207e-17
10
0.31820973214769038
20
-0.50754061373945902
30
4.3709567898628207e-17
10
0.31801366042220996
20
-0.50567406155697592
30
4.3709567898628207e-17
10
0.31780480981334025
20
-0.50381296168169343
30
4.3709567898628207e-17
10
0.31758307655040002
20
-0.50195743042046492
30
4.3709567898628207e-17
10
0.3173482502796075
20
-0.50010741251614743
30
4.3709567898628207e-17
10
0.31710001390267345
20
-0.49826268442671701
30
4.3709567898628207e-17
10
0.31683803495330404
20
-0.49642301630983732
30
4.3709567898628207e-17
10
0.31656204576437935
20
-0.4945883143281965
30
4.3709567898628207e-17
10
0.31627191287125811
20
-0.49275874352603621
30
4.3709567898628207e-17
10
0.31596774927816007
20
-0.49093492571871233
30
4.3709567898628207e-17
10
0.31564986772909343
20
-0.48911785766048282
30
4.3709567898628207e-17
10
0.31531856156908156
20
-0.4873085262926713
30
4.3709567898628207e-17
10
0.31497391355795362
20
-0.48550757216247353
30
4.3709567898628207e-17
10
0.31461563094957634
20
-0.48371499982559368
30
4.3709567898628207e-17
10
0.3142427747569953
20
-0.4819296989242432
30
4.3709567898628207e-17
10
0.31385398866281472
20
-0.48014985612888833
30
4.3709567898628207e-17
10
0.31344799496078557
20
-0.47837384311576631
30
4.3709567898628207e-17
10
0.31302403460738981
20
-0.47660100410780848
30
4.3709567898628207e-17
10
0.31258227299103386
20
-0.47483238273833145
30
4.3709567898628207e-17
10
0.31212437574797325
20
-0.47307174957315185
30
4.3709567898628207e-17
10
0.31165267508062366
20
-0.4713241325658446
30
4.3709567898628207e-17
10
0.31116903910152061
20
-0.46959382107737979
30
4.3709567898628207e-17
10
0.31067386219145182
20
-0.46788258382677644
30
4.3709567898628207e-17
10
0.31016496076443484
20
-0.46618771904609435
30
4.3709567898628207e-17
10
0.30963661535349823
20
-0.46450036327928829
30
4.3709567898628207e-17
10
0.30908203365691345
20
-0.46280990548697382
30
4.3709567898628207e-17
10
0.30849586781749211
20
-0.46110848797042825
30
4.3709567898628207e-17
10
0.30787642162313611
20
-0.45939497622465841
30
4.3709567898628207e-17
10
0.3072286803812489
20
-0.45768034261345503
30
4.3709567898628207e-17
10
0.30656486376608777
20
-0.45598878985200642
30
4.3709567898628207e-17
10
0.3058979504529506
20
-0.45434675786410195
30
4.3709567898628207e-17
10
0.30523611270309015
20
-0.45277352724548958
30
4.3709567898628207e-17
10
0.30457748880575752
20
-0.45127233907610731
30
4.3709567898628207e-17
10
0.3039030776843567
20
-0.44981844471728716
30
4.3709567898628207e-17
10
0.30317726065646639
20
-0.44835968644307017
30
4.3709567898628207e-17
10
0.30235558390289891
20
-0.44682902338240704
30
4.3709567898628207e-17
10
0.30139068833400307
20
-0.44515399659692528
30
4.3709567898628207e-17
10
0.30023861817056546
20
-0.4432668428076636
30
4.3709567898628207e-17
10
0.29886592901540565
20
-0.44111584922633817
30
4.3709567898628207e-17
10
0.29724944067909714
20
-0.43866507371043462
30
4.3709567898628207e-17
10
0.295373990537664
20
-0.43589089407033443
30
4.3709567898628207e-17
10
0.29323089408134789
20
-0.43277967673139989
30
4.3709567898628207e-17
10
0.29129908208260735
20
-0.43001593979470193
30
4.3709567898628207e-17
10
0.2897275047840514
20
-0.42778779350124868
30
4.3709567898628207e-17
10
0.28862527411783812
20
-0.42623335763999537
30
4.3709567898628207e-17
10
0.28806053068780768
20
-0.42543888849128214
30
4.3709567898628207e-17
0
ARC
5
142
100
AcDbEntity
8
0
100
AcDbCircle
10
-2.444917347366227e-06
20
-3.4970624706616941e-05
30
4.3709567898628207e-17
40
0.51375944881892743
210
-0
220
0
230
1
100
AcDbArc
50
304.10395895971527
51
309.89604026812054
0
SPLINE
5
143
100
AcDbEntity
8
0
100
AcDbSpline
70
4
71
5
72
66
73
60
74
0
42
0.000000001
43
0.0000000001
44
0.0000000001
40
0
40
0
40
0
40
0
40
0
40
0
40
0.018181818181818181
40
0.036363636363636362
40
0.054545454545454543
40
0.072727272727272724
40
0.090909090909090912
40
0.1090909090909091
40
0.12727272727272729
40
0.14545454545454548
40
0.16363636363636366
40
0.18181818181818185
40
0.20000000000000004
40
0.21818181818181823
40
0.23636363636363641
40
0.25454545454545457
40
0.27272727272727276
40
0.29090909090909095
40
0.30909090909090914
40
0.32727272727272733
40
0.34545454545454551
40
0.3636363636363637
40
0.38181818181818189
40
0.40000000000000008
40
0.41818181818181827
40
0.43636363636363645
40
0.45454545454545464
40
0.47272727272727283
40
0.49090909090909102
40
0.50909090909090915
40
0.52727272727272734
40
0.54545454545454553
40
0.56363636363636371
40
0.5818181818181819
40
0.60000000000000009
40
0.61818181818181828
40
0.63636363636363646
40
0.65454545454545465
40
0.67272727272727284
40
0.69090909090909103
40
0.70909090909090922
40
0.7272727272727274
40
0.74545454545454559
40
0.76363636363636378
40
0.78181818181818197
40
0.80000000000000016
40
0.81818181818181834
40
0.83636363636363653
40
0.85454545454545472
40
0.87272727272727291
40
0.89090909090909109
40
0.90909090909090928
40
0.92727272727272747
40
0.94545454545454566
40
0.96363636363636385
40
0.98181818181818203
40
1
40
1
40
1
40
1
40
1
40
1
41
1
41
1
41
1
41
1
41
1
41
1
41
1
41
1
41
1
41
1
41
1
41
1
41
1
41
1
41
1
41
1
41
1
41
1
41
1
41
1
41
1
41
1
41
1
41
1
41
1
41
1
41
1
41
1
41
1
41
1
41
1
41
1
41
1
41
1
41
1
41
1
41
1
41
1
41
1
41
1
41
1
41
1
41
1
41
1
41
1
41
1
41
1
41
1
41
1
41
1
41
1
41
1
41
1
41
1
41
1
41
1
41
1
41
1
41
1
41
1
10
0.32952112441326886
20
-0.39419609060781974
30
4.3709567898628207e-17
10
0.33012915277867183
20
-0.39495794221894148
30
4.3709567898628207e-17
10
0.3313195564648112
20
-0.39644593494540115
30
4.3709567898628207e-17
10
0.33302820271032957
20
-0.39857079238078985
30
4.3709567898628207e-17
10
0.3351523975788972
20
-0.40118955842920745
30
4.3709567898628207e-17
10
0.3375523741547321
20
-0.4041072027163754
30
4.3709567898628207e-17
10
0.33970214262763027
20
-0.40667466866928303
30
4.3709567898628207e-17
10
0.34161241465531145
20
-0.40890406229722426
30
4.3709567898628207e-17
10
0.34330171795806824
20
-0.41081647000807636
30
4.3709567898628207e-17
10
0.34479821301428787
20
-0.4124440810276257
30
4.3709567898628207e-17
10
0.34614239082074694
20
-0.41383329815064168
30
4.3709567898628207e-17
10
0.34738727376631767
20
-0.41504505247574047
30
4.3709567898628207e-17
10
0.34858945991782814
20
-0.41614484087266734
30
4.3709567898628207e-17
10
0.34980113996262779
20
-0.41719387406412345
30
4.3709567898628207e-17
10
0.35106263328468434
20
-0.41824076754334133
30
4.3709567898628207e-17
10
0.35239249239550113
20
-0.41931060796697694
30
4.3709567898628207e-17
10
0.35378708861204256
20
-0.42040429156350961
30
4.3709567898628207e-17
10
0.35523014081681648
20
-0.42150864819859479
30
4.3709567898628207e-17
10
0.35669981073186791
20
-0.42260391413785081
30
4.3709567898628207e-17
10
0.35817620141311546
20
-0.42367167190381305
30
4.3709567898628207e-17
10
0.35965013968459703
20
-0.42470410491797217
30
4.3709567898628207e-17
10
0.36112224856305897
20
-0.42570315639600775
30
4.3709567898628207e-17
10
0.3625986072839823
20
-0.42667613290356182
30
4.3709567898628207e-17
10
0.36408754362085877
20
-0.42763248841905643
30
4.3709567898628207e-17
10
0.36559600117561192
20
-0.42858016394668813
30
4.3709567898628207e-17
10
0.36712597517636641
20
-0.42952200319221884
30
4.3709567898628207e-17
10
0.36867587412737046
20
-0.43045713952745063
30
4.3709567898628207e-17
10
0.37024208975186418
20
-0.43138259489919645
30
4.3709567898628207e-17
10
0.37182043171282808
20
-0.43229474155872644
30
4.3709567898628207e-17
10
0.37340773462138155
20
-0.43319093908487677
30
4.3709567898628207e-17
10
0.37500304086002184
20
-0.43407074083176472
30
4.3709567898628207e-17
10
0.37660677158136391
20
-0.4349350571955109
30
4.3709567898628207e-17
10
0.37822013984707276
20
-0.43578556521306144
30
4.3709567898628207e-17
10
0.37984451488960375
20
-0.43662406848175234
30
4.3709567898628207e-17
10
0.38148070523347338
20
-0.43745177566987309
30
4.3709567898628207e-17
10
0.38312862580768459
20
-0.43826896692734812
30
4.3709567898628207e-17
10
0.38478768369045896
20
-0.43907538614158187
30
4.3709567898628207e-17
10
0.38645701102975921
20
-0.43987047929333056
30
4.3709567898628207e-17
10
0.38813573588783246
20
-0.44065367101103387
30
4.3709567898628207e-17
10
0.38982329168558327
20
-0.44142468127251533
30
4.3709567898628207e-17
10
0.39151948298446354
20
-0.44218359287986164
30
4.3709567898628207e-17
10
0.39322432620762965
20
-0.44293068899629368
30
4.3709567898628207e-17
10
0.39493795065358167
20
-0.44366635256206111
30
4.3709567898628207e-17
10
0.39666048380056479
20
-0.44439095000813839
30
4.3709567898628207e-17
10
0.39839192078378877
20
-0.4451046987704898
30
4.3709567898628207e-17
10
0.40013212119884733
20
-0.44580766654137849
30
4.3709567898628207e-17
10
0.40188086719847665
20
-0.44649983390954628
30
4.3709567898628207e-17
10
0.40363790250261816
20
-0.44718113780468649
30
4.3709567898628207e-17
10
0.40540297681314769
20
-0.44785152023059388
30
4.3709567898628207e-17
10
0.40717589361862583
20
-0.44851098216453072
30
4.3709567898628207e-17
10
0.40895650896935154
20
-0.44915957711342919
30
4.3709567898628207e-17
10
0.41074471827346531
20
-0.44979739034289462
30
4.3709567898628207e-17
10
0.41254044710202631
20
-0.45042452320035259
30
4.3709567898628207e-17
10
0.41434364048457101
20
-0.45104107592005904
30
4.3709567898628207e-17
10
0.41615425209142187
20
-0.45164713031784431
30
4.3709567898628207e-17
10
0.41797224433689201
20
-0.4522427488833094
30
4.3709567898628207e-17
10
0.4194325204840087
20
-0.45271093026081471
30
4.3709567898628207e-17
10
0.42053102868728104
20
-0.45305740158559216
30
4.3709567898628207e-17
10
0.42126483385355279
20
-0.45328631038230111
30
4.3709567898628207e-17
10
0.42163210302765719
20
-0.4534002467589236
30
4.3709567898628207e-17
0
ARC
5
144
100
AcDbEntity
8
0
100
AcDbCircle
10
-2.7072523178699236e-06
20
-3.4703670657059655e-05
30
4.3709567898628207e-17
40
0.61912537413640989
210
-0
220
0
230
1
100
AcDbArc
50
312.92315425619063
51
316.07684497163791
0
SPLINE
5
145
100
AcDbEntity
8
0
100
AcDbSpline
70
4
71
5
72
66
73
60
74
0
42
0.000000001
43
0.0000000001
44
0.0000000001
40
-1
40
-1
40
-1
40
-1
40
-1
40
-1
40
-0.98181818181818203
40
-0.96363636363636385
40
-0.94545454545454566
40
-0.92727272727272747
40
-0.90909090909090928
40
-0.89090909090909109
40
-0.87272727272727291
40
-0.85454545454545472
40
-0.83636363636363653
40
-0.81818181818181834
40
-0.80000000000000016
40
-0.78181818181818197
40
-0.76363636363636378
40
-0.74545454545454559
40
-0.7272727272727274
40
-0.70909090909090922
40
-0.69090909090909103
40
-0.67272727272727284
40
-0.65454545454545465
40
-0.63636363636363646
40
-0.61818181818181828
40
-0.60000000000000009
40
-0.5818181818181819
40
-0.56363636363636371
40
-0.54545454545454553
40
-0.52727272727272734
40
-0.50909090909090915
40
-0.49090909090909102
40
-0.47272727272727283
40
-0.45454545454545464
40
-0.43636363636363645
40
-0.41818181818181827
40
-0.40000000000000008
40
-0.38181818181818189
40
-0.3636363636363637
40
-0.34545454545454551
40
-0.32727272727272733
40
-0.30909090909090914
40
-0.29090909090909095
40
-0.27272727272727276
40
-0.25454545454545457
40
-0.23636363636363641
40
-0.21818181818181823
40
-0.20000000000000004
40
-0.18181818181818185
40
-0.16363636363636366
40
-0.14545454545454548
40
-0.12727272727272729
40
-0.1090909090909091
40
-0.090909090909090912
40
-0.072727272727272724
40
-0.054545454545454543
40
-0.036363636363636362
40
-0.018181818181818181
40
0
40
0
40
0
40
0
40
0
40
0
41
1
41
1
41
1
41
1
41
1
41
1
41
1
41
1
41
1
41
1
41
1
41
1
41
1
41
1
41
1
41
1
41
1
41
1
41
1
41
1
41
1
41
1
41
1
41
1
41
1
41
1
41
1
41
1
41
1
41
1
41
1
41
1
41
1
41
1
41
1
41
1
41
1
41
1
41
1
41
1
41
1
41
1
41
1
41
1
41
1
41
1
41
1
41
1
41
1
41
1
41
1
41
1
41
1
41
1
41
1
41
1
41
1
41
1
41
1
41
1
10
0.44593523820258485
20
-0.4295176226593051
30
4.3709567898628207e-17
10
0.44582772891487726
20
-0.42914842095664563
30
4.3709567898628207e-17
10
0.44561166165800026
20
-0.42841073254013917
30
4.3709567898628207e-17
10
0.44528441472896962
20
-0.42730634488215141
30
4.3709567898628207e-17
10
0.44484179001035928
20
-0.42583812024449613
30
4.3709567898628207e-17
10
0.44427799052471723
20
-0.42401000990319854
30
4.3709567898628207e-17
10
0.44370362798620067
20
-0.42218909694590945
30
4.3709567898628207e-17
10
0.44311863925874273
20
-0.42037541786196864
30
4.3709567898628207e-17
10
0.44252294173039508
20
-0.41856901754609527
30
4.3709567898628207e-17
10
0.44191643422279786
20
-0.41676994921104382
30
4.3709567898628207e-17
10
0.44129901410499833
20
-0.41497828550566618
30
4.3709567898628207e-17
10
0.44067059429900346
20
-0.41319412951781082
30
4.3709567898628207e-17
10
0.44003111879376899
20
-0.41141762424144052
30
4.3709567898628207e-17
10
0.43938058318258727
20
-0.40964896614101809
30
4.3709567898628207e-17
10
0.43871904108452703
20
-0.40788840648872399
30
4.3709567898628207e-17
10
0.43804655108758062
20
-0.40613620262631139
30
4.3709567898628207e-17
10
0.43736312879808326
20
-0.40439257270663304
30
4.3709567898628207e-17
10
0.43666870408367991
20
-0.40265765593131025
30
4.3709567898628207e-17
10
0.43596305945661706
20
-0.40093145336960612
30
4.3709567898628207e-17
10
0.43524583076653262
20
-0.39921383116758252
30
4.3709567898628207e-17
10
0.43451663738807406
20
-0.39750465336320012
30
4.3709567898628207e-17
10
0.43377519648777529
20
-0.39580389859392401
30
4.3709567898628207e-17
10
0.4330214218652873
20
-0.39411176082344163
30
4.3709567898628207e-17
10
0.43225558361196231
20
-0.39242881143162028
30
4.3709567898628207e-17
10
0.43147824179430178
20
-0.39075593226503658
30
4.3709567898628207e-17
10
0.4306899352010492
20
-0.38909400071252459
30
4.3709567898628207e-17
10
0.4298909095578714
20
-0.38744361407534222
30
4.3709567898628207e-17
10
0.42908088327282001
20
-0.38580485252223695
30
4.3709567898628207e-17
10
0.42825866197240159
20
-0.38417688655764748
30
4.3709567898628207e-17
10
0.42742246623040109
20
-0.38255831568052318
30
4.3709567898628207e-17
10
0.42657064043615545
20
-0.38094789774559978
30
4.3709567898628207e-17
10
0.42570228168233304
20
-0.3793451957757904
30
4.3709567898628207e-17
10
0.42481781983404315
20
-0.37775117503779698
30
4.3709567898628207e-17
10
0.42391983966660529
20
-0.37616904652013505
30
4.3709567898628207e-17
10
0.4230118952447024
20
-0.37460306323461368
30
4.3709567898628207e-17
10
0.4220969011947866
20
-0.37305688488266853
30
4.3709567898628207e-17
10
0.42117569623761097
20
-0.37153211784241985
30
4.3709567898628207e-17
10
0.42024547192208234
20
-0.37002671756007577
30
4.3709567898628207e-17
10
0.41929840963612025
20
-0.36853360290151499
30
4.3709567898628207e-17
10
0.41832520218099806
20
-0.36704428236680431
30
4.3709567898628207e-17
10
0.41731865020127645
20
-0.36555255012910831
30
4.3709567898628207e-17
10
0.41627682165038865
20
-0.36405774935275159
30
4.3709567898628207e-17
10
0.41520737182221262
20
-0.3625691882347894
30
4.3709567898628207e-17
10
0.4141283681393042
20
-0.36110708211845366
30
4.3709567898628207e-17
10
0.41305919019511855
20
-0.35969361088061896
30
4.3709567898628207e-17
10
0.41201272197321515
20
-0.35834528300980234
30
4.3709567898628207e-17
10
0.41098800405231373
20
-0.35706571099501633
30
4.3709567898628207e-17
10
0.40996027738282054
20
-0.35583590732752318
30
4.3709567898628207e-17
10
0.40888163754673573
20
-0.35461471030617908
30
4.3709567898628207e-17
10
0.4076917939978873
20
-0.35334886891728562
30
4.3709567898628207e-17
10
0.40632624761528779
20
-0.3519806506353032
30
4.3709567898628207e-17
10
0.40472500194943883
20
-0.35045597775181825
30
4.3709567898628207e-17
10
0.40284236793880523
20
-0.34873355559599933
30
4.3709567898628207e-17
10
0.40064665272862476
20
-0.34678466619858556
30
4.3709567898628207e-17
10
0.39811709647607296
20
-0.34459041665234053
30
4.3709567898628207e-17
10
0.39524178195993653
20
-0.34213988565186615
30
4.3709567898628207e-17
10
0.39266048710355556
20
-0.33997031050432341
30
4.3709567898628207e-17
10
0.39056577330627806
20
-0.33822484059022073
30
4.3709567898628207e-17
10
0.38909878263346165
20
-0.33700864913483725
30
4.3709567898628207e-17
10
0.38834765862244791
20
-0.33638741722108023
30
4.3709567898628207e-17
0
ARC
5
146
100
AcDbEntity
8
0
100
AcDbCircle
10
-2.444917347366227e-06
20
-3.4970624706616941e-05
30
4.3709567898628207e-17
40
0.5137594488189352
210
-0
220
0
230
1
100
AcDbArc
50
319.10395895971425
51
324.89604026811941
0
SPLINE
5
147
100
AcDbEntity
8
0
100
AcDbSpline
70
4
71
5
72
66
73
60
74
0
42
0.000000001
43
0.0000000001
44
0.0000000001
40
0
40
0
40
0
40
0
40
0
40
0
40
0.018181818181818181
40
0.036363636363636362
40
0.054545454545454543
40
0.072727272727272724
40
0.090909090909090912
40
0.1090909090909091
40
0.12727272727272729
40
0.14545454545454548
40
0.16363636363636366
40
0.18181818181818185
40
0.20000000000000004
40
0.21818181818181823
40
0.23636363636363641
40
0.25454545454545457
40
0.27272727272727276
40
0.29090909090909095
40
0.30909090909090914
40
0.32727272727272733
40
0.34545454545454551
40
0.3636363636363637
40
0.38181818181818189
40
0.40000000000000008
40
0.41818181818181827
40
0.43636363636363645
40
0.45454545454545464
40
0.47272727272727283
40
0.49090909090909102
40
0.50909090909090915
40
0.52727272727272734
40
0.54545454545454553
40
0.56363636363636371
40
0.5818181818181819
40
0.60000000000000009
40
0.61818181818181828
40
0.63636363636363646
40
0.65454545454545465
40
0.67272727272727284
40
0.69090909090909103
40
0.70909090909090922
40
0.7272727272727274
40
0.74545454545454559
40
0.76363636363636378
40
0.78181818181818197
40
0.80000000000000016
40
0.81818181818181834
40
0.83636363636363653
40
0.85454545454545472
40
0.87272727272727291
40
0.89090909090909109
40
0.90909090909090928
40
0.92727272727272747
40
0.94545454545454566
40
0.96363636363636385
40
0.98181818181818203
40
1
40
1
40
1
40
1
40
1
40
1
41
1
41
1
41
1
41
1
41
1
41
1
41
1
41
1
41
1
41
1
41
1
41
1
41
1
41
1
41
1
41
1
41
1
41
1
41
1
41
1
41
1
41
1
41
1
41
1
41
1
41
1
41
1
41
1
41
1
41
1
41
1
41
1
41
1
41
1
41
1
41
1
41
1
41
1
41
1
41
1
41
1
41
1
41
1
41
1
41
1
41
1
41
1
41
1
41
1
41
1
41
1
41
1
41
1
41
1
41
1
41
1
41
1
41
1
41
1
41
1
10
0.42030928576062054
20
-0.29547840058250707
30
4.3709567898628207e-17
10
0.42109377776836859
20
-0.29605692340855766
30
4.3709567898628207e-17
10
0.42262874028908282
20
-0.29718611486703705
30
4.3709567898628207e-17
10
0.4248291193980096
20
-0.29879633935137173
30
4.3709567898628207e-17
10
0.42755872060962469
20
-0.30077609102304637
30
4.3709567898628207e-17
10
0.4306320618750808
20
-0.30297315934631719
30
4.3709567898628207e-17
10
0.43337308784987777
20
-0.30489673999500294
30
4.3709567898628207e-17
10
0.43579527846660721
20
-0.30655575409511238
30
4.3709567898628207e-17
10
0.43792198769274959
20
-0.30796577422572052
30
4.3709567898628207e-17
10
0.43978874764634596
20
-0.30915060432321301
30
4.3709567898628207e-17
10
0.44144667955394923
20
-0.31014458620434726
30
4.3709567898628207e-17
10
0.44296276923910433
20
-0.31099285158684231
30
4.3709567898628207e-17
10
0.44440863807356168
20
-0.31174401693111536
30
4.3709567898628207e-17
10
0.44585054089092496
20
-0.31244369931120741
30
4.3709567898628207e-17
10
0.44734000584100619
20
-0.31312842226313448
30
4.3709567898628207e-17
10
0.44890144617832806
20
-0.31381761589314722
30
4.3709567898628207e-17
10
0.45053158882523076
20
-0.31451308506375864
30
4.3709567898628207e-17
10
0.45221129874825061
20
-0.31520632226535072
30
4.3709567898628207e-17
10
0.45391436655984863
20
-0.31588388935870598
30
4.3709567898628207e-17
10
0.45561680649394393
20
-0.3165331461347507
30
4.3709567898628207e-17
10
0.45730773486357945
20
-0.31714891655107513
30
4.3709567898628207e-17
10
0.45898825639795032
20
-0.31773291636129175
30
4.3709567898628207e-17
10
0.46066613426595093
20
-0.31829062974393274
30
4.3709567898628207e-17
10
0.46235185934873874
20
-0.31882903315453393
30
4.3709567898628207e-17
10
0.46405419393386255
20
-0.31935399987771634
30
4.3709567898628207e-17
10
0.46577580126890844
20
-0.31986776031927849
30
4.3709567898628207e-17
10
0.46751491978714632
20
-0.3203698892900757
30
4.3709567898628207e-17
10
0.46926729338398465
20
-0.32085844410236747
30
4.3709567898628207e-17
10
0.47102793557421097
20
-0.32133100515899082
30
4.3709567898628207e-17
10
0.4727931054356691
20
-0.32178584127187643
30
4.3709567898628207e-17
10
0.4745617623804203
20
-0.32222276886387785
30
4.3709567898628207e-17
10
0.47633454883850695
20
-0.32264255830780431
30
4.3709567898628207e-17
10
0.47811307058662361
20
-0.3230465155334924
30
4.3709567898628207e-17
10
0.47989911700710486
20
-0.32343602829875379
30
4.3709567898628207e-17
10
0.48169378190103201
20
-0.32381205482596009
30
4.3709567898628207e-17
10
0.48349705560426481
20
-0.32417488773715164
30
4.3709567898628207e-17
10
0.48530829911152418
20
-0.32452443310600565
30
4.3709567898628207e-17
10
0.48712653075138251
20
-0.32486038040766174
30
4.3709567898628207e-17
10
0.48895075937953131
20
-0.32518239954997047
30
4.3709567898628207e-17
10
0.49078036524752128
20
-0.32549036669373838
30
4.3709567898628207e-17
10
0.49261518100696855
20
-0.32578441240285888
30
4.3709567898628207e-17
10
0.49445529580945607
20
-0.32606480594137244
30
4.3709567898628207e-17
10
0.49630093365997158
20
-0.32633188373624056
30
4.3709567898628207e-17
10
0.49815231253235925
20
-0.32658596673880613
30
4.3709567898628207e-17
10
0.5000094840041589
20
-0.32682726623518626
30
4.3709567898628207e-17
10
0.50187232997517928
20
-0.32705588395042179
30
4.3709567898628207e-17
10
0.50374063499712096
20
-0.32727185751770027
30
4.3709567898628207e-17
10
0.50561413519866161
20
-0.32747519234594319
30
4.3709567898628207e-17
10
0.50749257379985568
20
-0.32766589719703809
30
4.3709567898628207e-17
10
0.50937576123815809
20
-0.32784402387584821
30
4.3709567898628207e-17
10
0.51126357231744646
20
-0.32800966132302267
30
4.3709567898628207e-17
10
0.51315592807810173
20
-0.3281629189691751
30
4.3709567898628207e-17
10
0.51505278285793055
20
-0.32830391397202857
30
4.3709567898628207e-17
10
0.51695410950207787
20
-0.3284327573778425
30
4.3709567898628207e-17
10
0.51885988443501185
20
-0.3285495402056488
30
4.3709567898628207e-17
10
0.52077008752525389
20
-0.32865433254366461
30
4.3709567898628207e-17
10
0.52230178022633345
20
-0.32872861374960638
30
4.3709567898628207e-17
10
0.5234525310477125
20
-0.32877896450608041
30
4.3709567898628207e-17
10
0.52422057836547187
20
-0.32881015067227159
30
4.3709567898628207e-17
10
0.52460482205014747
20
-0.32882514850407446
30
4.3709567898628207e-17
0
ARC
5
148
100
AcDbEntity
8
0
100
AcDbCircle
10
-2.3989386260636589e-06
20
-3.4997708223263289e-05
30
4.3709567898628207e-17
40
0.61912494665771811
210
-0
220
0
230
1
100
AcDbArc
50
327.92315316717293
51
331.07684606065561
0
SPLINE
5
149
100
AcDbEntity
8
0
100
AcDbSpline
70
4
71
5
72
66
73
60
74
0
42
0.000000001
43
0.0000000001
44
0.0000000001
40
-1
40
-1
40
-1
40
-1
40
-1
40
-1
40
-0.98181818181818203
40
-0.96363636363636385
40
-0.94545454545454566
40
-0.92727272727272747
40
-0.90909090909090928
40
-0.89090909090909109
40
-0.87272727272727291
40
-0.85454545454545472
40
-0.83636363636363653
40
-0.81818181818181834
40
-0.80000000000000016
40
-0.78181818181818197
40
-0.76363636363636378
40
-0.74545454545454559
40
-0.7272727272727274
40
-0.70909090909090922
40
-0.69090909090909103
40
-0.67272727272727284
40
-0.65454545454545465
40
-0.63636363636363646
40
-0.61818181818181828
40
-0.60000000000000009
40
-0.5818181818181819
40
-0.56363636363636371
40
-0.54545454545454553
40
-0.52727272727272734
40
-0.50909090909090915
40
-0.49090909090909102
40
-0.47272727272727283
40
-0.45454545454545464
40
-0.43636363636363645
40
-0.41818181818181827
40
-0.40000000000000008
40
-0.38181818181818189
40
-0.3636363636363637
40
-0.34545454545454551
40
-0.32727272727272733
40
-0.30909090909090914
40
-0.29090909090909095
40
-0.27272727272727276
40
-0.25454545454545457
40
-0.23636363636363641
40
-0.21818181818181823
40
-0.20000000000000004
40
-0.18181818181818185
40
-0.16363636363636366
40
-0.14545454545454548
40
-0.12727272727272729
40
-0.1090909090909091
40
-0.090909090909090912
40
-0.072727272727272724
40
-0.054545454545454543
40
-0.036363636363636362
40
-0.018181818181818181
40
0
40
0
40
0
40
0
40
0
40
0
41
1
41
1
41
1
41
1
41
1
41
1
41
1
41
1
41
1
41
1
41
1
41
1
41
1
41
1
41
1
41
1
41
1
41
1
41
1
41
1
41
1
41
1
41
1
41
1
41
1
41
1
41
1
41
1
41
1
41
1
41
1
41
1
41
1
41
1
41
1
41
1
41
1
41
1
41
1
41
1
41
1
41
1
41
1
41
1
41
1
41
1
41
1
41
1
41
1
41
1
41
1
41
1
41
1
41
1
41
1
41
1
41
1
41
1
41
1
41
1
10
0.54189857001139885
20
-0.29946619084772663
30
4.3709567898628207e-17
10
0.54169916758171688
20
-0.2991373948392369
30
4.3709567898628207e-17
10
0.54129953482656334
20
-0.29848076486714148
30
4.3709567898628207e-17
10
0.54069760200719874
20
-0.29749870604380002
30
4.3709567898628207e-17
10
0.53989005486143415
20
-0.29619506965452597
30
4.3709567898628207e-17
10
0.5388723166045114
20
-0.29457517270702294
30
4.3709567898628207e-17
10
0.53784623804205467
20
-0.29296496181783982
30
4.3709567898628207e-17
10
0.53681176763346061
20
-0.29136448857382607
30
4.3709567898628207e-17
10
0.53576883720132995
20
-0.28977381772151906
30
4.3709567898628207e-17
10
0.53471736278734816
20
-0.28819302684738651
30
4.3709567898628207e-17
10
0.53365726406053082
20
-0.28662221268766958
30
4.3709567898628207e-17
10
0.53258848359108857
20
-0.28506149735501318
30
4.3709567898628207e-17
10
0.53151100428606235
20
-0.28351103346768797
30
4.3709567898628207e-17
10
0.53042487273764272
20
-0.28197101193632318
30
4.3709567898628207e-17
10
0.52933020577189649
20
-0.28044166159356865
30
4.3709567898628207e-17
10
0.52822712658542859
20
-0.27892321584878443
30
4.3709567898628207e-17
10
0.52711570671491415
20
-0.2774158813822335
30
4.3709567898628207e-17
10
0.52599591444573324
20
-0.27591981080395178
30
4.3709567898628207e-17
10
0.5248675399775945
20
-0.27443506143674518
30
4.3709567898628207e-17
10
0.52373019692431144
20
-0.27296159823668931
30
4.3709567898628207e-17
10
0.52258348244046027
20
-0.2714993883876281
30
4.3709567898628207e-17
10
0.52142711780086004
20
-0.27004848445762242
30
4.3709567898628207e-17
10
0.52026106994386012
20
-0.26860909611149564
30
4.3709567898628207e-17
10
0.51908574764166482
20
-0.26718170535502972
30
4.3709567898628207e-17
10
0.51790192011566116
20
-0.26576701903073058
30
4.3709567898628207e-17
10
0.51671033488075557
20
-0.26436574518234551
30
4.3709567898628207e-17
10
0.51551138388266116
20
-0.26297839716010535
30
4.3709567898628207e-17
10
0.51430481587363897
20
-0.26160512528243418
30
4.3709567898628207e-17
10
0.51308926248823583
20
-0.26024543744475537
30
4.3709567898628207e-17
10
0.51186264245636071
20
-0.2588984414163254
30
4.3709567898628207e-17
10
0.51062303509006268
20
-0.25756336588052436
30
4.3709567898628207e-17
10
0.50936945514983922
20
-0.25624002243951183
30
4.3709567898628207e-17
10
0.50810256768291362
20
-0.25492923221204861
30
4.3709567898628207e-17
10
0.50682570045550834
20
-0.25363342778578879
30
4.3709567898628207e-17
10
0.50554338719094938
20
-0.25235579739505037
30
4.3709567898628207e-17
10
0.50425939040263346
20
-0.25109912167913062
30
4.3709567898628207e-17
10
0.50297493599384746
20
-0.24986473520323843
30
4.3709567898628207e-17
10
0.50168678203968686
20
-0.24865138996069347
30
4.3709567898628207e-17
10
0.5003855436084359
20
-0.24745426970688333
30
4.3709567898628207e-17
10
0.4990600328745578
20
-0.24626758116300576
30
4.3709567898628207e-17
10
0.49770168960851602
20
-0.24508719329094608
30
4.3709567898628207e-17
10
0.49630847759505009
20
-0.24391297168660875
30
4.3709567898628207e-17
10
0.49489020041891202
20
-0.24275192604207416
30
4.3709567898628207e-17
10
0.49346954198601911
20
-0.2416189066864039
30
4.3709567898628207e-17
10
0.49207096212077078
20
-0.24053032192762064
30
4.3709567898628207e-17
10
0.49071117850688512
20
-0.23949878312081521
30
4.3709567898628207e-17
10
0.48939019939552841
20
-0.23852802797892259
30
4.3709567898628207e-17
10
0.48807919505234776
20
-0.23760612409045037
30
4.3709567898628207e-17
10
0.48672123993055905
20
-0.23670571088093337
30
4.3709567898628207e-17
10
0.485244315457946
20
-0.2357909561625515
30
4.3709567898628207e-17
10
0.48357117799059507
20
-0.23482278819877128
30
4.3709567898628207e-17
10
0.4816298790675817
20
-0.23376450015817471
30
4.3709567898628207e-17
10
0.4793655985971752
20
-0.23258802965099237
30
4.3709567898628207e-17
10
0.47674029087518244
20
-0.23127383996344711
30
4.3709567898628207e-17
10
0.47372901358920633
20
-0.22980905499120924
30
4.3709567898628207e-17
10
0.47031742894581774
20
-0.2281862099671616
30
4.3709567898628207e-17
10
0.46726256221113516
20
-0.22675864956994279
30
4.3709567898628207e-17
10
0.46478746319971415
20
-0.22561480692569244
30
4.3709567898628207e-17
10
0.46305568551119586
20
-0.22481974131435439
30
4.3709567898628207e-17
10
0.46216936877974463
20
-0.22441408256403497
30
4.3709567898628207e-17
0
ARC
5
150
100
AcDbEntity
8
0
100
AcDbCircle
10
-2.444917347366227e-06
20
-3.4970624706616941e-05
30
4.3709567898628207e-17
40
0.51375944881894009
210
-0
220
0
230
1
100
AcDbArc
50
334.10395895971311
51
339.8960402681181
0
SPLINE
5
151
100
AcDbEntity
8
0
100
AcDbSpline
70
4
71
5
72
66
73
60
74
0
42
0.000000001
43
0.0000000001
44
0.0000000001
40
0
40
0
40
0
40
0
40
0
40
0
40
0.018181818181818181
40
0.036363636363636362
40
0.054545454545454543
40
0.072727272727272724
40
0.090909090909090912
40
0.1090909090909091
40
0.12727272727272729
40
0.14545454545454548
40
0.16363636363636366
40
0.18181818181818185
40
0.20000000000000004
40
0.21818181818181823
40
0.23636363636363641
40
0.25454545454545457
40
0.27272727272727276
40
0.29090909090909095
40
0.30909090909090914
40
0.32727272727272733
40
0.34545454545454551
40
0.3636363636363637
40
0.38181818181818189
40
0.40000000000000008
40
0.41818181818181827
40
0.43636363636363645
40
0.45454545454545464
40
0.47272727272727283
40
0.49090909090909102
40
0.50909090909090915
40
0.52727272727272734
40
0.54545454545454553
40
0.56363636363636371
40
0.5818181818181819
40
0.60000000000000009
40
0.61818181818181828
40
0.63636363636363646
40
0.65454545454545465
40
0.67272727272727284
40
0.69090909090909103
40
0.70909090909090922
40
0.7272727272727274
40
0.74545454545454559
40
0.76363636363636378
40
0.78181818181818197
40
0.80000000000000016
40
0.81818181818181834
40
0.83636363636363653
40
0.85454545454545472
40
0.87272727272727291
40
0.89090909090909109
40
0.90909090909090928
40
0.92727272727272747
40
0.94545454545454566
40
0.96363636363636385
40
0.98181818181818203
40
1
40
1
40
1
40
1
40
1
40
1
41
1
41
1
41
1
41
1
41
1
41
1
41
1
41
1
41
1
41
1
41
1
41
1
41
1
41
1
41
1
41
1
41
1
41
1
41
1
41
1
41
1
41
1
41
1
41
1
41
1
41
1
41
1
41
1
41
1
41
1
41
1
41
1
41
1
41
1
41
1
41
1
41
1
41
1
41
1
41
1
41
1
41
1
41
1
41
1
41
1
41
1
41
1
41
1
41
1
41
1
41
1
41
1
41
1
41
1
41
1
41
1
41
1
41
1
41
1
41
1
10
0.48245389726024851
20
-0.17662672904892329
30
4.3709567898628207e-17
10
0.48336139107641951
20
-0.17698249771540367
30
4.3709567898628207e-17
10
0.48513630727251517
20
-0.17767593537415863
30
4.3709567898628207e-17
10
0.48767846704480811
20
-0.17866179276993552
30
4.3709567898628207e-17
10
0.49082745678771372
20
-0.17986761326019057
30
4.3709567898628207e-17
10
0.49436471961445694
20
-0.18119437904415406
30
4.3709567898628207e-17
10
0.49751020670075785
20
-0.18234298554622375
30
4.3709567898628207e-17
10
0.50027924761893527
20
-0.18331856104915242
30
4.3709567898628207e-17
10
0.50269843104934497
20
-0.18413010305770858
30
4.3709567898628207e-17
10
0.50480823929452234
20
-0.18479140801996885
30
4.3709567898628207e-17
10
0.5066669399836693
20
-0.18532241643662622
30
4.3709567898628207e-17
10
0.50835091740182758
20
-0.18574938499252264
30
4.3709567898628207e-17
10
0.50994193534755472
20
-0.186100736607305
30
4.3709567898628207e-17
10
0.51151579764330313
20
-0.18640338597813266
30
4.3709567898628207e-17
10
0.51313172964648668
20
-0.18667927566517173
30
4.3709567898628207e-17
10
0.51481834163171158
20
-0.18694085509463082
30
4.3709567898628207e-17
10
0.51657293918152625
20
-0.18719071476465879
30
4.3709567898628207e-17
10
0.51837483736740164
20
-0.18742558956309022
30
4.3709567898628207e-17
10
0.52019524181865662
20
-0.18763928273285668
30
4.3709567898628207e-17
10
0.5220077125375211
20
-0.18782579274264125
30
4.3709567898628207e-17
10
0.52380039703131887
20
-0.18798293682486705
30
4.3709567898628207e-17
10
0.52557480645622046
20
-0.18811208634530394
30
4.3709567898628207e-17
10
0.52733985886740986
20
-0.18821652935767094
30
4.3709567898628207e-17
10
0.52910749331750195
20
-0.18830028936070184
30
4.3709567898628207e-17
10
0.53088769364425725
20
-0.18836677166479998
30
4.3709567898628207e-17
10
0.53268360961880346
20
-0.1884174413773331
30
4.3709567898628207e-17
10
0.53449342965128843
20
-0.18845234372414332
30
4.3709567898628207e-17
10
0.53631253985578164
20
-0.18847070377389652
30
4.3709567898628207e-17
10
0.5381354974196062
20
-0.18847147497254524
30
4.3709567898628207e-17
10
0.53995824082499244
20
-0.18845395334272341
30
4.3709567898628207e-17
10
0.54177971742791597
20
-0.18841823088650164
30
4.3709567898628207e-17
10
0.54360074715529927
20
-0.18836488545374142
30
4.3709567898628207e-17
10
0.54542321906783464
20
-0.18829476287020813
30
4.3709567898628207e-17
10
0.54724922075428417
20
-0.18820874048078559
30
4.3709567898628207e-17
10
0.54908005675156213
20
-0.18810746076065873
30
4.3709567898628207e-17
10
0.55091579346098662
20
-0.18799120886227697
30
4.3709567898628207e-17
10
0.55275578934093528
20
-0.18786005944651588
30
4.3709567898628207e-17
10
0.55459901579987481
20
-0.1877139666446544
30
4.3709567898628207e-17
10
0.55644443003178257
20
-0.1875528681391837
30
4.3709567898628207e-17
10
0.55829140135368027
20
-0.18737680471333068
30
4.3709567898628207e-17
10
0.56013980191186297
20
-0.1871859457950803
30
4.3709567898628207e-17
10
0.56198978751081063
20
-0.18698052839939611
30
4.3709567898628207e-17
10
0.56384166159643312
20
-0.18676081951301174
30
4.3709567898628207e-17
10
0.56569571778361794
20
-0.1865270727353375
30
4.3709567898628207e-17
10
0.56755206057731356
20
-0.18627947880383885
30
4.3709567898628207e-17
10
0.56941060222987261
20
-0.18601816654393916
30
4.3709567898628207e-17
10
0.57127114437440329
20
-0.18574322806862983
30
4.3709567898628207e-17
10
0.57313343353071089
20
-0.18545473689745154
30
4.3709567898628207e-17
10
0.57499722393615571
20
-0.18515276795327795
30
4.3709567898628207e-17
10
0.57686234589546925
20
-0.18483742033816158
30
4.3709567898628207e-17
10
0.57872870149801725
20
-0.18450881236531264
30
4.3709567898628207e-17
10
0.58059624279739441
20
-0.18416707017284034
30
4.3709567898628207e-17
10
0.58246495600995829
20
-0.18381231874466047
30
4.3709567898628207e-17
10
0.58433484364702004
20
-0.18344467237141682
30
4.3709567898628207e-17
10
0.58620590649382132
20
-0.18306422507253928
30
4.3709567898628207e-17
10
0.58807814324500807
20
-0.18267104975845733
30
4.3709567898628207e-17
10
0.58957687017370852
20
-0.1823463686514003
30
4.3709567898628207e-17
10
0.59070144184640583
20
-0.18209716751871186
30
4.3709567898628207e-17
10
0.59145139016018811
20
-0.18192850576868327
30
4.3709567898628207e-17
10
0.59182642278330599
20
-0.18184354297820585
30
4.3709567898628207e-17
0
ARC
5
152
100
AcDbEntity
8
0
100
AcDbCircle
10
-2.5115136696138727e-06
20
-3.4952155904652835e-05
30
4.3709567898628207e-17
40
0.6191250690836908
210
-0
220
0
230
1
100
AcDbArc
50
342.92315347905776
51
346.07684574877084
0
SPLINE
5
153
100
AcDbEntity
8
0
100
AcDbSpline
70
4
71
5
72
66
73
60
74
0
42
0.000000001
43
0.0000000001
44
0.0000000001
40
-1
40
-1
40
-1
40
-1
40
-1
40
-1
40
-0.98181818181818203
40
-0.96363636363636385
40
-0.94545454545454566
40
-0.92727272727272747
40
-0.90909090909090928
40
-0.89090909090909109
40
-0.87272727272727291
40
-0.85454545454545472
40
-0.83636363636363653
40
-0.81818181818181834
40
-0.80000000000000016
40
-0.78181818181818197
40
-0.76363636363636378
40
-0.74545454545454559
40
-0.7272727272727274
40
-0.70909090909090922
40
-0.69090909090909103
40
-0.67272727272727284
40
-0.65454545454545465
40
-0.63636363636363646
40
-0.61818181818181828
40
-0.60000000000000009
40
-0.5818181818181819
40
-0.56363636363636371
40
-0.54545454545454553
40
-0.52727272727272734
40
-0.50909090909090915
40
-0.49090909090909102
40
-0.47272727272727283
40
-0.45454545454545464
40
-0.43636363636363645
40
-0.41818181818181827
40
-0.40000000000000008
40
-0.38181818181818189
40
-0.3636363636363637
40
-0.34545454545454551
40
-0.32727272727272733
40
-0.30909090909090914
40
-0.29090909090909095
40
-0.27272727272727276
40
-0.25454545454545457
40
-0.23636363636363641
40
-0.21818181818181823
40
-0.20000000000000004
40
-0.18181818181818185
40
-0.16363636363636366
40
-0.14545454545454548
40
-0.12727272727272729
40
-0.1090909090909091
40
-0.090909090909090912
40
-0.072727272727272724
40
-0.054545454545454543
40
-0.036363636363636362
40
-0.018181818181818181
40
0
40
0
40
0
40
0
40
0
40
0
41
1
41
1
41
1
41
1
41
1
41
1
41
1
41
1
41
1
41
1
41
1
41
1
41
1
41
1
41
1
41
1
41
1
41
1
41
1
41
1
41
1
41
1
41
1
41
1
41
1
41
1
41
1
41
1
41
1
41
1
41
1
41
1
41
1
41
1
41
1
41
1
41
1
41
1
41
1
41
1
41
1
41
1
41
1
41
1
41
1
41
1
41
1
41
1
41
1
41
1
41
1
41
1
41
1
41
1
41
1
41
1
41
1
41
1
41
1
41
1
10
0.600932243186591
20
-0.14900901621143794
30
4.3709567898628207e-17
10
0.60065453656098311
20
-0.14874303280168194
30
4.3709567898628207e-17
10
0.60009857261938171
20
-0.14821220952137196
30
4.3709567898628207e-17
10
0.59926297463656986
20
-0.14741940521846691
30
4.3709567898628207e-17
10
0.59814553806709503
20
-0.14636919774310869
30
4.3709567898628207e-17
10
0.59674321821921628
20
-0.14506790748942916
30
4.3709567898628207e-17
10
0.59533534919119324
20
-0.14377813187956603
30
4.3709567898628207e-17
10
0.59392189455027666
20
-0.14249993408226114
30
4.3709567898628207e-17
10
0.5925028051997937
20
-0.14123339428346557
30
4.3709567898628207e-17
10
0.59107802012309607
20
-0.13997860915596028
30
4.3709567898628207e-17
10
0.58964748676359324
20
-0.13873569293097068
30
4.3709567898628207e-17
10
0.58821118125345018
20
-0.13750477842418396
30
4.3709567898628207e-17
10
0.58676912658265112
20
-0.13628601747751995
30
4.3709567898628207e-17
10
0.58532141716710273
20
-0.13507958243754384
30
4.3709567898628207e-17
10
0.58386822507836522
20
-0.1338856641028113
30
4.3709567898628207e-17
10
0.58240972972600802
20
-0.13270445604382261
30
4.3709567898628207e-17
10
0.58094605370194274
20
-0.13153613938332545
30
4.3709567898628207e-17
10
0.57947720587058349
20
-0.13038086973964003
30
4.3709567898628207e-17
10
0.57800299841664526
20
-0.12923875678265412
30
4.3709567898628207e-17
10
0.57652304904969642
20
-0.12810986666663909
30
4.3709567898628207e-17
10
0.57503696015749173
20
-0.12699427195769031
30
4.3709567898628207e-17
10
0.57354447611779591
20
-0.12589209557204226
30
4.3709567898628207e-17
10
0.57204561926075426
20
-0.12480354858734859
30
4.3709567898628207e-17
10
0.57054090918227585
20
-0.12372899078741202
30
4.3709567898628207e-17
10
0.56903127183746383
20
-0.12266890584051926
30
4.3709567898628207e-17
10
0.56751761252547794
20
-0.12162378419331818
30
4.3709567898628207e-17
10
0.56600044270162031
20
-0.12059402026103892
30
4.3709567898628207e-17
10
0.56447955858448251
20
-0.11957982426782827
30
4.3709567898628207e-17
10
0.56295351106849889
20
-0.11858107503620584
30
4.3709567898628207e-17
10
0.56142005887483093
20
-0.11759744940979051
30
4.3709567898628207e-17
10
0.55987714712995174
20
-0.11662869946456007
30
4.3709567898628207e-17
10
0.55832377540463096
20
-0.11567489822092213
30
4.3709567898628207e-17
10
0.55676079860632943
20
-0.11473666669180781
30
4.3709567898628207e-17
10
0.55519206071039739
20
-0.11381549328718234
30
4.3709567898628207e-17
10
0.5536227661330444
20
-0.11291328419097213
30
4.3709567898628207e-17
10
0.5520572688655373
20
-0.11203175148436302
30
4.3709567898628207e-17
10
0.5504970984504135
20
-0.11117186697123786
30
4.3709567898628207e-17
10
0.54893880042078569
20
-0.11033326424162024
30
4.3709567898628207e-17
10
0.5473720630929052
20
-0.10951372015951766
30
4.3709567898628207e-17
10
0.5457845804462641
20
-0.10871053446963903
30
4.3709567898628207e-17
10
0.54416701474274032
20
-0.10792193244601613
30
4.3709567898628207e-17
10
0.54251736436308751
20
-0.10714831127555267
30
4.3709567898628207e-17
10
0.54084691308481081
20
-0.10639390444641861
30
4.3709567898628207e-17
10
0.53918141542645137
20
-0.10566718524811287
30
4.3709567898628207e-17
10
0.5375487445467042
20
-0.10497767222072382
30
4.3709567898628207e-17
10
0.53596831254689492
20
-0.10433322014289927
30
4.3709567898628207e-17
10
0.53444109478832758
20
-0.10373743723253533
30
4.3709567898628207e-17
10
0.53293615555069485
20
-0.10318625934952012
30
4.3709567898628207e-17
10
0.53139142754046809
20
-0.10266799162402154
30
4.3709567898628207e-17
10
0.529728072106183
20
-0.1021666625985078
30
4.3709567898628207e-17
10
0.52786136510776105
20
-0.10166452399974533
30
4.3709567898628207e-17
10
0.5257123092415924
20
-0.10114474138322073
30
4.3709567898628207e-17
10
0.52322068928431809
20
-0.10059439704569907
30
4.3709567898628207e-17
10
0.52034469943400008
20
-0.1000044669236012
30
4.3709567898628207e-17
10
0.51705691468579906
20
-0.099368969200679294
30
4.3709567898628207e-17
10
0.51334155377073432
20
-0.098684404359577677
30
4.3709567898628207e-17
10
0.51002129927677187
20
-0.098096144594475077
30
4.3709567898628207e-17
10
0.50733448895773892
20
-0.097631880205812011
30
4.3709567898628207e-17
10
0.50545594204037447
20
-0.09731212284586159
30
4.3709567898628207e-17
10
0.50449483360862191
20
-0.097149682232339871
30
4.3709567898628207e-17
0
ARC
5
154
100
AcDbEntity
8
0
100
AcDbCircle
10
-2.444917347366227e-06
20
-3.4970624706616941e-05
30
4.3709567898628207e-17
40
0.51375944881894209
210
-0
220
0
230
1
100
AcDbArc
50
349.10395895971186
51
354.89604026811702
0
SPLINE
5
155
100
AcDbEntity
8
0
100
AcDbSpline
70
4
71
5
72
66
73
60
74
0
42
0.000000001
43
0.0000000001
44
0.0000000001
40
0
40
0
40
0
40
0
40
0
40
0
40
0.018181818181818181
40
0.036363636363636362
40
0.054545454545454543
40
0.072727272727272724
40
0.090909090909090912
40
0.1090909090909091
40
0.12727272727272729
40
0.14545454545454548
40
0.16363636363636366
40
0.18181818181818185
40
0.20000000000000004
40
0.21818181818181823
40
0.23636363636363641
40
0.25454545454545457
40
0.27272727272727276
40
0.29090909090909095
40
0.30909090909090914
40
0.32727272727272733
40
0.34545454545454551
40
0.3636363636363637
40
0.38181818181818189
40
0.40000000000000008
40
0.41818181818181827
40
0.43636363636363645
40
0.45454545454545464
40
0.47272727272727283
40
0.49090909090909102
40
0.50909090909090915
40
0.52727272727272734
40
0.54545454545454553
40
0.56363636363636371
40
0.5818181818181819
40
0.60000000000000009
40
0.61818181818181828
40
0.63636363636363646
40
0.65454545454545465
40
0.67272727272727284
40
0.69090909090909103
40
0.70909090909090922
40
0.7272727272727274
40
0.74545454545454559
40
0.76363636363636378
40
0.78181818181818197
40
0.80000000000000016
40
0.81818181818181834
40
0.83636363636363653
40
0.85454545454545472
40
0.87272727272727291
40
0.89090909090909109
40
0.90909090909090928
40
0.92727272727272747
40
0.94545454545454566
40
0.96363636363636385
40
0.98181818181818203
40
1
40
1
40
1
40
1
40
1
40
1
41
1
41
1
41
1
41
1
41
1
41
1
41
1
41
1
41
1
41
1
41
1
41
1
41
1
41
1
41
1
41
1
41
1
41
1
41
1
41
1
41
1
41
1
41
1
41
1
41
1
41
1
41
1
41
1
41
1
41
1
41
1
41
1
41
1
41
1
41
1
41
1
41
1
41
1
41
1
41
1
41
1
41
1
41
1
41
1
41
1
41
1
41
1
41
1
41
1
41
1
41
1
41
1
41
1
41
1
41
1
41
1
41
1
41
1
41
1
41
1
10
0.51171990633727893
20
-0.04574062101040894
30
4.3709567898628207e-17
10
0.51268855775812894
20
-0.045849390470603116
30
4.3709567898628207e-17
10
0.51458247002425128
20
-0.04605981769909525
30
4.3709567898628207e-17
10
0.51729316647280199
20
-0.046354123453940195
30
4.3709567898628207e-17
10
0.52064694630016028
20
-0.046703838089042563
30
4.3709567898628207e-17
10
0.52440707207216997
20
-0.047069884438116716
30
4.3709567898628207e-17
10
0.52774266052305618
20
-0.047365241158658387
30
4.3709567898628207e-17
10
0.53066984617991908
20
-0.047590894206150022
30
4.3709567898628207e-17
10
0.53321664046143824
20
-0.047748652845956134
30
4.3709567898628207e-17
10
0.53542571705270148
20
-0.047841365832697269
30
4.3709567898628207e-17
10
0.53735851914296529
20
-0.047873213438830414
30
4.3709567898628207e-17
10
0.53909562401597066
20
-0.047849787966642368
30
4.3709567898628207e-17
10
0.54072336582930658
20
-0.047777381820013037
30
4.3709567898628207e-17
10
0.54232193148900409
20
-0.047662373127094565
30
4.3709567898628207e-17
10
0.54395420744980294
20
-0.047510628122995523
30
4.3709567898628207e-17
10
0.54565105126343127
20
-0.047326767146060274
30
4.3709567898628207e-17
10
0.54741053079274304
20
-0.047113989791906001
30
4.3709567898628207e-17
10
0.54921182085785591
20
-0.046874495857816237
30
4.3709567898628207e-17
10
0.5510255043937391
20
-0.04660975226762247
30
4.3709567898628207e-17
10
0.55282448901310188
20
-0.046320805162202924
30
4.3709567898628207e-17
10
0.55459676114534839
20
-0.046008613800818748
30
4.3709567898628207e-17
10
0.5563441353908285
20
-0.045674111705087464
30
4.3709567898628207e-17
10
0.55807607694028682
20
-0.045318166728487895
30
4.3709567898628207e-17
10
0.55980515939107933
20
-0.044941575218161792
30
4.3709567898628207e-17
10
0.5615419077491296
20
-0.044545042444019002
30
4.3709567898628207e-17
10
0.56328974365740292
20
-0.044129168370348797
30
4.3709567898628207e-17
10
0.56504692895978781
20
-0.043694465555915767
30
4.3709567898628207e-17
10
0.56680880641771592
20
-0.043241379636081267
30
4.3709567898628207e-17
10
0.56856984780973685
20
-0.042770308420842361
30
4.3709567898628207e-17
10
0.57032594780819601
20
-0.042281623118430062
30
4.3709567898628207e-17
10
0.57207611344893172
20
-0.041775685040342202
30
4.3709567898628207e-17
10
0.57382128627908346
20
-0.041252840133979875
30
4.3709567898628207e-17
10
0.57556350990698057
20
-0.040713416479410021
30
4.3709567898628207e-17
10
0.57730502786208548
20
-0.040157721218984581
30
4.3709567898628207e-17
10
0.57904726651510674
20
-0.039586037297078852
30
4.3709567898628207e-17
10
0.58079036380767668
20
-0.038998622963883477
30
4.3709567898628207e-17
10
0.58253371938183029
20
-0.038395716379456338
30
4.3709567898628207e-17
10
0.58427632782274308
20
-0.037777539457093987
30
4.3709567898628207e-17
10
0.58601716572818874
20
-0.037144301900763406
30
4.3709567898628207e-17
10
0.58775563446066714
20
-0.036496206336802693
30
4.3709567898628207e-17
10
0.5894916543741735
20
-0.035833449511051496
30
4.3709567898628207e-17
10
0.59122543730826338
20
-0.035156220037217689
30
4.3709567898628207e-17
10
0.59295734547042767
20
-0.034464697267101906
30
4.3709567898628207e-17
10
0.59468772810722348
20
-0.033759050165799588
30
4.3709567898628207e-17
10
0.59641673552917263
20
-0.033039435923684135
30
4.3709567898628207e-17
10
0.59814431632103082
20
-0.032306001687321943
30
4.3709567898628207e-17
10
0.59987030271569231
20
-0.031558887772160205
30
4.3709567898628207e-17
10
0.60159446889834634
20
-0.030798230798123875
30
4.3709567898628207e-17
10
0.60331659687198169
20
-0.030024166743203379
30
4.3709567898628207e-17
10
0.60503654837304899
20
-0.029236835252996897
30
4.3709567898628207e-17
10
0.60675425944884698
20
-0.028436375950425717
30
4.3709567898628207e-17
10
0.60846971643364611
20
-0.027622923084988839
30
4.3709567898628207e-17
10
0.61018293836168824
20
-0.026796600949347042
30
4.3709567898628207e-17
10
0.61189395723931195
20
-0.025957519289810316
30
4.3709567898628207e-17
10
0.61360279815902474
20
-0.025105768718940619
30
4.3709567898628207e-17
10
0.61530947873056607
20
-0.024241420000658338
30
4.3709567898628207e-17
10
0.61667310412346554
20
-0.02353990306149021
30
4.3709567898628207e-17
10
0.61769485894644849
20
-0.023008132685013939
30
4.3709567898628207e-17
10
0.61837560051803786
20
-0.022651117038309465
30
4.3709567898628207e-17
10
0.6187158642261148
20
-0.02247198369931877
30
4.3709567898628207e-17
0
ARC
5
156
100
AcDbEntity
8
0
100
AcDbCircle
10
-2.193244683735344e-06
20
-3.4972821028611501e-05
30
4.3709567898628207e-17
40
0.61912474841310527
210
-0
220
0
230
1
100
AcDbArc
50
-2.0768473378628927
51
1.0768465656917119
0
SPLINE
5
157
100
AcDbEntity
8
0
100
AcDbSpline
70
4
71
5
72
66
73
60
74
0
42
0.000000001
43
0.0000000001
44
0.0000000001
40
-1
40
-1
40
-1
40
-1
40
-1
40
-1
40
-0.98181818181818203
40
-0.96363636363636385
40
-0.94545454545454566
40
-0.92727272727272747
40
-0.90909090909090928
40
-0.89090909090909109
40
-0.87272727272727291
40
-0.85454545454545472
40
-0.83636363636363653
40
-0.81818181818181834
40
-0.80000000000000016
40
-0.78181818181818197
40
-0.76363636363636378
40
-0.74545454545454559
40
-0.7272727272727274
40
-0.70909090909090922
40
-0.69090909090909103
40
-0.67272727272727284
40
-0.65454545454545465
40
-0.63636363636363646
40
-0.61818181818181828
40
-0.60000000000000009
40
-0.5818181818181819
40
-0.56363636363636371
40
-0.54545454545454553
40
-0.52727272727272734
40
-0.50909090909090915
40
-0.49090909090909102
40
-0.47272727272727283
40
-0.45454545454545464
40
-0.43636363636363645
40
-0.41818181818181827
40
-0.40000000000000008
40
-0.38181818181818189
40
-0.3636363636363637
40
-0.34545454545454551
40
-0.32727272727272733
40
-0.30909090909090914
40
-0.29090909090909095
40
-0.27272727272727276
40
-0.25454545454545457
40
-0.23636363636363641
40
-0.21818181818181823
40
-0.20000000000000004
40
-0.18181818181818185
40
-0.16363636363636366
40
-0.14545454545454548
40
-0.12727272727272729
40
-0.1090909090909091
40
-0.090909090909090912
40
-0.072727272727272724
40
-0.054545454545454543
40
-0.036363636363636362
40
-0.018181818181818181
40
0
40
0
40
0
40
0
40
0
40
0
41
1
41
1
41
1
41
1
41
1
41
1
41
1
41
1
41
1
41
1
41
1
41
1
41
1
41
1
41
1
41
1
41
1
41
1
41
1
41
1
41
1
41
1
41
1
41
1
41
1
41
1
41
1
41
1
41
1
41
1
41
1
41
1
41
1
41
1
41
1
41
1
41
1
41
1
41
1
41
1
41
1
41
1
41
1
41
1
41
1
41
1
41
1
41
1
41
1
41
1
41
1
41
1
41
1
41
1
41
1
41
1
41
1
41
1
41
1
41
1
10
0.61901321045902991
20
0.011600493440335658
30
4.3709567898628207e-17
10
0.6186761248851036
20
0.011785537921520595
30
4.3709567898628207e-17
10
0.61800171778090751
20
0.012154379780683384
30
4.3709567898628207e-17
10
0.61698939925629326
20
0.01270390126004429
30
4.3709567898628207e-17
10
0.61563822471866958
20
0.013429109917578067
30
4.3709567898628207e-17
10
0.61394688906002026
20
0.014323112697154312
30
4.3709567898628207e-17
10
0.61225317351406572
20
0.015204556951385452
30
4.3709567898628207e-17
10
0.6105570592387547
20
0.016073372234458979
30
4.3709567898628207e-17
10
0.60885851956399528
20
0.016929468385536751
30
4.3709567898628207e-17
10
0.60715752057298888
20
0.017772736233611613
30
4.3709567898628207e-17
10
0.60545404106518574
20
0.018603051837147142
30
4.3709567898628207e-17
10
0.60374809236125204
20
0.019420280728592164
30
4.3709567898628207e-17
10
0.60203973596739002
20
0.020224282190161876
30
4.3709567898628207e-17
10
0.60032910768892733
20
0.02101491418449454
30
4.3709567898628207e-17
10
0.59861642311653107
20
0.021792036949734736
30
4.3709567898628207e-17
10
0.59690190564627044
20
0.022555509945749966
30
4.3709567898628207e-17
10
0.59518572057085661
20
0.023305189950521599
30
4.3709567898628207e-17
10
0.59346791672964105
20
0.024040928942573498
30
4.3709567898628207e-17
10
0.59174834109164698
20
0.024762572378755086
30
4.3709567898628207e-17
10
0.59002664151465856
20
0.02546995741490278
30
4.3709567898628207e-17
10
0.58830245271622572
20
0.026162911047929383
30
4.3709567898628207e-17
10
0.58657555959729135
20
0.026841248389967143
30
4.3709567898628207e-17
10
0.58484603835803861
20
0.027504771335126573
30
4.3709567898628207e-17
10
0.58311448400847221
20
0.028153266840257558
30
4.3709567898628207e-17
10
0.58138191613510637
20
0.028786507372486395
30
4.3709567898628207e-17
10
0.57964933612671143
20
0.029404253505393173
30
4.3709567898628207e-17
10
0.57791734009334561
20
0.030006256637493442
30
4.3709567898628207e-17
10
0.5761857856072985
20
0.030592260965345387
30
4.3709567898628207e-17
10
0.57445324157704047
20
0.031162008481287858
30
4.3709567898628207e-17
10
0.57271745945443042
20
0.031715231244766745
30
4.3709567898628207e-17
10
0.57097639021659974
20
0.032251636891593889
30
4.3709567898628207e-17
10
0.56922908642218906
20
0.032770895959333399
30
4.3709567898628207e-17
10
0.56747653457836789
20
0.033272629861890106
30
4.3709567898628207e-17
10
0.5657228329090489
20
0.033756395799667091
30
4.3709567898628207e-17
10
0.56397350185096318
20
0.034221699542414392
30
4.3709567898628207e-17
10
0.56223319015594286
20
0.034668014242559823
30
4.3709567898628207e-17
10
0.56050362676997889
20
0.035094797084373908
30
4.3709567898628207e-17
10
0.55878138010040723
20
0.035501507910894542
30
4.3709567898628207e-17
10
0.55705591443564706
20
0.035887625246451151
30
4.3709567898628207e-17
10
0.55531464419517484
20
0.036252572304890297
30
4.3709567898628207e-17
10
0.55354809048370079
20
0.036595646555394885
30
4.3709567898628207e-17
10
0.55175442268503727
20
0.036915946287694963
30
4.3709567898628207e-17
10
0.54994563579866185
20
0.037212302722750785
30
4.3709567898628207e-17
10
0.54814879982787057
20
0.037483197051297448
30
4.3709567898628207e-17
10
0.54639330175595902
20
0.037726649173951944
30
4.3709567898628207e-17
10
0.54469992519924759
20
0.037940096178687918
30
4.3709567898628207e-17
10
0.5430705461599199
20
0.038120305236734597
30
4.3709567898628207e-17
10
0.54147423114991899
20
0.03826319525239838
30
4.3709567898628207e-17
10
0.5398480009124168
20
0.0383639984048414
30
4.3709567898628207e-17
10
0.53811156944047867
20
0.038417736992885837
30
4.3709567898628207e-17
10
0.53617850590796567
20
0.038419626310987186
30
4.3709567898628207e-17
10
0.53396814770425727
20
0.038365481177185891
30
4.3709567898628207e-17
10
0.53141898804234489
20
0.038252194288043495
30
4.3709567898628207e-17
10
0.52848831001891772
20
0.038077662081893643
30
4.3709567898628207e-17
10
0.52514807490553728
20
0.03784056443597552
30
4.3709567898628207e-17
10
0.52138213342518669
20
0.037540197131516961
30
4.3709567898628207e-17
10
0.51802276102891742
20
0.037249067333576108
30
4.3709567898628207e-17
10
0.51530734108565912
20
0.037002114615674875
30
4.3709567898628207e-17
10
0.51341004480770547
20
0.036824772788470246
30
4.3709567898628207e-17
10
0.51243964262712993
20
0.03673292520576607
30
4.3709567898628207e-17
0
ARC
5
158
100
AcDbEntity
8
0
100
AcDbCircle
10
-2.444917347366227e-06
20
-3.4970624706616941e-05
30
4.3709567898628207e-17
40
0.5137594488189412
210
0
220
-0
230
1
100
AcDbArc
50
4.1039589597104857
51
9.8960402681156676
0
SPLINE
5
159
100
AcDbEntity
8
0
100
AcDbSpline
70
4
71
5
72
66
73
60
74
0
42
0.000000001
43
0.0000000001
44
0.0000000001
40
0
40
0
40
0
40
0
40
0
40
0
40
0.018181818181818181
40
0.036363636363636362
40
0.054545454545454543
40
0.072727272727272724
40
0.090909090909090912
40
0.1090909090909091
40
0.12727272727272729
40
0.14545454545454548
40
0.16363636363636366
40
0.18181818181818185
40
0.20000000000000004
40
0.21818181818181823
40
0.23636363636363641
40
0.25454545454545457
40
0.27272727272727276
40
0.29090909090909095
40
0.30909090909090914
40
0.32727272727272733
40
0.34545454545454551
40
0.3636363636363637
40
0.38181818181818189
40
0.40000000000000008
40
0.41818181818181827
40
0.43636363636363645
40
0.45454545454545464
40
0.47272727272727283
40
0.49090909090909102
40
0.50909090909090915
40
0.52727272727272734
40
0.54545454545454553
40
0.56363636363636371
40
0.5818181818181819
40
0.60000000000000009
40
0.61818181818181828
40
0.63636363636363646
40
0.65454545454545465
40
0.67272727272727284
40
0.69090909090909103
40
0.70909090909090922
40
0.7272727272727274
40
0.74545454545454559
40
0.76363636363636378
40
0.78181818181818197
40
0.80000000000000016
40
0.81818181818181834
40
0.83636363636363653
40
0.85454545454545472
40
0.87272727272727291
40
0.89090909090909109
40
0.90909090909090928
40
0.92727272727272747
40
0.94545454545454566
40
0.96363636363636385
40
0.98181818181818203
40
1
40
1
40
1
40
1
40
1
40
1
41
1
41
1
41
1
41
1
41
1
41
1
41
1
41
1
41
1
41
1
41
1
41
1
41
1
41
1
41
1
41
1
41
1
41
1
41
1
41
1
41
1
41
1
41
1
41
1
41
1
41
1
41
1
41
1
41
1
41
1
41
1
41
1
41
1
41
1
41
1
41
1
41
1
41
1
41
1
41
1
41
1
41
1
41
1
41
1
41
1
41
1
41
1
41
1
41
1
41
1
41
1
41
1
41
1
41
1
41
1
41
1
41
1
41
1
41
1
41
1
10
0.50611288283747935
20
0.088260251569732301
30
4.3709567898628207e-17
10
0.50707667986939542
20
0.088405893774747821
30
4.3709567898628207e-17
10
0.50896052121434909
20
0.088692817244324026
30
4.3709567898628207e-17
10
0.5116550248557149
20
0.089110119581163952
30
4.3709567898628207e-17
10
0.51498504021459424
20
0.089640343275614473
30
4.3709567898628207e-17
10
0.51871178257440398
20
0.090259961815203613
30
4.3709567898628207e-17
10
0.52201015754933366
20
0.090837982948645757
30
4.3709567898628207e-17
10
0.52489600507987422
20
0.091377630238940827
30
4.3709567898628207e-17
10
0.52739685039110806
20
0.091884405958549839
30
4.3709567898628207e-17
10
0.52955465040952621
20
0.092366603184210569
30
4.3709567898628207e-17
10
0.53142983663260857
20
0.092836086750353722
30
4.3709567898628207e-17
10
0.53310168813407444
20
0.093308309843409737
30
4.3709567898628207e-17
10
0.53465522590038417
20
0.093799539392200315
30
4.3709567898628207e-17
10
0.53616955531603661
20
0.094324368496484221
30
4.3709567898628207e-17
10
0.53770693832515537
20
0.094893407020446949
30
4.3709567898628207e-17
10
0.53929837686544368
20
0.095510178582035823
30
4.3709567898628207e-17
10
0.54094283275201405
20
0.096171092535318928
30
4.3709567898628207e-17
10
0.54262075975521074
20
0.096868634086110642
30
4.3709567898628207e-17
10
0.54430412284001461
20
0.097593772598109793
30
4.3709567898628207e-17
10
0.54596702353103521
20
0.098338485551011032
30
4.3709567898628207e-17
10
0.54759810588473445
20
0.09909873703064867
30
4.3709567898628207e-17
10
0.54919936428363436
20
0.099874094977513414
30
4.3709567898628207e-17
10
0.55078016601693158
20
0.10066617088114911
30
4.3709567898628207e-17
10
0.55235286235684822
20
0.10147744981574885
30
4.3709567898628207e-17
10
0.55392780221570537
20
0.10230997461487566
30
4.3709567898628207e-17
10
0.55550844592899506
20
0.10316405134389316
30
4.3709567898628207e-17
10
0.55709324722680686
20
0.10403873504114677
30
4.3709567898628207e-17
10
0.55867782290105106
20
0.1049323898738924
30
4.3709567898628207e-17
10
0.56025693606065985
20
0.10584320077818209
30
4.3709567898628207e-17
10
0.56182671733938727
20
0.10676974665741557
30
4.3709567898628207e-17
10
0.5633863011218031
20
0.10771142151344965
30
4.3709567898628207e-17
10
0.56493668641038519
20
0.10866813487708749
30
4.3709567898628207e-17
10
0.5664799320925642
20
0.10964009877207546
30
4.3709567898628207e-17
10
0.56801828474567906
20
0.11062759718983628
30
4.3709567898628207e-17
10
0.56955319536942706
20
0.1116307259989953
30
4.3709567898628207e-17
10
0.57108486404525904
20
0.11264927145094471
30
4.3709567898628207e-17
10
0.5726127725122705
20
0.11368284811665884
30
4.3709567898628207e-17
10
0.57413600704970402
20
0.11473098142384903
30
4.3709567898628207e-17
10
0.57565363340229969
20
0.11579320393805088
30
4.3709567898628207e-17
10
0.5771651257741911
20
0.11686916499846499
30
4.3709567898628207e-17
10
0.57867045815481888
20
0.11795865394930033
30
4.3709567898628207e-17
10
0.58016988398230229
20
0.11906154343181671
30
4.3709567898628207e-17
10
0.58166379954187686
20
0.12017775395167464
30
4.3709567898628207e-17
10
0.58315258591119601
20
0.12130721269278538
30
4.3709567898628207e-17
10
0.58463642896293233
20
0.12244980672413375
30
4.3709567898628207e-17
10
0.58611531711809817
20
0.12360538060580656
30
4.3709567898628207e-17
10
0.58758912464241642
20
0.12477375538216759
30
4.3709567898628207e-17
10
0.58905766877536425
20
0.12595474064332954
30
4.3709567898628207e-17
10
0.5905207741416918
20
0.12714814862286064
30
4.3709567898628207e-17
10
0.59197834333202215
20
0.12835380864823115
30
4.3709567898628207e-17
10
0.59343035070988115
20
0.12957156930187849
30
4.3709567898628207e-17
10
0.59487681782153323
20
0.13080129737179264
30
4.3709567898628207e-17
10
0.5963177952219616
20
0.13204287772690701
30
4.3709567898628207e-17
10
0.59775334223133914
20
0.13329621264427632
30
4.3709567898628207e-17
10
0.59918350653939456
20
0.13456122109330629
30
4.3709567898628207e-17
10
0.60060832347082915
20
0.13583783927903514
30
4.3709567898628207e-17
10
0.60174391851086562
20
0.13686838483022518
30
4.3709567898628207e-17
10
0.60259322558138462
20
0.13764648517813363
30
4.3709567898628207e-17
10
0.60315836899756159
20
0.13816752469519675
30
4.3709567898628207e-17
10
0.60344067538115032
20
0.1384286209416857
30
4.3709567898628207e-17
0
ARC
5
160
100
AcDbEntity
8
0
100
AcDbCircle
10
-2.3505310027493838e-06
20
-3.4946214756455553e-05
30
4.3709567898628207e-17
40
0.61912490254527974
210
0
220
-0
230
1
100
AcDbArc
50
12.923153054794897
51
16.076846173033747
0
SPLINE
5
161
100
AcDbEntity
8
0
100
AcDbSpline
70
4
71
5
72
66
73
60
74
0
42
0.000000001
43
0.0000000001
44
0.0000000001
40
-1
40
-1
40
-1
40
-1
40
-1
40
-1
40
-0.98181818181818203
40
-0.96363636363636385
40
-0.94545454545454566
40
-0.92727272727272747
40
-0.90909090909090928
40
-0.89090909090909109
40
-0.87272727272727291
40
-0.85454545454545472
40
-0.83636363636363653
40
-0.81818181818181834
40
-0.80000000000000016
40
-0.78181818181818197
40
-0.76363636363636378
40
-0.74545454545454559
40
-0.7272727272727274
40
-0.70909090909090922
40
-0.69090909090909103
40
-0.67272727272727284
40
-0.65454545454545465
40
-0.63636363636363646
40
-0.61818181818181828
40
-0.60000000000000009
40
-0.5818181818181819
40
-0.56363636363636371
40
-0.54545454545454553
40
-0.52727272727272734
40
-0.50909090909090915
40
-0.49090909090909102
40
-0.47272727272727283
40
-0.45454545454545464
40
-0.43636363636363645
40
-0.41818181818181827
40
-0.40000000000000008
40
-0.38181818181818189
40
-0.3636363636363637
40
-0.34545454545454551
40
-0.32727272727272733
40
-0.30909090909090914
40
-0.29090909090909095
40
-0.27272727272727276
40
-0.25454545454545457
40
-0.23636363636363641
40
-0.21818181818181823
40
-0.20000000000000004
40
-0.18181818181818185
40
-0.16363636363636366
40
-0.14545454545454548
40
-0.12727272727272729
40
-0.1090909090909091
40
-0.090909090909090912
40
-0.072727272727272724
40
-0.054545454545454543
40
-0.036363636363636362
40
-0.018181818181818181
40
0
40
0
40
0
40
0
40
0
40
0
41
1
41
1
41
1
41
1
41
1
41
1
41
1
41
1
41
1
41
1
41
1
41
1
41
1
41
1
41
1
41
1
41
1
41
1
41
1
41
1
41
1
41
1
41
1
41
1
41
1
41
1
41
1
41
1
41
1
41
1
41
1
41
1
41
1
41
1
41
1
41
1
41
1
41
1
41
1
41
1
41
1
41
1
41
1
41
1
41
1
41
1
41
1
41
1
41
1
41
1
41
1
41
1
41
1
41
1
41
1
41
1
41
1
41
1
41
1
41
1
10
0.59490928378930985
20
0.17141706544458976
30
4.3709567898628207e-17
10
0.59453579109183352
20
0.17150856052162233
30
4.3709567898628207e-17
10
0.59378890055462474
20
0.17169028499649469
30
4.3709567898628207e-17
10
0.59266884932266795
20
0.17195907467163871
30
4.3709567898628207e-17
10
0.59117601712869172
20
0.1723098627398075
30
4.3709567898628207e-17
10
0.58931092738938473
20
0.1727356532332486
30
4.3709567898628207e-17
10
0.58744678924103144
20
0.17314869716255404
30
4.3709567898628207e-17
10
0.58558360271629539
20
0.17354892160561822
30
4.3709567898628207e-17
10
0.58372136538916897
20
0.1739362325710351
30
4.3709567898628207e-17
10
0.5818600727540697
20
0.17431051582939613
30
4.3709567898628207e-17
10
0.57999973641127389
20
0.17467164617526307
30
4.3709567898628207e-17
10
0.5781404020984815
20
0.17501949665295743
30
4.3709567898628207e-17
10
0.57628216564657353
20
0.1753539472585107
30
4.3709567898628207e-17
10
0.57442519499541056
20
0.17567489594337116
30
4.3709567898628207e-17
10
0.57256973456261695
20
0.17598226350692428
30
4.3709567898628207e-17
10
0.57071603650668479
20
0.17627597201698417
30
4.3709567898628207e-17
10
0.56886429755669343
20
0.17655592591260649
30
4.3709567898628207e-17
10
0.56701460319860819
20
0.17682199485658084
30
4.3709567898628207e-17
10
0.56516684561456265
20
0.17707398996435425
30
4.3709567898628207e-17
10
0.56332072680846557
20
0.17731166279943109
30
4.3709567898628207e-17
10
0.56147593872105805
20
0.17753475171160571
30
4.3709567898628207e-17
10
0.55963232143510844
20
0.17774302244117879
30
4.3709567898628207e-17
10
0.5577899998279201
20
0.17793630335461375
30
4.3709567898628207e-17
10
0.55594960377465252
20
0.17811454266795204
30
4.3709567898628207e-17
10
0.55411217701009552
20
0.17827778448972378
30
4.3709567898628207e-17
10
0.55227874876964367
20
0.17842605673025269
30
4.3709567898628207e-17
10
0.55044995919419437
20
0.178559273543581
30
4.3709567898628207e-17
10
0.54862573691594074
20
0.17867715097955139
30
4.3709567898628207e-17
10
0.54680476638390763
20
0.17877906942815658
30
4.3709567898628207e-17
10
0.54498494501549333
20
0.17886418811161134
30
4.3709567898628207e-17
10
0.54316436927601341
20
0.17893169430165509
30
4.3709567898628207e-17
10
0.54134220927854371
20
0.17898102454614451
30
4.3709567898628207e-17
10
0.53951951590113056
20
0.17901206848583684
30
4.3709567898628207e-17
10
0.53770036232905916
20
0.17902545910756604
30
4.3709567898628207e-17
10
0.53589020881094407
20
0.17902214781573289
30
4.3709567898628207e-17
10
0.53409368205442476
20
0.17900282890017058
30
4.3709567898628207e-17
10
0.53231259258413477
20
0.17896742552529746
30
4.3709567898628207e-17
10
0.53054376553900529
20
0.17891452777801672
30
4.3709567898628207e-17
10
0.52877715917095669
20
0.17884090510869979
30
4.3709567898628207e-17
10
0.52700076602596257
20
0.17874274299677112
30
4.3709567898628207e-17
10
0.52520561202260652
20
0.17861690953094134
30
4.3709567898628207e-17
10
0.52339016230122137
20
0.17846205992763867
30
4.3709567898628207e-17
10
0.5215663056438673
20
0.17828016976731498
30
4.3709567898628207e-17
10
0.51976058276261727
20
0.17807677822528239
30
4.3709567898628207e-17
10
0.51800189179103739
20
0.17785757858336679
30
4.3709567898628207e-17
10
0.51631097149135108
20
0.17762547445438367
30
4.3709567898628207e-17
10
0.51469047066017926
20
0.1773778287106258
30
4.3709567898628207e-17
10
0.51311156610778685
20
0.17710269314051891
30
4.3709567898628207e-17
10
0.51151465854628964
20
0.17677916215165954
30
4.3709567898628207e-17
10
0.50982348597191984
20
0.17638164810626619
30
4.3709567898628207e-17
10
0.50795580099041071
20
0.17588315938978683
30
4.3709567898628207e-17
10
0.50583477270773236
20
0.17525877640701995
30
4.3709567898628207e-17
10
0.50340179435916488
20
0.17448957860545006
30
4.3709567898628207e-17
10
0.50061614902646978
20
0.17356247815242629
30
4.3709567898628207e-17
10
0.49745109505070867
20
0.17246894295037835
30
4.3709567898628207e-17
10
0.49389121569345479
20
0.17120411303576974
30
4.3709567898628207e-17
10
0.49072166107226933
20
0.1700534336894319
30
4.3709567898628207e-17
10
0.48816268288676679
20
0.1691120932846335
30
4.3709567898628207e-17
10
0.48637593485439073
20
0.16844973782277317
30
4.3709567898628207e-17
10
0.48546237023007482
20
0.16810986130484568
30
4.3709567898628207e-17
0
ARC
5
162
100
AcDbEntity
8
0
100
AcDbCircle
10
-2.444917347366227e-06
20
-3.4970624706616941e-05
30
4.3709567898628207e-17
40
0.51375944881893731
210
0
220
-0
230
1
100
AcDbArc
50
19.10395895970937
51
24.896040268114596
0
SPLINE
5
163
100
AcDbEntity
8
0
100
AcDbSpline
70
4
71
5
72
66
73
60
74
0
42
0.000000001
43
0.0000000001
44
0.0000000001
40
0
40
0
40
0
40
0
40
0
40
0
40
0.018181818181818181
40
0.036363636363636362
40
0.054545454545454543
40
0.072727272727272724
40
0.090909090909090912
40
0.1090909090909091
40
0.12727272727272729
40
0.14545454545454548
40
0.16363636363636366
40
0.18181818181818185
40
0.20000000000000004
40
0.21818181818181823
40
0.23636363636363641
40
0.25454545454545457
40
0.27272727272727276
40
0.29090909090909095
40
0.30909090909090914
40
0.32727272727272733
40
0.34545454545454551
40
0.3636363636363637
40
0.38181818181818189
40
0.40000000000000008
40
0.41818181818181827
40
0.43636363636363645
40
0.45454545454545464
40
0.47272727272727283
40
0.49090909090909102
40
0.50909090909090915
40
0.52727272727272734
40
0.54545454545454553
40
0.56363636363636371
40
0.5818181818181819
40
0.60000000000000009
40
0.61818181818181828
40
0.63636363636363646
40
0.65454545454545465
40
0.67272727272727284
40
0.69090909090909103
40
0.70909090909090922
40
0.7272727272727274
40
0.74545454545454559
40
0.76363636363636378
40
0.78181818181818197
40
0.80000000000000016
40
0.81818181818181834
40
0.83636363636363653
40
0.85454545454545472
40
0.87272727272727291
40
0.89090909090909109
40
0.90909090909090928
40
0.92727272727272747
40
0.94545454545454566
40
0.96363636363636385
40
0.98181818181818203
40
1
40
1
40
1
40
1
40
1
40
1
41
1
41
1
41
1
41
1
41
1
41
1
41
1
41
1
41
1
41
1
41
1
41
1
41
1
41
1
41
1
41
1
41
1
41
1
41
1
41
1
41
1
41
1
41
1
41
1
41
1
41
1
41
1
41
1
41
1
41
1
41
1
41
1
41
1
41
1
41
1
41
1
41
1
41
1
41
1
41
1
41
1
41
1
41
1
41
1
41
1
41
1
41
1
41
1
41
1
41
1
41
1
41
1
41
1
41
1
41
1
41
1
41
1
41
1
41
1
41
1
10
0.46601493614631656
20
0.21624395067207583
30
4.3709567898628207e-17
10
0.46690819761432983
20
0.21663407926680184
30
4.3709567898628207e-17
10
0.46865358736366247
20
0.217398800074314
30
4.3709567898628207e-17
10
0.47114827222757377
20
0.21849927203838293
30
4.3709567898628207e-17
10
0.47422758807438303
20
0.21987330019396586
30
4.3709567898628207e-17
10
0.47766697568890204
20
0.22143635764270761
30
4.3709567898628207e-17
10
0.48070335838414802
20
0.22284836544500161
30
4.3709567898628207e-17
10
0.48335120204823945
20
0.22411653700189307
30
4.3709567898628207e-17
10
0.48563566991406087
20
0.22525331115294545
30
4.3709567898628207e-17
10
0.487595142854302
20
0.22627755764682439
30
4.3709567898628207e-17
10
0.48928492236798943
20
0.22721637785600848
30
4.3709567898628207e-17
10
0.49077758658095233
20
0.22810521734652403
30
4.3709567898628207e-17
10
0.49215104926880782
20
0.22898179381555545
30
4.3709567898628207e-17
10
0.4934779433932916
20
0.22988067709511645
30
4.3709567898628207e-17
10
0.49481566333930571
20
0.23082823010395392
30
4.3709567898628207e-17
10
0.49619324269970733
20
0.23183588028755411
30
4.3709567898628207e-17
10
0.49761060799245332
20
0.23289989064625805
30
4.3709567898628207e-17
10
0.49905082398137007
20
0.23400794350979204
30
4.3709567898628207e-17
10
0.50048914820276003
20
0.23514405995233503
30
4.3709567898628207e-17
10
0.50190264103142612
20
0.23629378779566362
30
4.3709567898628207e-17
10
0.50328137803967488
20
0.23745028951158903
30
4.3709567898628207e-17
10
0.5046273974783142
20
0.23861366394685013
30
4.3709567898628207e-17
10
0.50594933036971923
20
0.23978789211366189
30
4.3709567898628207e-17
10
0.50725846394218732
20
0.24097857115384883
30
4.3709567898628207e-17
10
0.50856426575317404
20
0.24219035278871484
30
4.3709567898628207e-17
10
0.50986999901455354
20
0.24342442825542634
30
4.3709567898628207e-17
10
0.51117441471835701
20
0.24467948458701463
30
4.3709567898628207e-17
10
0.51247370239535728
20
0.24595280723265189
30
4.3709567898628207e-17
10
0.513763273370339
20
0.24724128756804989
30
4.3709567898628207e-17
10
0.51503975792938161
20
0.2485425514536245
30
4.3709567898628207e-17
10
0.5163024767960438
20
0.2498557895023587
30
4.3709567898628207e-17
10
0.51755241834776977
20
0.25118117288858482
30
4.3709567898628207e-17
10
0.51879151644131938
20
0.25251943929079262
30
4.3709567898628207e-17
10
0.52002186760137725
20
0.2538714444806352
30
4.3709567898628207e-17
10
0.52124484857339992
20
0.25523765660644943
30
4.3709567898628207e-17
10
0.52246070794343691
20
0.2566179209878276
30
4.3709567898628207e-17
10
0.52366904486626831
20
0.25801173119312731
30
4.3709567898628207e-17
10
0.52486909958376315
20
0.25941839233238456
30
4.3709567898628207e-17
10
0.52606009065558168
20
0.26083721109552266
30
4.3709567898628207e-17
10
0.52724160095961137
20
0.26226771268423488
30
4.3709567898628207e-17
10
0.52841365989330846
20
0.26370968688862134
30
4.3709567898628207e-17
10
0.52957654522196174
20
0.26516307628419722
30
4.3709567898628207e-17
10
0.53073066030236105
20
0.26662790665149183
30
4.3709567898628207e-17
10
0.53187639207344506
20
0.26810420628571985
30
4.3709567898628207e-17
10
0.53301394930312818
20
0.26959191421128642
30
4.3709567898628207e-17
10
0.53414336103778637
20
0.27109087728790743
30
4.3709567898628207e-17
10
0.53526455214456725
20
0.27260089011529032
30
4.3709567898628207e-17
10
0.53637739537207263
20
0.27412172146970559
30
4.3709567898628207e-17
10
0.53748176991834651
20
0.27565314459225176
30
4.3709567898628207e-17
10
0.53857762586644364
20
0.27719496941451549
30
4.3709567898628207e-17
10
0.5396649776431619
20
0.27874704304314335
30
4.3709567898628207e-17
10
0.54074388053838041
20
0.2803092423817885
30
4.3709567898628207e-17
10
0.54181441318256518
20
0.28188146930696678
30
4.3709567898628207e-17
10
0.5428766581671729
20
0.28346364477875841
30
4.3709567898628207e-17
10
0.54393068252923482
20
0.2850557028706468
30
4.3709567898628207e-17
10
0.54497653690119308
20
0.28665759110416295
30
4.3709567898628207e-17
10
0.54580671266310532
20
0.2879469352911263
30
4.3709567898628207e-17
10
0.54642569310801015
20
0.2889183393576491
30
4.3709567898628207e-17
10
0.54683672477906731
20
0.28956789476306155
30
4.3709567898628207e-17
10
0.54704183512475324
20
0.28989316063934417
30
4.3709567898628207e-17
0
ARC
5
164
100
AcDbEntity
8
0
100
AcDbCircle
10
-2.4298114085614455e-06
20
-3.4962078208112121e-05
30
4.3709567898628207e-17
40
0.6191249826505707
210
0
220
-0
230
1
100
AcDbArc
50
27.923153258866183
51
31.076845968962566
0
SPLINE
5
165
100
AcDbEntity
8
0
100
AcDbSpline
70
4
71
5
72
66
73
60
74
0
42
0.000000001
43
0.0000000001
44
0.0000000001
40
-1
40
-1
40
-1
40
-1
40
-1
40
-1
40
-0.98181818181818203
40
-0.96363636363636385
40
-0.94545454545454566
40
-0.92727272727272747
40
-0.90909090909090928
40
-0.89090909090909109
40
-0.87272727272727291
40
-0.85454545454545472
40
-0.83636363636363653
40
-0.81818181818181834
40
-0.80000000000000016
40
-0.78181818181818197
40
-0.76363636363636378
40
-0.74545454545454559
40
-0.7272727272727274
40
-0.70909090909090922
40
-0.69090909090909103
40
-0.67272727272727284
40
-0.65454545454545465
40
-0.63636363636363646
40
-0.61818181818181828
40
-0.60000000000000009
40
-0.5818181818181819
40
-0.56363636363636371
40
-0.54545454545454553
40
-0.52727272727272734
40
-0.50909090909090915
40
-0.49090909090909102
40
-0.47272727272727283
40
-0.45454545454545464
40
-0.43636363636363645
40
-0.41818181818181827
40
-0.40000000000000008
40
-0.38181818181818189
40
-0.3636363636363637
40
-0.34545454545454551
40
-0.32727272727272733
40
-0.30909090909090914
40
-0.29090909090909095
40
-0.27272727272727276
40
-0.25454545454545457
40
-0.23636363636363641
40
-0.21818181818181823
40
-0.20000000000000004
40
-0.18181818181818185
40
-0.16363636363636366
40
-0.14545454545454548
40
-0.12727272727272729
40
-0.1090909090909091
40
-0.090909090909090912
40
-0.072727272727272724
40
-0.054545454545454543
40
-0.036363636363636362
40
-0.018181818181818181
40
0
40
0
40
0
40
0
40
0
40
0
41
1
41
1
41
1
41
1
41
1
41
1
41
1
41
1
41
1
41
1
41
1
41
1
41
1
41
1
41
1
41
1
41
1
41
1
41
1
41
1
41
1
41
1
41
1
41
1
41
1
41
1
41
1
41
1
41
1
41
1
41
1
41
1
41
1
41
1
41
1
41
1
41
1
41
1
41
1
41
1
41
1
41
1
41
1
41
1
41
1
41
1
41
1
41
1
41
1
41
1
41
1
41
1
41
1
41
1
41
1
41
1
41
1
41
1
41
1
41
1
10
0.53026310594635029
20
0.31954946452860689
30
4.3709567898628207e-17
10
0.52987865903549658
20
0.31954117496320161
30
4.3709567898628207e-17
10
0.5291101844212025
20
0.31952339783115452
30
4.3709567898628207e-17
10
0.52795873012249839
20
0.31949313812993513
30
4.3709567898628207e-17
10
0.52642597431920746
20
0.31944559998160432
30
4.3709567898628207e-17
10
0.5245142332826922
20
0.31937416127042073
30
4.3709567898628207e-17
10
0.52260671046597873
20
0.31929065661358286
30
4.3709567898628207e-17
10
0.52070342477428466
20
0.31919501558222141
30
4.3709567898628207e-17
10
0.51880439819105961
20
0.31908714675973143
30
4.3709567898628207e-17
10
0.51690965592899762
20
0.31896693864284903
30
4.3709567898628207e-17
10
0.51501924159864998
20
0.31883427329477732
30
4.3709567898628207e-17
10
0.51313323223777441
20
0.31868903992352643
30
4.3709567898628207e-17
10
0.51125175147119084
20
0.31853114741701077
30
4.3709567898628207e-17
10
0.50937498792844649
20
0.31836054066992797
30
4.3709567898628207e-17
10
0.50750319819746237
20
0.31817720644029046
30
4.3709567898628207e-17
10
0.50563664601497527
20
0.31798113471480838
30
4.3709567898628207e-17
10
0.50377554613968256
20
0.317772284105934
30
4.3709567898628207e-17
10
0.50192001487844518
20
0.31755055084298922
30
4.3709567898628207e-17
10
0.50006999697412291
20
0.31731572457219465
30
4.3709567898628207e-17
10
0.49822526888469304
20
0.31706748819526037
30
4.3709567898628207e-17
10
0.4963856007678174
20
0.31680550924589268
30
4.3709567898628207e-17
10
0.49455089878618025
20
0.31652952005697005
30
4.3709567898628207e-17
10
0.49272132798402046
20
0.31623938716384981
30
4.3709567898628207e-17
10
0.49089751017669464
20
0.31593522357075132
30
4.3709567898628207e-17
10
0.48908044211846369
20
0.31561734202168457
30
4.3709567898628207e-17
10
0.48727111075065171
20
0.31528603586167298
30
4.3709567898628207e-17
10
0.48547015662045623
20
0.31494138785054598
30
4.3709567898628207e-17
10
0.48367758428357888
20
0.31458310524216598
30
4.3709567898628207e-17
10
0.48189228338222817
20
0.31421024904958089
30
4.3709567898628207e-17
10
0.48011244058687175
20
0.31382146295539631
30
4.3709567898628207e-17
10
0.47833642757374872
20
0.3134154692533675
30
4.3709567898628207e-17
10
0.4765635885657919
20
0.31299150889997784
30
4.3709567898628207e-17
10
0.47479496719631609
20
0.31254974728363338
30
4.3709567898628207e-17
10
0.47303433403113709
20
0.3120918500405841
30
4.3709567898628207e-17
10
0.47128671702382913
20
0.31162014937323929
30
4.3709567898628207e-17
10
0.46955640553536321
20
0.31113651339413018
30
4.3709567898628207e-17
10
0.46784516828475997
20
0.31064133648404429
30
4.3709567898628207e-17
10
0.46615030350407888
20
0.31013243505700155
30
4.3709567898628207e-17
10
0.46446294773727442
20
0.30960408964604175
30
4.3709567898628207e-17
10
0.46277248994496079
20
0.30904950794944852
30
4.3709567898628207e-17
10
0.46107107242841477
20
0.30846334211004584
30
4.3709567898628207e-17
10
0.45935756068264161
20
0.30784389591573663
30
4.3709567898628207e-17
10
0.45764292707143228
20
0.30719615467391181
30
4.3709567898628207e-17
10
0.45595137430997851
20
0.30653233805879848
30
4.3709567898628207e-17
10
0.45430934232207398
20
0.30586542474566575
30
4.3709567898628207e-17
10
0.45273611170346784
20
0.3052035869957459
30
4.3709567898628207e-17
10
0.45123492353409561
20
0.30454496309829132
30
4.3709567898628207e-17
10
0.44978102917528606
20
0.30387055197674462
30
4.3709567898628207e-17
10
0.44832227090107707
20
0.30314473494875427
30
4.3709567898628207e-17
10
0.44679160784041488
20
0.30232305819520411
30
4.3709567898628207e-17
10
0.44511658105491814
20
0.30135816262649068
30
4.3709567898628207e-17
10
0.44322942726562559
20
0.30020609246340724
30
4.3709567898628207e-17
10
0.44107843368425864
20
0.2988334033087115
30
4.3709567898628207e-17
10
0.43862765816831883
20
0.29721691497286223
30
4.3709567898628207e-17
10
0.43585347852819889
20
0.29534146483174079
30
4.3709567898628207e-17
10
0.43274226118926906
20
0.29319836837543867
30
4.3709567898628207e-17
10
0.42997852425260025
20
0.29126655637636423
30
4.3709567898628207e-17
10
0.42775037795918402
20
0.28969497907732106
30
4.3709567898628207e-17
10
0.42619594209796169
20
0.28859274841067345
30
4.3709567898628207e-17
10
0.42540147294926578
20
0.28802800498039871
30
4.3709567898628207e-17
0
ARC
5
166
100
AcDbEntity
8
0
100
AcDbCircle
10
-2.444917347366227e-06
20
-3.4970624706616941e-05
30
4.3709567898628207e-17
40
0.51375944881893076
210
0
220
-0
230
1
100
AcDbArc
50
34.103958959708294
51
39.896040268113545
0
SPLINE
5
167
100
AcDbEntity
8
0
100
AcDbSpline
70
4
71
5
72
66
73
60
74
0
42
0.000000001
43
0.0000000001
44
0.0000000001
40
0
40
0
40
0
40
0
40
0
40
0
40
0.018181818181818181
40
0.036363636363636362
40
0.054545454545454543
40
0.072727272727272724
40
0.090909090909090912
40
0.1090909090909091
40
0.12727272727272729
40
0.14545454545454548
40
0.16363636363636366
40
0.18181818181818185
40
0.20000000000000004
40
0.21818181818181823
40
0.23636363636363641
40
0.25454545454545457
40
0.27272727272727276
40
0.29090909090909095
40
0.30909090909090914
40
0.32727272727272733
40
0.34545454545454551
40
0.3636363636363637
40
0.38181818181818189
40
0.40000000000000008
40
0.41818181818181827
40
0.43636363636363645
40
0.45454545454545464
40
0.47272727272727283
40
0.49090909090909102
40
0.50909090909090915
40
0.52727272727272734
40
0.54545454545454553
40
0.56363636363636371
40
0.5818181818181819
40
0.60000000000000009
40
0.61818181818181828
40
0.63636363636363646
40
0.65454545454545465
40
0.67272727272727284
40
0.69090909090909103
40
0.70909090909090922
40
0.7272727272727274
40
0.74545454545454559
40
0.76363636363636378
40
0.78181818181818197
40
0.80000000000000016
40
0.81818181818181834
40
0.83636363636363653
40
0.85454545454545472
40
0.87272727272727291
40
0.89090909090909109
40
0.90909090909090928
40
0.92727272727272747
40
0.94545454545454566
40
0.96363636363636385
40
0.98181818181818203
40
1
40
1
40
1
40
1
40
1
40
1
41
1
41
1
41
1
41
1
41
1
41
1
41
1
41
1
41
1
41
1
41
1
41
1
41
1
41
1
41
1
41
1
41
1
41
1
41
1
41
1
41
1
41
1
41
1
41
1
41
1
41
1
41
1
41
1
41
1
41
1
41
1
41
1
41
1
41
1
41
1
41
1
41
1
41
1
41
1
41
1
41
1
41
1
41
1
41
1
41
1
41
1
41
1
41
1
41
1
41
1
41
1
41
1
41
1
41
1
41
1
41
1
41
1
41
1
41
1
41
1
10
0.39415867506580343
20
0.32948859870585984
30
4.3709567898628207e-17
10
0.39492052667704297
20
0.33009662707124043
30
4.3709567898628207e-17
10
0.3964085194037123
20
0.33128703075734039
30
4.3709567898628207e-17
10
0.39853337683933632
20
0.33299567700281663
30
4.3709567898628207e-17
10
0.40115214288791562
20
0.33511987187135978
30
4.3709567898628207e-17
10
0.40406978717507819
20
0.33751984844720323
30
4.3709567898628207e-17
10
0.40663725312783683
20
0.33966961692013364
30
4.3709567898628207e-17
10
0.40886664675555706
20
0.34157988894785407
30
4.3709567898628207e-17
10
0.41077905446618296
20
0.34326919225064412
30
4.3709567898628207e-17
10
0.41240666548555893
20
0.34476568730688573
30
4.3709567898628207e-17
10
0.41379588260848577
20
0.34610986511335445
30
4.3709567898628207e-17
10
0.41500763693357773
20
0.34735474805892541
30
4.3709567898628207e-17
10
0.41610742533055461
20
0.34855693421042966
30
4.3709567898628207e-17
10
0.41715645852208044
20
0.34976861425522138
30
4.3709567898628207e-17
10
0.41820335200135561
20
0.35103010757727193
30
4.3709567898628207e-17
10
0.41927319242501776
20
0.35235996668808706
30
4.3709567898628207e-17
10
0.42036687602154782
20
0.35375456290462953
30
4.3709567898628207e-17
10
0.42147123265661068
20
0.35519761510940595
30
4.3709567898628207e-17
10
0.42256649859583911
20
0.35666728502445894
30
4.3709567898628207e-17
10
0.42363425636177982
20
0.35814367570570732
30
4.3709567898628207e-17
10
0.42466668937593116
20
0.35961761397718911
30
4.3709567898628207e-17
10
0.42566574085397035
20
0.3610897228556505
30
4.3709567898628207e-17
10
0.42663871736153464
20
0.3625660815765735
30
4.3709567898628207e-17
10
0.42759507287704052
20
0.36405501791344946
30
4.3709567898628207e-17
10
0.4285427484046801
20
0.36556347546820306
30
4.3709567898628207e-17
10
0.42948458765021436
20
0.36709344946895922
30
4.3709567898628207e-17
10
0.43041972398544437
20
0.36864334841996343
30
4.3709567898628207e-17
10
0.43134517935718508
20
0.37020956404445676
30
4.3709567898628207e-17
10
0.4322573260167088
20
0.37178790600541878
30
4.3709567898628207e-17
10
0.43315352354285336
20
0.3733752089139693
30
4.3709567898628207e-17
10
0.4340333252897392
20
0.37497051515260815
30
4.3709567898628207e-17
10
0.43489764165348677
20
0.37657424587394989
30
4.3709567898628207e-17
10
0.43574814967104158
20
0.37818761413966079
30
4.3709567898628207e-17
10
0.43658665293973836
20
0.37981198918219644
30
4.3709567898628207e-17
10
0.43741436012786233
20
0.38144817952607041
30
4.3709567898628207e-17
10
0.4382315513853387
20
0.38309610010028483
30
4.3709567898628207e-17
10
0.43903797059957034
20
0.38475515798305809
30
4.3709567898628207e-17
10
0.43983306375131553
20
0.38642448532235368
30
4.3709567898628207e-17
10
0.44061625546901595
20
0.38810321018041982
30
4.3709567898628207e-17
10
0.44138726573049558
20
0.38979076597816337
30
4.3709567898628207e-17
10
0.44214617733784212
20
0.39148695727703986
30
4.3709567898628207e-17
10
0.44289327345427565
20
0.39319180050020786
30
4.3709567898628207e-17
10
0.44362893702004447
20
0.39490542494616804
30
4.3709567898628207e-17
10
0.44435353446612236
20
0.39662795809316403
30
4.3709567898628207e-17
10
0.44506728322847333
20
0.39835939507640011
30
4.3709567898628207e-17
10
0.44577025099936124
20
0.40009959549146507
30
4.3709567898628207e-17
10
0.44646241836752937
20
0.40184834149109033
30
4.3709567898628207e-17
10
0.44714372226267002
20
0.40360537679521608
30
4.3709567898628207e-17
10
0.44781410468857757
20
0.40537045110571851
30
4.3709567898628207e-17
10
0.44847356662251475
20
0.40714336791116867
30
4.3709567898628207e-17
10
0.44912216157141271
20
0.40892398326187956
30
4.3709567898628207e-17
10
0.44975997480087793
20
0.41071219256600411
30
4.3709567898628207e-17
10
0.45038710765833595
20
0.41250792139460651
30
4.3709567898628207e-17
10
0.45100366037804368
20
0.41431111477721788
30
4.3709567898628207e-17
10
0.45160971477582945
20
0.41612172638413758
30
4.3709567898628207e-17
10
0.45220533334129503
20
0.41793971862964596
30
4.3709567898628207e-17
10
0.4526735147188003
20
0.41939999477674272
30
4.3709567898628207e-17
10
0.45301998604357713
20
0.42049850297996005
30
4.3709567898628207e-17
10
0.45324889484028508
20
0.42123230814617596
30
4.3709567898628207e-17
10
0.45336283121690735
20
0.42159957732024816
30
4.3709567898628207e-17
0
ARC
5
168
100
AcDbEntity
8
0
100
AcDbCircle
10
-2.711871359538249e-06
20
-3.523295972673617e-05
30
4.3709567898628207e-17
40
0.61912537413641011
210
0
220
-0
230
1
100
AcDbArc
50
42.923154256190564
51
46.076844971637932
0
SPLINE
5
169
100
AcDbEntity
8
0
100
AcDbSpline
70
4
71
5
72
66
73
60
74
0
42
0.000000001
43
0.0000000001
44
0.0000000001
40
-1
40
-1
40
-1
40
-1
40
-1
40
-1
40
-0.98181818181818203
40
-0.96363636363636385
40
-0.94545454545454566
40
-0.92727272727272747
40
-0.90909090909090928
40
-0.89090909090909109
40
-0.87272727272727291
40
-0.85454545454545472
40
-0.83636363636363653
40
-0.81818181818181834
40
-0.80000000000000016
40
-0.78181818181818197
40
-0.76363636363636378
40
-0.74545454545454559
40
-0.7272727272727274
40
-0.70909090909090922
40
-0.69090909090909103
40
-0.67272727272727284
40
-0.65454545454545465
40
-0.63636363636363646
40
-0.61818181818181828
40
-0.60000000000000009
40
-0.5818181818181819
40
-0.56363636363636371
40
-0.54545454545454553
40
-0.52727272727272734
40
-0.50909090909090915
40
-0.49090909090909102
40
-0.47272727272727283
40
-0.45454545454545464
40
-0.43636363636363645
40
-0.41818181818181827
40
-0.40000000000000008
40
-0.38181818181818189
40
-0.3636363636363637
40
-0.34545454545454551
40
-0.32727272727272733
40
-0.30909090909090914
40
-0.29090909090909095
40
-0.27272727272727276
40
-0.25454545454545457
40
-0.23636363636363641
40
-0.21818181818181823
40
-0.20000000000000004
40
-0.18181818181818185
40
-0.16363636363636366
40
-0.14545454545454548
40
-0.12727272727272729
40
-0.1090909090909091
40
-0.090909090909090912
40
-0.072727272727272724
40
-0.054545454545454543
40
-0.036363636363636362
40
-0.018181818181818181
40
0
40
0
40
0
40
0
40
0
40
0
41
1
41
1
41
1
41
1
41
1
41
1
41
1
41
1
41
1
41
1
41
1
41
1
41
1
41
1
41
1
41
1
41
1
41
1
41
1
41
1
41
1
41
1
41
1
41
1
41
1
41
1
41
1
41
1
41
1
41
1
41
1
41
1
41
1
41
1
41
1
41
1
41
1
41
1
41
1
41
1
41
1
41
1
41
1
41
1
41
1
41
1
41
1
41
1
41
1
41
1
41
1
41
1
41
1
41
1
41
1
41
1
41
1
41
1
41
1
41
1
10
0.42948020711728857
20
0.44590271249517599
30
4.3709567898628207e-17
10
0.4291110054146291
20
0.4457952032074684
30
4.3709567898628207e-17
10
0.42837331699812264
20
0.4455791359505914
30
4.3709567898628207e-17
10
0.42726892934013488
20
0.44525188902156076
30
4.3709567898628207e-17
10
0.42580070470247949
20
0.44480926430295042
30
4.3709567898628207e-17
10
0.42397259436118206
20
0.44424546481730837
30
4.3709567898628207e-17
10
0.42215168140389286
20
0.44367110227879175
30
4.3709567898628207e-17
10
0.42033800231995211
20
0.44308611355133387
30
4.3709567898628207e-17
10
0.41853160200407868
20
0.44249041602298622
30
4.3709567898628207e-17
10
0.41673253366902718
20
0.441883908515389
30
4.3709567898628207e-17
10
0.41494086996364971
20
0.44126648839758953
30
4.3709567898628207e-17
10
0.41315671397579429
20
0.4406380685915946
30
4.3709567898628207e-17
10
0.41138020869942399
20
0.43999859308636008
30
4.3709567898628207e-17
10
0.40961155059900156
20
0.43934805747517852
30
4.3709567898628207e-17
10
0.40785099094670746
20
0.43868651537711811
30
4.3709567898628207e-17
10
0.40609878708429487
20
0.4380140253801717
30
4.3709567898628207e-17
10
0.40435515716461651
20
0.4373306030906744
30
4.3709567898628207e-17
10
0.40262024038929362
20
0.43663617837627106
30
4.3709567898628207e-17
10
0.40089403782758959
20
0.43593053374920815
30
4.3709567898628207e-17
10
0.39917641562556599
20
0.43521330505912376
30
4.3709567898628207e-17
10
0.39746723782118359
20
0.4344841116806652
30
4.3709567898628207e-17
10
0.39576648305190748
20
0.43374267078036643
30
4.3709567898628207e-17
10
0.3940743452814251
20
0.4329888961578785
30
4.3709567898628207e-17
10
0.39239139588960364
20
0.43222305790455345
30
4.3709567898628207e-17
10
0.39071851672301999
20
0.43144571608689292
30
4.3709567898628207e-17
10
0.38905658517050801
20
0.43065740949364034
30
4.3709567898628207e-17
10
0.38740619853332553
20
0.42985838385046249
30
4.3709567898628207e-17
10
0.38576743698022031
20
0.42904835756541115
30
4.3709567898628207e-17
10
0.3841394710156309
20
0.42822613626499273
30
4.3709567898628207e-17
10
0.38252090013850654
20
0.42738994052299223
30
4.3709567898628207e-17
10
0.38091048220358315
20
0.42653811472874659
30
4.3709567898628207e-17
10
0.37930778023377376
20
0.42566975597492418
30
4.3709567898628207e-17
10
0.37771375949578034
20
0.42478529412663435
30
4.3709567898628207e-17
10
0.37613163097811841
20
0.42388731395919643
30
4.3709567898628207e-17
10
0.37456564769259698
20
0.42297936953729354
30
4.3709567898628207e-17
10
0.37301946934065194
20
0.42206437548737774
30
4.3709567898628207e-17
10
0.37149470230040327
20
0.42114317053020212
30
4.3709567898628207e-17
10
0.36998930201805919
20
0.42021294621467348
30
4.3709567898628207e-17
10
0.36849618735949835
20
0.41926588392871139
30
4.3709567898628207e-17
10
0.36700686682478767
20
0.41829267647358914
30
4.3709567898628207e-17
10
0.36551513458709167
20
0.41728612449386759
30
4.3709567898628207e-17
10
0.36402033381073501
20
0.41624429594297979
30
4.3709567898628207e-17
10
0.36253177269277276
20
0.41517484611480387
30
4.3709567898628207e-17
10
0.36106966657643708
20
0.41409584243189529
30
4.3709567898628207e-17
10
0.35965619533860238
20
0.41302666448770975
30
4.3709567898628207e-17
10
0.3583078674677857
20
0.41198019626580629
30
4.3709567898628207e-17
10
0.35702829545299969
20
0.41095547834490487
30
4.3709567898628207e-17
10
0.35579849178550654
20
0.40992775167541168
30
4.3709567898628207e-17
10
0.3545772947641625
20
0.40884911183932687
30
4.3709567898628207e-17
10
0.35331145337526898
20
0.40765926829047844
30
4.3709567898628207e-17
10
0.35194323509328657
20
0.40629372190787894
30
4.3709567898628207e-17
10
0.35041856220980161
20
0.40469247624202997
30
4.3709567898628207e-17
10
0.34869614005398275
20
0.40280984223139638
30
4.3709567898628207e-17
10
0.34674725065656892
20
0.4006141270212159
30
4.3709567898628207e-17
10
0.34455300111032383
20
0.3980845707686641
30
4.3709567898628207e-17
10
0.34210247010984951
20
0.39520925625252767
30
4.3709567898628207e-17
10
0.33993289496230683
20
0.3926279613961467
30
4.3709567898628207e-17
10
0.33818742504820409
20
0.3905332475988692
30
4.3709567898628207e-17
10
0.33697123359282066
20
0.38906625692605284
30
4.3709567898628207e-17
10
0.33635000167906359
20
0.388315132915039
30
4.3709567898628207e-17
0
ARC
5
170
100
AcDbEntity
8
0
100
AcDbCircle
10
-2.444917347366227e-06
20
-3.4970624706616941e-05
30
4.3709567898628207e-17
40
0.5137594488189221
210
0
220
-0
230
1
100
AcDbArc
50
49.103958959707484
51
54.896040268112813
0
SPLINE
5
171
100
AcDbEntity
8
0
100
AcDbSpline
70
4
71
5
72
66
73
60
74
0
42
0.000000001
43
0.0000000001
44
0.0000000001
40
0
40
0
40
0
40
0
40
0
40
0
40
0.018181818181818181
40
0.036363636363636362
40
0.054545454545454543
40
0.072727272727272724
40
0.090909090909090912
40
0.1090909090909091
40
0.12727272727272729
40
0.14545454545454548
40
0.16363636363636366
40
0.18181818181818185
40
0.20000000000000004
40
0.21818181818181823
40
0.23636363636363641
40
0.25454545454545457
40
0.27272727272727276
40
0.29090909090909095
40
0.30909090909090914
40
0.32727272727272733
40
0.34545454545454551
40
0.3636363636363637
40
0.38181818181818189
40
0.40000000000000008
40
0.41818181818181827
40
0.43636363636363645
40
0.45454545454545464
40
0.47272727272727283
40
0.49090909090909102
40
0.50909090909090915
40
0.52727272727272734
40
0.54545454545454553
40
0.56363636363636371
40
0.5818181818181819
40
0.60000000000000009
40
0.61818181818181828
40
0.63636363636363646
40
0.65454545454545465
40
0.67272727272727284
40
0.69090909090909103
40
0.70909090909090922
40
0.7272727272727274
40
0.74545454545454559
40
0.76363636363636378
40
0.78181818181818197
40
0.80000000000000016
40
0.81818181818181834
40
0.83636363636363653
40
0.85454545454545472
40
0.87272727272727291
40
0.89090909090909109
40
0.90909090909090928
40
0.92727272727272747
40
0.94545454545454566
40
0.96363636363636385
40
0.98181818181818203
40
1
40
1
40
1
40
1
40
1
40
1
41
1
41
1
41
1
41
1
41
1
41
1
41
1
41
1
41
1
41
1
41
1
41
1
41
1
41
1
41
1
41
1
41
1
41
1
41
1
41
1
41
1
41
1
41
1
41
1
41
1
41
1
41
1
41
1
41
1
41
1
41
1
41
1
41
1
41
1
41
1
41
1
41
1
41
1
41
1
41
1
41
1
41
1
41
1
41
1
41
1
41
1
41
1
41
1
41
1
41
1
41
1
41
1
41
1
41
1
41
1
41
1
41
1
41
1
41
1
41
1
10
0.29544098504049043
20
0.42027676005321168
30
4.3709567898628207e-17
10
0.29601950786654102
20
0.42106125206095973
30
4.3709567898628207e-17
10
0.29714869932502042
20
0.42259621458167396
30
4.3709567898628207e-17
10
0.29875892380935515
20
0.42479659369060074
30
4.3709567898628207e-17
10
0.30073867548102973
20
0.42752619490221588
30
4.3709567898628207e-17
10
0.30293574380430061
20
0.43059953616767194
30
4.3709567898628207e-17
10
0.30485932445298636
20
0.43334056214246902
30
4.3709567898628207e-17
10
0.30651833855309579
20
0.43576275275919835
30
4.3709567898628207e-17
10
0.30792835868370388
20
0.43788946198534073
30
4.3709567898628207e-17
10
0.30911318878119637
20
0.4397562219389371
30
4.3709567898628207e-17
10
0.31010717066233068
20
0.44141415384654037
30
4.3709567898628207e-17
10
0.31095543604482567
20
0.44293024353169547
30
4.3709567898628207e-17
10
0.31170660138909878
20
0.44437611236615276
30
4.3709567898628207e-17
10
0.31240628376919077
20
0.4458180151835161
30
4.3709567898628207e-17
10
0.31309100672111784
20
0.44730748013359733
30
4.3709567898628207e-17
10
0.31378020035113063
20
0.4488689204709192
30
4.3709567898628207e-17
10
0.314475669521742
20
0.4504990631178219
30
4.3709567898628207e-17
10
0.31516890672333409
20
0.45217877304084175
30
4.3709567898628207e-17
10
0.31584647381668934
20
0.45388184085243977
30
4.3709567898628207e-17
10
0.31649573059273411
20
0.45558428078653507
30
4.3709567898628207e-17
10
0.31711150100905849
20
0.45727520915617059
30
4.3709567898628207e-17
10
0.31769550081927517
20
0.45895573069054146
30
4.3709567898628207e-17
10
0.3182532142019161
20
0.46063360855854207
30
4.3709567898628207e-17
10
0.31879161761251729
20
0.46231933364132982
30
4.3709567898628207e-17
10
0.3193165843356997
20
0.46402166822645369
30
4.3709567898628207e-17
10
0.31983034477726191
20
0.46574327556149958
30
4.3709567898628207e-17
10
0.32033247374805901
20
0.46748239407973746
30
4.3709567898628207e-17
10
0.32082102856035088
20
0.46923476767657579
30
4.3709567898628207e-17
10
0.32129358961697424
20
0.47099540986680211
30
4.3709567898628207e-17
10
0.32174842572985979
20
0.47276057972826024
30
4.3709567898628207e-17
10
0.32218535332186121
20
0.47452923667301145
30
4.3709567898628207e-17
10
0.32260514276578767
20
0.47630202313109804
30
4.3709567898628207e-17
10
0.32300909999147576
20
0.47808054487921475
30
4.3709567898628207e-17
10
0.32339861275673715
20
0.47986659129969594
30
4.3709567898628207e-17
10
0.32377463928394351
20
0.4816612561936231
30
4.3709567898628207e-17
10
0.32413747219513506
20
0.48346452989685595
30
4.3709567898628207e-17
10
0.32448701756398896
20
0.48527577340411537
30
4.3709567898628207e-17
10
0.3248229648656451
20
0.48709400504397365
30
4.3709567898628207e-17
10
0.32514498400795383
20
0.48891823367212245
30
4.3709567898628207e-17
10
0.32545295115172179
20
0.49074783954011242
30
4.3709567898628207e-17
10
0.32574699686084219
20
0.49258265529955964
30
4.3709567898628207e-17
10
0.3260273903993558
20
0.49442277010204722
30
4.3709567898628207e-17
10
0.32629446819422392
20
0.49626840795256272
30
4.3709567898628207e-17
10
0.32654855119678955
20
0.49811978682495039
30
4.3709567898628207e-17
10
0.32678985069316963
20
0.49997695829674998
30
4.3709567898628207e-17
10
0.32701846840840515
20
0.50183980426777053
30
4.3709567898628207e-17
10
0.32723444197568369
20
0.5037081092897121
30
4.3709567898628207e-17
10
0.32743777680392655
20
0.50558160949125275
30
4.3709567898628207e-17
10
0.32762848165502151
20
0.50746004809244682
30
4.3709567898628207e-17
10
0.32780660833383157
20
0.50934323553074923
30
4.3709567898628207e-17
10
0.32797224578100603
20
0.5112310466100376
30
4.3709567898628207e-17
10
0.32812550342715846
20
0.51312340237069287
30
4.3709567898628207e-17
10
0.32826649843001193
20
0.5150202571505218
30
4.3709567898628207e-17
10
0.32839534183582592
20
0.51692158379466902
30
4.3709567898628207e-17
10
0.32851212466363222
20
0.51882735872760299
30
4.3709567898628207e-17
10
0.32861691700164797
20
0.52073756181784514
30
4.3709567898628207e-17
10
0.32869119820758974
20
0.52226925451892459
30
4.3709567898628207e-17
10
0.32874154896406377
20
0.52342000534030364
30
4.3709567898628207e-17
10
0.32877273513025501
20
0.52418805265806301
30
4.3709567898628207e-17
10
0.32878773296205782
20
0.52457229634273861
30
4.3709567898628207e-17
0
ARC
5
172
100
AcDbEntity
8
0
100
AcDbCircle
10
-2.4394263160935764e-06
20
-3.4961302864089493e-05
30
4.3709567898628207e-17
40
0.61912498918523418
210
0
220
-0
230
1
100
AcDbArc
50
57.92315327551345
51
61.076845952315203
0
SPLINE
5
173
100
AcDbEntity
8
0
100
AcDbSpline
70
4
71
5
72
66
73
60
74
0
42
0.000000001
43
0.0000000001
44
0.0000000001
40
-1
40
-1
40
-1
40
-1
40
-1
40
-1
40
-0.98181818181818203
40
-0.96363636363636385
40
-0.94545454545454566
40
-0.92727272727272747
40
-0.90909090909090928
40
-0.89090909090909109
40
-0.87272727272727291
40
-0.85454545454545472
40
-0.83636363636363653
40
-0.81818181818181834
40
-0.80000000000000016
40
-0.78181818181818197
40
-0.76363636363636378
40
-0.74545454545454559
40
-0.7272727272727274
40
-0.70909090909090922
40
-0.69090909090909103
40
-0.67272727272727284
40
-0.65454545454545465
40
-0.63636363636363646
40
-0.61818181818181828
40
-0.60000000000000009
40
-0.5818181818181819
40
-0.56363636363636371
40
-0.54545454545454553
40
-0.52727272727272734
40
-0.50909090909090915
40
-0.49090909090909102
40
-0.47272727272727283
40
-0.45454545454545464
40
-0.43636363636363645
40
-0.41818181818181827
40
-0.40000000000000008
40
-0.38181818181818189
40
-0.3636363636363637
40
-0.34545454545454551
40
-0.32727272727272733
40
-0.30909090909090914
40
-0.29090909090909095
40
-0.27272727272727276
40
-0.25454545454545457
40
-0.23636363636363641
40
-0.21818181818181823
40
-0.20000000000000004
40
-0.18181818181818185
40
-0.16363636363636366
40
-0.14545454545454548
40
-0.12727272727272729
40
-0.1090909090909091
40
-0.090909090909090912
40
-0.072727272727272724
40
-0.054545454545454543
40
-0.036363636363636362
40
-0.018181818181818181
40
0
40
0
40
0
40
0
40
0
40
0
41
1
41
1
41
1
41
1
41
1
41
1
41
1
41
1
41
1
41
1
41
1
41
1
41
1
41
1
41
1
41
1
41
1
41
1
41
1
41
1
41
1
41
1
41
1
41
1
41
1
41
1
41
1
41
1
41
1
41
1
41
1
41
1
41
1
41
1
41
1
41
1
41
1
41
1
41
1
41
1
41
1
41
1
41
1
41
1
41
1
41
1
41
1
41
1
41
1
41
1
41
1
41
1
41
1
41
1
41
1
41
1
41
1
41
1
41
1
41
1
10
0.29942877530571022
20
0.54186604430398966
30
4.3709567898628207e-17
10
0.29909997929721366
20
0.54166664187435654
30
4.3709567898628207e-17
10
0.29844334932510652
20
0.54126700911928638
30
4.3709567898628207e-17
10
0.29746129050175329
20
0.54066507630000393
30
4.3709567898628207e-17
10
0.29615765411247535
20
0.53985752915426921
30
4.3709567898628207e-17
10
0.29453775716498043
20
0.53883979089728828
30
4.3709567898628207e-17
10
0.29292754627581208
20
0.53781371233472919
30
4.3709567898628207e-17
10
0.29132707303181177
20
0.53677924192603521
30
4.3709567898628207e-17
10
0.2897364021795133
20
0.53573631149384304
30
4.3709567898628207e-17
10
0.28815561130538297
20
0.53468483707984638
30
4.3709567898628207e-17
10
0.28658479714566293
20
0.53362473835305113
30
4.3709567898628207e-17
10
0.28502408181300076
20
0.53255595788365062
30
4.3709567898628207e-17
10
0.28347361792567033
20
0.53147847857866348
30
4.3709567898628207e-17
10
0.28193359639430221
20
0.53039234703026639
30
4.3709567898628207e-17
10
0.28040424605154679
20
0.52929768006452482
30
4.3709567898628207e-17
10
0.27888580030676341
20
0.52819460087804571
30
4.3709567898628207e-17
10
0.27737846584021469
20
0.52708318100751361
30
4.3709567898628207e-17
10
0.27588239526193642
20
0.52596338873831905
30
4.3709567898628207e-17
10
0.27439764589473287
20
0.52483501427017365
30
4.3709567898628207e-17
10
0.27292418269467789
20
0.52369767121689048
30
4.3709567898628207e-17
10
0.27146197284561541
20
0.52255095673304308
30
4.3709567898628207e-17
10
0.27001106891560722
20
0.52139459209344796
30
4.3709567898628207e-17
10
0.26857168056947789
20
0.52022854423645359
30
4.3709567898628207e-17
10
0.26714428981301086
20
0.51905322193426362
30
4.3709567898628207e-17
10
0.26572960348871133
20
0.51786939440826285
30
4.3709567898628207e-17
10
0.26432832964032704
20
0.51667780917335604
30
4.3709567898628207e-17
10
0.26294098161808854
20
0.51547885817525585
30
4.3709567898628207e-17
10
0.26156770974041865
20
0.51427229016622411
30
4.3709567898628207e-17
10
0.26020802190274062
20
0.51305673678081209
30
4.3709567898628207e-17
10
0.25886102587431076
20
0.51183011674893319
30
4.3709567898628207e-17
10
0.25752595033850895
20
0.51059050938263828
30
4.3709567898628207e-17
10
0.25620260689749547
20
0.50933692944242637
30
4.3709567898628207e-17
10
0.25489181667003152
20
0.50807004197551742
30
4.3709567898628207e-17
10
0.25359601224377099
20
0.50679317474812668
30
4.3709567898628207e-17
10
0.25231838185303224
20
0.50551086148357249
30
4.3709567898628207e-17
10
0.25106170613711232
20
0.50422686469524647
30
4.3709567898628207e-17
10
0.24982731966122182
20
0.50294241028643927
30
4.3709567898628207e-17
10
0.24861397441867952
20
0.50165425633225091
30
4.3709567898628207e-17
10
0.2474168541648715
20
0.50035301790097808
30
4.3709567898628207e-17
10
0.24623016562099379
20
0.49902750716709487
30
4.3709567898628207e-17
10
0.24504977774893189
20
0.49766916390107219
30
4.3709567898628207e-17
10
0.24387555614459155
20
0.49627595188765045
30
4.3709567898628207e-17
10
0.24271451050005363
20
0.49485767471156822
30
4.3709567898628207e-17
10
0.24158149114438096
20
0.4934370162787185
30
4.3709567898628207e-17
10
0.24049290638559734
20
0.49203843641347295
30
4.3709567898628207e-17
10
0.23946136757879508
20
0.49067865279953443
30
4.3709567898628207e-17
10
0.23849061243690922
20
0.48935767368806832
30
4.3709567898628207e-17
10
0.23756870854844578
20
0.48804666934475627
30
4.3709567898628207e-17
10
0.23666829533893555
20
0.48668871422287602
30
4.3709567898628207e-17
10
0.23575354062055387
20
0.48521178975027635
30
4.3709567898628207e-17
10
0.23478537265676189
20
0.48353865228308968
30
4.3709567898628207e-17
10
0.23372708461614153
20
0.48159735336040382
30
4.3709567898628207e-17
10
0.23255061410892611
20
0.47933307289043064
30
4.3709567898628207e-17
10
0.23123642442134593
20
0.47670776516886759
30
4.3709567898628207e-17
10
0.22977163944908299
20
0.47369648788318314
30
4.3709567898628207e-17
10
0.2281487944250313
20
0.47028490323980554
30
4.3709567898628207e-17
10
0.22672123402783645
20
0.46723003650481137
30
4.3709567898628207e-17
10
0.2255773913836232
20
0.46475493749293639
30
4.3709567898628207e-17
10
0.22478232577231888
20
0.46302315980401404
30
4.3709567898628207e-17
10
0.22437666702201856
20
0.46213684307233555
30
4.3709567898628207e-17
0
ARC
5
174
100
AcDbEntity
8
0
100
AcDbCircle
10
-2.444917347366227e-06
20
-3.4970624706616941e-05
30
4.3709567898628207e-17
40
0.51375944881891167
210
0
220
-0
230
1
100
AcDbArc
50
64.103958959706915
51
69.89604026811233
0
SPLINE
5
175
100
AcDbEntity
8
0
100
AcDbSpline
70
4
71
5
72
66
73
60
74
0
42
0.000000001
43
0.0000000001
44
0.0000000001
40
0
40
0
40
0
40
0
40
0
40
0
40
0.018181818181818181
40
0.036363636363636362
40
0.054545454545454543
40
0.072727272727272724
40
0.090909090909090912
40
0.1090909090909091
40
0.12727272727272729
40
0.14545454545454548
40
0.16363636363636366
40
0.18181818181818185
40
0.20000000000000004
40
0.21818181818181823
40
0.23636363636363641
40
0.25454545454545457
40
0.27272727272727276
40
0.29090909090909095
40
0.30909090909090914
40
0.32727272727272733
40
0.34545454545454551
40
0.3636363636363637
40
0.38181818181818189
40
0.40000000000000008
40
0.41818181818181827
40
0.43636363636363645
40
0.45454545454545464
40
0.47272727272727283
40
0.49090909090909102
40
0.50909090909090915
40
0.52727272727272734
40
0.54545454545454553
40
0.56363636363636371
40
0.5818181818181819
40
0.60000000000000009
40
0.61818181818181828
40
0.63636363636363646
40
0.65454545454545465
40
0.67272727272727284
40
0.69090909090909103
40
0.70909090909090922
40
0.7272727272727274
40
0.74545454545454559
40
0.76363636363636378
40
0.78181818181818197
40
0.80000000000000016
40
0.81818181818181834
40
0.83636363636363653
40
0.85454545454545472
40
0.87272727272727291
40
0.89090909090909109
40
0.90909090909090928
40
0.92727272727272747
40
0.94545454545454566
40
0.96363636363636385
40
0.98181818181818203
40
1
40
1
40
1
40
1
40
1
40
1
41
1
41
1
41
1
41
1
41
1
41
1
41
1
41
1
41
1
41
1
41
1
41
1
41
1
41
1
41
1
41
1
41
1
41
1
41
1
41
1
41
1
41
1
41
1
41
1
41
1
41
1
41
1
41
1
41
1
41
1
41
1
41
1
41
1
41
1
41
1
41
1
41
1
41
1
41
1
41
1
41
1
41
1
41
1
41
1
41
1
41
1
41
1
41
1
41
1
41
1
41
1
41
1
41
1
41
1
41
1
41
1
41
1
41
1
41
1
41
1
10
0.1765893135069069
20
0.48242137155283943
30
4.3709567898628207e-17
10
0.17694508217337382
20
0.4833288653689774
30
4.3709567898628207e-17
10
0.17763851983210466
20
0.48510378156501394
30
4.3709567898628207e-17
10
0.17862437722785399
20
0.48764594133723838
30
4.3709567898628207e-17
10
0.179830197718089
20
0.49079493108009259
30
4.3709567898628207e-17
10
0.18115696350205163
20
0.49433219390683125
30
4.3709567898628207e-17
10
0.18230557000413872
20
0.49747768099317313
30
4.3709567898628207e-17
10
0.18328114550709429
20
0.50024672191141772
30
4.3709567898628207e-17
10
0.18409268751567781
20
0.50266590534189737
30
4.3709567898628207e-17
10
0.18475399247795857
20
0.50477571358712903
30
4.3709567898628207e-17
10
0.18528500089462557
20
0.50663441427630385
30
4.3709567898628207e-17
10
0.18571196945052246
20
0.50831839169446513
30
4.3709567898628207e-17
10
0.18606332106529891
20
0.50990940964017706
30
4.3709567898628207e-17
10
0.18636597043611872
20
0.51148327193590237
30
4.3709567898628207e-17
10
0.18664186012315234
20
0.51309920393906772
30
4.3709567898628207e-17
10
0.18690343955260952
20
0.51478581592428418
30
4.3709567898628207e-17
10
0.18715329922263824
20
0.51654041347409907
30
4.3709567898628207e-17
10
0.18738817402107183
20
0.51834231165998224
30
4.3709567898628207e-17
10
0.1876018671908404
20
0.52016271611124665
30
4.3709567898628207e-17
10
0.18778837720062569
20
0.52197518683011757
30
4.3709567898628207e-17
10
0.18794552128285116
20
0.52376787132391589
30
4.3709567898628207e-17
10
0.18807467080328735
20
0.52554228074881493
30
4.3709567898628207e-17
10
0.18817911381565394
20
0.52730733316000089
30
4.3709567898628207e-17
10
0.18826287381868517
20
0.52907496761009176
30
4.3709567898628207e-17
10
0.18832935612278479
20
0.53085516793685084
30
4.3709567898628207e-17
10
0.18838002583531951
20
0.53265108391140137
30
4.3709567898628207e-17
10
0.18841492818213032
20
0.53446090394388912
30
4.3709567898628207e-17
10
0.18843328823188243
20
0.53628001414837922
30
4.3709567898628207e-17
10
0.18843405943052838
20
0.5381029717121959
30
4.3709567898628207e-17
10
0.18841653780070375
20
0.53992571511757315
30
4.3709567898628207e-17
10
0.18838081534448037
20
0.54174719172049113
30
4.3709567898628207e-17
10
0.18832746991172064
20
0.54356822144787564
30
4.3709567898628207e-17
10
0.18825734732818994
20
0.5453906933604189
30
4.3709567898628207e-17
10
0.1881713249387704
20
0.54721669504687898
30
4.3709567898628207e-17
10
0.18807004521864551
20
0.54904753104416559
30
4.3709567898628207e-17
10
0.18795379332026418
20
0.55088326775359309
30
4.3709567898628207e-17
10
0.18782264390450198
20
0.55272326363353874
30
4.3709567898628207e-17
10
0.18767655110263873
20
0.55456649009246983
30
4.3709567898628207e-17
10
0.18751545259716634
20
0.55641190432436838
30
4.3709567898628207e-17
10
0.18733938917131221
20
0.55825887564625754
30
4.3709567898628207e-17
10
0.18714853025306186
20
0.56010727620443745
30
4.3709567898628207e-17
10
0.18694311285737844
20
0.5619572618033889
30
4.3709567898628207e-17
10
0.18672340397099518
20
0.56380913588902049
30
4.3709567898628207e-17
10
0.18648965719332172
20
0.56566319207621607
30
4.3709567898628207e-17
10
0.18624206326182347
20
0.56751953486992157
30
4.3709567898628207e-17
10
0.18598075100192379
20
0.56937807652248595
30
4.3709567898628207e-17
10
0.18570581252661403
20
0.57123861866701331
30
4.3709567898628207e-17
10
0.18541732135543521
20
0.57310090782330714
30
4.3709567898628207e-17
10
0.18511535241126123
20
0.57496469822873031
30
4.3709567898628207e-17
10
0.18480000479614492
20
0.57682982018802298
30
4.3709567898628207e-17
10
0.18447139682329647
20
0.57869617579056065
30
4.3709567898628207e-17
10
0.18412965463082431
20
0.58056371708994581
30
4.3709567898628207e-17
10
0.18377490320264439
20
0.58243243030254155
30
4.3709567898628207e-17
10
0.1834072568293999
20
0.58430231793965259
30
4.3709567898628207e-17
10
0.18302680953052153
20
0.58617338078650438
30
4.3709567898628207e-17
10
0.18263363421643894
20
0.58804561753771822
30
4.3709567898628207e-17
10
0.18230895310938208
20
0.58954434446640303
30
4.3709567898628207e-17
10
0.18205975197669447
20
0.59066891613906058
30
4.3709567898628207e-17
10
0.18189109022666655
20
0.59141886445280256
30
4.3709567898628207e-17
10
0.18180612743618951
20
0.5917938970758968
30
4.3709567898628207e-17
0
ARC
5
176
100
AcDbEntity
8
0
100
AcDbCircle
10
-2.463386111681328e-06
20
-3.5037221078252347e-05
30
4.3709567898628207e-17
40
0.61912506908369025
210
0
220
-0
230
1
100
AcDbArc
50
72.923153479057788
51
76.076845748770864
0
SPLINE
5
177
100
AcDbEntity
8
0
100
AcDbSpline
70
4
71
5
72
66
73
60
74
0
42
0.000000001
43
0.0000000001
44
0.0000000001
40
-1
40
-1
40
-1
40
-1
40
-1
40
-1
40
-0.98181818181818203
40
-0.96363636363636385
40
-0.94545454545454566
40
-0.92727272727272747
40
-0.90909090909090928
40
-0.89090909090909109
40
-0.87272727272727291
40
-0.85454545454545472
40
-0.83636363636363653
40
-0.81818181818181834
40
-0.80000000000000016
40
-0.78181818181818197
40
-0.76363636363636378
40
-0.74545454545454559
40
-0.7272727272727274
40
-0.70909090909090922
40
-0.69090909090909103
40
-0.67272727272727284
40
-0.65454545454545465
40
-0.63636363636363646
40
-0.61818181818181828
40
-0.60000000000000009
40
-0.5818181818181819
40
-0.56363636363636371
40
-0.54545454545454553
40
-0.52727272727272734
40
-0.50909090909090915
40
-0.49090909090909102
40
-0.47272727272727283
40
-0.45454545454545464
40
-0.43636363636363645
40
-0.41818181818181827
40
-0.40000000000000008
40
-0.38181818181818189
40
-0.3636363636363637
40
-0.34545454545454551
40
-0.32727272727272733
40
-0.30909090909090914
40
-0.29090909090909095
40
-0.27272727272727276
40
-0.25454545454545457
40
-0.23636363636363641
40
-0.21818181818181823
40
-0.20000000000000004
40
-0.18181818181818185
40
-0.16363636363636366
40
-0.14545454545454548
40
-0.12727272727272729
40
-0.1090909090909091
40
-0.090909090909090912
40
-0.072727272727272724
40
-0.054545454545454543
40
-0.036363636363636362
40
-0.018181818181818181
40
0
40
0
40
0
40
0
40
0
40
0
41
1
41
1
41
1
41
1
41
1
41
1
41
1
41
1
41
1
41
1
41
1
41
1
41
1
41
1
41
1
41
1
41
1
41
1
41
1
41
1
41
1
41
1
41
1
41
1
41
1
41
1
41
1
41
1
41
1
41
1
41
1
41
1
41
1
41
1
41
1
41
1
41
1
41
1
41
1
41
1
41
1
41
1
41
1
41
1
41
1
41
1
41
1
41
1
41
1
41
1
41
1
41
1
41
1
41
1
41
1
41
1
41
1
41
1
41
1
41
1
10
0.14897160066942164
20
0.60089971747918225
30
4.3709567898628207e-17
10
0.14870561725966677
20
0.6006220108535657
30
4.3709567898628207e-17
10
0.14817479397935859
20
0.6000660469119492
30
4.3709567898628207e-17
10
0.14738198967645533
20
0.5992304489291217
30
4.3709567898628207e-17
10
0.14633178220109755
20
0.59811301235963998
30
4.3709567898628207e-17
10
0.1450304919474166
20
0.59671069251177145
30
4.3709567898628207e-17
10
0.14374071633755112
20
0.59530282348376717
30
4.3709567898628207e-17
10
0.14246251854024447
20
0.59388936884287102
30
4.3709567898628207e-17
10
0.14119597874144804
20
0.59247027949240194
30
4.3709567898628207e-17
10
0.13994119361394278
20
0.59104549441570819
30
4.3709567898628207e-17
10
0.13869827738895366
20
0.58961496105620115
30
4.3709567898628207e-17
10
0.13746736288216749
20
0.58817865554604876
30
4.3709567898628207e-17
10
0.13624860193550367
20
0.58673660087524016
30
4.3709567898628207e-17
10
0.13504216689552753
20
0.58528889145968543
30
4.3709567898628207e-17
10
0.13384824856079475
20
0.58383569937094582
30
4.3709567898628207e-17
10
0.13266704050180594
20
0.58237720401859083
30
4.3709567898628207e-17
10
0.13149872384130887
20
0.58091352799453033
30
4.3709567898628207e-17
10
0.13034345419762378
20
0.57944468016317674
30
4.3709567898628207e-17
10
0.12920134124063809
20
0.57797047270924151
30
4.3709567898628207e-17
10
0.12807245112462312
20
0.57649052334229278
30
4.3709567898628207e-17
10
0.12695685641567431
20
0.57500443445008698
30
4.3709567898628207e-17
10
0.12585468003002601
20
0.57351195041038805
30
4.3709567898628207e-17
10
0.12476613304533213
20
0.57201309355334473
30
4.3709567898628207e-17
10
0.12369157524539534
20
0.57050838347486432
30
4.3709567898628207e-17
10
0.12263149029850279
20
0.56899874613005363
30
4.3709567898628207e-17
10
0.12158636865130192
20
0.56748508681806931
30
4.3709567898628207e-17
10
0.12055660471902263
20
0.56596791699421201
30
4.3709567898628207e-17
10
0.11954240872581182
20
0.5644470328770731
30
4.3709567898628207e-17
10
0.11854365949418941
20
0.56292098536108948
30
4.3709567898628207e-17
10
0.11756003386777417
20
0.56138753316742185
30
4.3709567898628207e-17
10
0.1165912839225437
20
0.55984462142254254
30
4.3709567898628207e-17
10
0.11563748267890586
20
0.55829124969722232
30
4.3709567898628207e-17
10
0.11469925114979135
20
0.5567282728989208
30
4.3709567898628207e-17
10
0.11377807774516568
20
0.55515953500298809
30
4.3709567898628207e-17
10
0.11287586864895517
20
0.55359024042563376
30
4.3709567898628207e-17
10
0.11199433594234641
20
0.552024743158128
30
4.3709567898628207e-17
10
0.1111344514292216
20
0.5504645727430052
30
4.3709567898628207e-17
10
0.110295848699604
20
0.54890627471337639
30
4.3709567898628207e-17
10
0.10947630461750094
20
0.54733953738549224
30
4.3709567898628207e-17
10
0.10867311892762187
20
0.54575205473884891
30
4.3709567898628207e-17
10
0.10788451690399879
20
0.54413448903532513
30
4.3709567898628207e-17
10
0.10711089573353648
20
0.54248483865567998
30
4.3709567898628207e-17
10
0.10635648890440456
20
0.54081438737741661
30
4.3709567898628207e-17
10
0.10562976970610083
20
0.53914888971906882
30
4.3709567898628207e-17
10
0.10494025667871214
20
0.53751621883932277
30
4.3709567898628207e-17
10
0.10429580460088528
20
0.53593578683949972
30
4.3709567898628207e-17
10
0.10370002169051677
20
0.53440856908090606
30
4.3709567898628207e-17
10
0.1031488438074965
20
0.5329036298432448
30
4.3709567898628207e-17
10
0.1026305760819945
20
0.53135890183300039
30
4.3709567898628207e-17
10
0.10212924705648171
20
0.5296955463987213
30
4.3709567898628207e-17
10
0.1016271084577256
20
0.52782883940033432
30
4.3709567898628207e-17
10
0.10110732584121275
20
0.52567978353422895
30
4.3709567898628207e-17
10
0.1005569815037051
20
0.52318816357702946
30
4.3709567898628207e-17
10
0.099967051381618932
20
0.52031217372677252
30
4.3709567898628207e-17
10
0.09933155365870229
20
0.51702438897859737
30
4.3709567898628207e-17
10
0.098646988817597245
20
0.51330902806351297
30
4.3709567898628207e-17
10
0.098058729052484667
20
0.50998877356949768
30
4.3709567898628207e-17
10
0.097594464663810068
20
0.50730196325040489
30
4.3709567898628207e-17
10
0.097274707303850363
20
0.50542341633299226
30
4.3709567898628207e-17
10
0.097112266690323482
20
0.50446230790121316
30
4.3709567898628207e-17
0
ARC
5
178
100
AcDbEntity
8
0
100
AcDbCircle
10
-2.444917347366227e-06
20
-3.4970624706616941e-05
30
4.3709567898628207e-17
40
0.51375944881890057
210
0
220
-0
230
1
100
AcDbArc
50
79.103958959706674
51
84.896040268112301
0
SPLINE
5
179
100
AcDbEntity
8
0
100
AcDbSpline
70
4
71
5
72
66
73
60
74
0
42
0.000000001
43
0.0000000001
44
0.0000000001
40
0
40
0
40
0
40
0
40
0
40
0
40
0.018181818181818181
40
0.036363636363636362
40
0.054545454545454543
40
0.072727272727272724
40
0.090909090909090912
40
0.1090909090909091
40
0.12727272727272729
40
0.14545454545454548
40
0.16363636363636366
40
0.18181818181818185
40
0.20000000000000004
40
0.21818181818181823
40
0.23636363636363641
40
0.25454545454545457
40
0.27272727272727276
40
0.29090909090909095
40
0.30909090909090914
40
0.32727272727272733
40
0.34545454545454551
40
0.3636363636363637
40
0.38181818181818189
40
0.40000000000000008
40
0.41818181818181827
40
0.43636363636363645
40
0.45454545454545464
40
0.47272727272727283
40
0.49090909090909102
40
0.50909090909090915
40
0.52727272727272734
40
0.54545454545454553
40
0.56363636363636371
40
0.5818181818181819
40
0.60000000000000009
40
0.61818181818181828
40
0.63636363636363646
40
0.65454545454545465
40
0.67272727272727284
40
0.69090909090909103
40
0.70909090909090922
40
0.7272727272727274
40
0.74545454545454559
40
0.76363636363636378
40
0.78181818181818197
40
0.80000000000000016
40
0.81818181818181834
40
0.83636363636363653
40
0.85454545454545472
40
0.87272727272727291
40
0.89090909090909109
40
0.90909090909090928
40
0.92727272727272747
40
0.94545454545454566
40
0.96363636363636385
40
0.98181818181818203
40
1
40
1
40
1
40
1
40
1
40
1
41
1
41
1
41
1
41
1
41
1
41
1
41
1
41
1
41
1
41
1
41
1
41
1
41
1
41
1
41
1
41
1
41
1
41
1
41
1
41
1
41
1
41
1
41
1
41
1
41
1
41
1
41
1
41
1
41
1
41
1
41
1
41
1
41
1
41
1
41
1
41
1
41
1
41
1
41
1
41
1
41
1
41
1
41
1
41
1
41
1
41
1
41
1
41
1
41
1
41
1
41
1
41
1
41
1
41
1
41
1
41
1
41
1
41
1
41
1
41
1
10
0.045703205468392551
20
0.51168738062987018
30
4.3709567898628207e-17
10
0.045811974928590724
20
0.51265603205069055
30
4.3709567898628207e-17
10
0.046022402157089977
20
0.51454994431675982
30
4.3709567898628207e-17
10
0.046316707911942798
20
0.51726064076524925
30
4.3709567898628207e-17
10
0.046666422547050543
20
0.52061442059256402
30
4.3709567898628207e-17
10
0.047032468896124398
20
0.52437454636457281
30
4.3709567898628207e-17
10
0.047327825616661046
20
0.52771013481549878
30
4.3709567898628207e-17
10
0.047553478664145249
20
0.53063732047242029
30
4.3709567898628207e-17
10
0.047711237303943881
20
0.53318411475399941
30
4.3709567898628207e-17
10
0.047803950290679208
20
0.53539319134530594
30
4.3709567898628207e-17
10
0.047835797896809307
20
0.53732599343559018
30
4.3709567898628207e-17
10
0.047812372424621163
20
0.53906309830859678
30
4.3709567898628207e-17
10
0.047739966277993533
20
0.5406908401219207
30
4.3709567898628207e-17
10
0.047624957585077302
20
0.54228940578160156
30
4.3709567898628207e-17
10
0.047473212580980084
20
0.54392168174238686
30
4.3709567898628207e-17
10
0.04728935160404571
20
0.54561852555600854
30
4.3709567898628207e-17
10
0.047076574249891243
20
0.54737800508531964
30
4.3709567898628207e-17
10
0.04683708031580068
20
0.54917929515043662
30
4.3709567898628207e-17
10
0.046572336725606109
20
0.55099297868632779
30
4.3709567898628207e-17
10
0.046283389620186154
20
0.55279196330569969
30
4.3709567898628207e-17
10
0.045971198258801992
20
0.55456423543795286
30
4.3709567898628207e-17
10
0.045636696163070839
20
0.55631160968343385
30
4.3709567898628207e-17
10
0.045280751186471367
20
0.5580435512328864
30
4.3709567898628207e-17
10
0.044904159676145361
20
0.55977263368367047
30
4.3709567898628207e-17
10
0.044507626902002738
20
0.56150938204171352
30
4.3709567898628207e-17
10
0.044091752828332706
20
0.56325721794998374
30
4.3709567898628207e-17
10
0.043657050013899697
20
0.56501440325236973
30
4.3709567898628207e-17
10
0.043203964094065087
20
0.56677628071030317
30
4.3709567898628207e-17
10
0.042732892878825902
20
0.56853732210232888
30
4.3709567898628207e-17
10
0.042244207576413381
20
0.57029342210079248
30
4.3709567898628207e-17
10
0.041738269498325313
20
0.5720435877415293
30
4.3709567898628207e-17
10
0.041215424591963076
20
0.57378876057168071
30
4.3709567898628207e-17
10
0.040676000937393458
20
0.57553098419957505
30
4.3709567898628207e-17
10
0.040120305676968296
20
0.57727250215467485
30
4.3709567898628207e-17
10
0.039548621755062845
20
0.57901474080769189
30
4.3709567898628207e-17
10
0.038961207421867504
20
0.58075783810025883
30
4.3709567898628207e-17
10
0.038358300837440212
20
0.582501193674413
30
4.3709567898628207e-17
10
0.037740123915077729
20
0.58424380211533089
30
4.3709567898628207e-17
10
0.037106886358746906
20
0.58598464002078376
30
4.3709567898628207e-17
10
0.03645879079478586
20
0.58772310875326783
30
4.3709567898628207e-17
10
0.035796033969034302
20
0.58945912866677552
30
4.3709567898628207e-17
10
0.035118804495200426
20
0.59119291160086229
30
4.3709567898628207e-17
10
0.034427281725085114
20
0.59292481976302081
30
4.3709567898628207e-17
10
0.033721634623783837
20
0.59465520239981073
30
4.3709567898628207e-17
10
0.033002020381669654
20
0.59638420982175555
30
4.3709567898628207e-17
10
0.032268586145308323
20
0.59811179061361275
30
4.3709567898628207e-17
10
0.031521472230146209
20
0.59983777700827601
30
4.3709567898628207e-17
10
0.030760815256108257
20
0.60156194319093581
30
4.3709567898628207e-17
10
0.029986751201184936
20
0.60328407116457916
30
4.3709567898628207e-17
10
0.029199419710975352
20
0.60500402266565401
30
4.3709567898628207e-17
10
0.028398960408402521
20
0.60672173374145644
30
4.3709567898628207e-17
10
0.027585507542966615
20
0.60843719072625213
30
4.3709567898628207e-17
10
0.026759185407329456
20
0.61015041265428294
30
4.3709567898628207e-17
10
0.02592010374780019
20
0.6118614315318871
30
4.3709567898628207e-17
10
0.025068353176938427
20
0.61357027245158224
30
4.3709567898628207e-17
10
0.024204004458660798
20
0.61527695302311591
30
4.3709567898628207e-17
10
0.023502487519490464
20
0.61664057841602182
30
4.3709567898628207e-17
10
0.022970717143007833
20
0.61766233323901876
30
4.3709567898628207e-17
10
0.022613701496296858
20
0.61834307481062134
30
4.3709567898628207e-17
10
0.022434568157302406
20
0.61868333851870605
30
4.3709567898628207e-17
0
ARC
5
180
100
AcDbEntity
8
0
100
AcDbCircle
10
-2.4426389845074406e-06
20
-3.4709555436961767e-05
30
4.3709567898628207e-17
40
0.61912473901965048
210
0
220
-0
230
1
100
AcDbArc
50
87.923152638206901
51
91.076846589622136
0
SPLINE
5
181
100
AcDbEntity
8
0
100
AcDbSpline
70
4
71
5
72
66
73
60
74
0
42
0.000000001
43
0.0000000001
44
0.0000000001
40
-1
40
-1
40
-1
40
-1
40
-1
40
-1
40
-0.98181818181818203
40
-0.96363636363636385
40
-0.94545454545454566
40
-0.92727272727272747
40
-0.90909090909090928
40
-0.89090909090909109
40
-0.87272727272727291
40
-0.85454545454545472
40
-0.83636363636363653
40
-0.81818181818181834
40
-0.80000000000000016
40
-0.78181818181818197
40
-0.76363636363636378
40
-0.74545454545454559
40
-0.7272727272727274
40
-0.70909090909090922
40
-0.69090909090909103
40
-0.67272727272727284
40
-0.65454545454545465
40
-0.63636363636363646
40
-0.61818181818181828
40
-0.60000000000000009
40
-0.5818181818181819
40
-0.56363636363636371
40
-0.54545454545454553
40
-0.52727272727272734
40
-0.50909090909090915
40
-0.49090909090909102
40
-0.47272727272727283
40
-0.45454545454545464
40
-0.43636363636363645
40
-0.41818181818181827
40
-0.40000000000000008
40
-0.38181818181818189
40
-0.3636363636363637
40
-0.34545454545454551
40
-0.32727272727272733
40
-0.30909090909090914
40
-0.29090909090909095
40
-0.27272727272727276
40
-0.25454545454545457
40
-0.23636363636363641
40
-0.21818181818181823
40
-0.20000000000000004
40
-0.18181818181818185
40
-0.16363636363636366
40
-0.14545454545454548
40
-0.12727272727272729
40
-0.1090909090909091
40
-0.090909090909090912
40
-0.072727272727272724
40
-0.054545454545454543
40
-0.036363636363636362
40
-0.018181818181818181
40
0
40
0
40
0
40
0
40
0
40
0
41
1
41
1
41
1
41
1
41
1
41
1
41
1
41
1
41
1
41
1
41
1
41
1
41
1
41
1
41
1
41
1
41
1
41
1
41
1
41
1
41
1
41
1
41
1
41
1
41
1
41
1
41
1
41
1
41
1
41
1
41
1
41
1
41
1
41
1
41
1
41
1
41
1
41
1
41
1
41
1
41
1
41
1
41
1
41
1
41
1
41
1
41
1
41
1
41
1
41
1
41
1
41
1
41
1
41
1
41
1
41
1
41
1
41
1
41
1
41
1
10
-0.011637908982352204
20
0.61898068475162105
30
4.3709567898628207e-17
10
-0.011822953463545094
20
0.61864359917771983
30
4.3709567898628207e-17
10
-0.012191795322721554
20
0.61796919207356649
30
4.3709567898628207e-17
10
-0.012741316802095724
20
0.61695687354899464
30
4.3709567898628207e-17
10
-0.013466525459634188
20
0.61560569901138629
30
4.3709567898628207e-17
10
-0.01436052823920108
20
0.61391436335270733
30
4.3709567898628207e-17
10
-0.015241972493415598
20
0.61222064780669905
30
4.3709567898628207e-17
10
-0.016110787776472853
20
0.61052453353133707
30
4.3709567898628207e-17
10
-0.016966883927540616
20
0.60882599385654834
30
4.3709567898628207e-17
10
-0.017810151775612803
20
0.60712499486553684
30
4.3709567898628207e-17
10
-0.018640467379151805
20
0.6054215153577458
30
4.3709567898628207e-17
10
-0.019457696270603439
20
0.60371556665383241
30
4.3709567898628207e-17
10
-0.020261697732180221
20
0.60200721025998538
30
4.3709567898628207e-17
10
-0.021052329726517157
20
0.60029658198153102
30
4.3709567898628207e-17
10
-0.021829452491758307
20
0.59858389740913509
30
4.3709567898628207e-17
10
-0.02259292548777192
20
0.59686937993886968
30
4.3709567898628207e-17
10
-0.023342605492540261
20
0.59515319486344964
30
4.3709567898628207e-17
10
-0.024078344484588839
20
0.59343539102223086
30
4.3709567898628207e-17
10
-0.024799987920768433
20
0.59171581538423701
30
4.3709567898628207e-17
10
-0.025507372956915721
20
0.58999411580725047
30
4.3709567898628207e-17
10
-0.026200326589943389
20
0.58826992700881919
30
4.3709567898628207e-17
10
-0.026878663931982887
20
0.58654303388988416
30
4.3709567898628207e-17
10
-0.027542186877143954
20
0.58481351265062864
30
4.3709567898628207e-17
10
-0.028190682382275904
20
0.58308195830105836
30
4.3709567898628207e-17
10
-0.028823922914504904
20
0.58134939042768996
30
4.3709567898628207e-17
10
-0.029441669047411235
20
0.57961681041929647
30
4.3709567898628207e-17
10
-0.030043672179510508
20
0.5778848143859352
30
4.3709567898628207e-17
10
-0.030629676507361103
20
0.57615325989989297
30
4.3709567898628207e-17
10
-0.031199424023302412
20
0.57442071586963683
30
4.3709567898628207e-17
10
-0.031752646786780692
20
0.57268493374702623
30
4.3709567898628207e-17
10
-0.032289052433608328
20
0.57094386450919277
30
4.3709567898628207e-17
10
-0.032808311501349489
20
0.5691965607147802
30
4.3709567898628207e-17
10
-0.033310045403908445
20
0.56744400887095803
30
4.3709567898628207e-17
10
-0.033793811341687588
20
0.56569030720163949
30
4.3709567898628207e-17
10
-0.034259115084435798
20
0.56394097614355421
30
4.3709567898628207e-17
10
-0.034705429784580119
20
0.56220066444853334
30
4.3709567898628207e-17
10
-0.035132212626390706
20
0.56047110106256981
30
4.3709567898628207e-17
10
-0.035538923452906206
20
0.55874885439299971
30
4.3709567898628207e-17
10
-0.035925040788458193
20
0.55702338872824142
30
4.3709567898628207e-17
10
-0.036289987846895869
20
0.55528211848777143
30
4.3709567898628207e-17
10
-0.03663306209740403
20
0.55351556477629538
30
4.3709567898628207e-17
10
-0.036953361829713413
20
0.55172189697762763
30
4.3709567898628207e-17
10
-0.03724971826478151
20
0.54991311009124633
30
4.3709567898628207e-17
10
-0.037520612593337846
20
0.54811627412044983
30
4.3709567898628207e-17
10
-0.037764064715993341
20
0.54636077604853672
30
4.3709567898628207e-17
10
-0.037977511720717533
20
0.54466739949183052
30
4.3709567898628207e-17
10
-0.038157720778739725
20
0.5430380204525177
30
4.3709567898628207e-17
10
-0.038300610794373843
20
0.54144170544253722
30
4.3709567898628207e-17
10
-0.038401413946795783
20
0.53981547520505357
30
4.3709567898628207e-17
10
-0.038455152534843037
20
0.53807904373311588
30
4.3709567898628207e-17
10
-0.038457041852981932
20
0.53614598020057447
30
4.3709567898628207e-17
10
-0.038402896719254898
20
0.53393562199680655
30
4.3709567898628207e-17
10
-0.038289609830210909
20
0.53138646233481601
30
4.3709567898628207e-17
10
-0.038115077624159034
20
0.52845578431131213
30
4.3709567898628207e-17
10
-0.037877979978307851
20
0.52511554919788106
30
4.3709567898628207e-17
10
-0.0375776126738529
20
0.52134960771753092
30
4.3709567898628207e-17
10
-0.037286482875841478
20
0.51799023532131871
30
4.3709567898628207e-17
10
-0.037039530157836488
20
0.51527481537814068
30
4.3709567898628207e-17
10
-0.036862188330539003
20
0.51337751910025742
30
4.3709567898628207e-17
10
-0.036770340747782647
20
0.51240711691972107
30
4.3709567898628207e-17
0
ARC
5
182
100
AcDbEntity
8
0
100
AcDbCircle
10
-2.444917347366227e-06
20
-3.4970624706616941e-05
30
4.3709567898628207e-17
40
0.51375944881888902
210
0
220
0
230
1
100
AcDbArc
50
94.103958959706802
51
99.896040268112529
0
SPLINE
5
183
100
AcDbEntity
8
0
100
AcDbSpline
70
4
71
5
72
66
73
60
74
0
42
0.000000001
43
0.0000000001
44
0.0000000001
40
0
40
0
40
0
40
0
40
0
40
0
40
0.018181818181818181
40
0.036363636363636362
40
0.054545454545454543
40
0.072727272727272724
40
0.090909090909090912
40
0.1090909090909091
40
0.12727272727272729
40
0.14545454545454548
40
0.16363636363636366
40
0.18181818181818185
40
0.20000000000000004
40
0.21818181818181823
40
0.23636363636363641
40
0.25454545454545457
40
0.27272727272727276
40
0.29090909090909095
40
0.30909090909090914
40
0.32727272727272733
40
0.34545454545454551
40
0.3636363636363637
40
0.38181818181818189
40
0.40000000000000008
40
0.41818181818181827
40
0.43636363636363645
40
0.45454545454545464
40
0.47272727272727283
40
0.49090909090909102
40
0.50909090909090915
40
0.52727272727272734
40
0.54545454545454553
40
0.56363636363636371
40
0.5818181818181819
40
0.60000000000000009
40
0.61818181818181828
40
0.63636363636363646
40
0.65454545454545465
40
0.67272727272727284
40
0.69090909090909103
40
0.70909090909090922
40
0.7272727272727274
40
0.74545454545454559
40
0.76363636363636378
40
0.78181818181818197
40
0.80000000000000016
40
0.81818181818181834
40
0.83636363636363653
40
0.85454545454545472
40
0.87272727272727291
40
0.89090909090909109
40
0.90909090909090928
40
0.92727272727272747
40
0.94545454545454566
40
0.96363636363636385
40
0.98181818181818203
40
1
40
1
40
1
40
1
40
1
40
1
41
1
41
1
41
1
41
1
41
1
41
1
41
1
41
1
41
1
41
1
41
1
41
1
41
1
41
1
41
1
41
1
41
1
41
1
41
1
41
1
41
1
41
1
41
1
41
1
41
1
41
1
41
1
41
1
41
1
41
1
41
1
41
1
41
1
41
1
41
1
41
1
41
1
41
1
41
1
41
1
41
1
41
1
41
1
41
1
41
1
41
1
41
1
41
1
41
1
41
1
41
1
41
1
41
1
41
1
41
1
41
1
41
1
41
1
41
1
41
1
10
-0.088297667111748829
20
0.5060803571300706
30
4.3709567898628207e-17
10
-0.088443309316748889
20
0.50704415416195747
30
4.3709567898628207e-17
10
-0.088730232786297589
20
0.50892799550685863
30
4.3709567898628207e-17
10
-0.08914753512310658
20
0.51162249914816349
30
4.3709567898628207e-17
10
-0.089677758817536202
20
0.51495251450699708
30
4.3709567898628207e-17
10
-0.090297377357126882
20
0.5186792568668025
30
4.3709567898628207e-17
10
-0.090875398490589315
20
0.52197763184176893
30
4.3709567898628207e-17
10
-0.091415045780913723
20
0.52486347937236821
30
4.3709567898628207e-17
10
-0.091921821500551476
20
0.52736432468366423
30
4.3709567898628207e-17
10
-0.092404018726233314
20
0.52952212470213145
30
4.3709567898628207e-17
10
-0.092873502292387
20
0.53139731092524012
30
4.3709567898628207e-17
10
-0.093345725385443806
20
0.53306916242670865
30
4.3709567898628207e-17
10
-0.093836954934228375
20
0.53462270019300451
30
4.3709567898628207e-17
10
-0.094361784038503871
20
0.53613702960863652
30
4.3709567898628207e-17
10
-0.094930822562459868
20
0.53767441261773685
30
4.3709567898628207e-17
10
-0.095547594124045634
20
0.53926585115801517
30
4.3709567898628207e-17
10
-0.096208508077328725
20
0.54091030704458543
30
4.3709567898628207e-17
10
-0.096906049628122895
20
0.54258823404779
30
4.3709567898628207e-17
10
-0.097631188140125585
20
0.54427159713260453
30
4.3709567898628207e-17
10
-0.098375901093030141
20
0.54593449782363213
30
4.3709567898628207e-17
10
-0.099136152572668987
20
0.54756558017733548
30
4.3709567898628207e-17
10
-0.09991151051953337
20
0.5491668385762345
30
4.3709567898628207e-17
10
-0.10070358642316751
20
0.55074764030952794
30
4.3709567898628207e-17
10
-0.1015148653577653
20
0.55232033664943914
30
4.3709567898628207e-17
10
-0.10234739015689073
20
0.55389527650829262
30
4.3709567898628207e-17
10
-0.10320146688590776
20
0.5554759202215811
30
4.3709567898628207e-17
10
-0.10407615058316165
20
0.55706072151939412
30
4.3709567898628207e-17
10
-0.10496980541590814
20
0.55864529719364076
30
4.3709567898628207e-17
10
-0.10588061632019879
20
0.56022441035325155
30
4.3709567898628207e-17
10
-0.1068071621994332
20
0.56179419163197986
30
4.3709567898628207e-17
10
-0.10774883705546756
20
0.56335377541439535
30
4.3709567898628207e-17
10
-0.10870555041910505
20
0.56490416070297667
30
4.3709567898628207e-17
10
-0.10967751431409223
20
0.56644740638515512
30
4.3709567898628207e-17
10
-0.11066501273185274
20
0.56798575903827031
30
4.3709567898628207e-17
10
-0.11166814154101139
20
0.56952066966201986
30
4.3709567898628207e-17
10
-0.11268668699296101
20
0.5710523383378534
30
4.3709567898628207e-17
10
-0.11372026365867542
20
0.5725802468048643
30
4.3709567898628207e-17
10
-0.11476839696586581
20
0.57410348134229638
30
4.3709567898628207e-17
10
-0.11583061948006725
20
0.57562110769488983
30
4.3709567898628207e-17
10
-0.11690658054048034
20
0.57713260006677947
30
4.3709567898628207e-17
10
-0.11799606949131447
20
0.5786379324474068
30
4.3709567898628207e-17
10
-0.11909895897383074
20
0.5801373582748911
30
4.3709567898628207e-17
10
-0.12021516949368996
20
0.58163127383446711
30
4.3709567898628207e-17
10
-0.12134462823480374
20
0.58312006020378881
30
4.3709567898628207e-17
10
-0.12248722226615527
20
0.5846039032555278
30
4.3709567898628207e-17
10
-0.12364279614783014
20
0.58608279141069508
30
4.3709567898628207e-17
10
-0.12481117092419051
20
0.58755659893501189
30
4.3709567898628207e-17
10
-0.12599215618534781
20
0.58902514306795661
30
4.3709567898628207e-17
10
-0.12718556416487184
20
0.59048824843427938
30
4.3709567898628207e-17
10
-0.12839122419023441
20
0.5919458176246063
30
4.3709567898628207e-17
10
-0.12960898484387742
20
0.59339782500246452
30
4.3709567898628207e-17
10
-0.13083871291379442
20
0.59484429211411849
30
4.3709567898628207e-17
10
-0.13208029326892051
20
0.59628526951455163
30
4.3709567898628207e-17
10
-0.13333362818630862
20
0.59772081652393638
30
4.3709567898628207e-17
10
-0.13459863663535837
20
0.59915098083199714
30
4.3709567898628207e-17
10
-0.13587525482109869
20
0.60057579776343384
30
4.3709567898628207e-17
10
-0.1369058003722832
20
0.60171139280346819
30
4.3709567898628207e-17
10
-0.13768390072017589
20
0.60256069987398275
30
4.3709567898628207e-17
10
-0.13820494023722274
20
0.60312584329015517
30
4.3709567898628207e-17
10
-0.13846603648370226
20
0.60340814967374146
30
4.3709567898628207e-17
0
ARC
5
184
100
AcDbEntity
8
0
100
AcDbCircle
10
-2.414861212888991e-06
20
-3.5086842999215297e-05
30
4.3709567898628207e-17
40
0.61912511999644715
210
0
220
0
230
1
100
AcDbArc
50
102.92315360875992
51
106.07684561906849
0
SPLINE
5
185
100
AcDbEntity
8
0
100
AcDbSpline
70
4
71
5
72
66
73
60
74
0
42
0.000000001
43
0.0000000001
44
0.0000000001
40
-1
40
-1
40
-1
40
-1
40
-1
40
-1
40
-0.98181818181818203
40
-0.96363636363636385
40
-0.94545454545454566
40
-0.92727272727272747
40
-0.90909090909090928
40
-0.89090909090909109
40
-0.87272727272727291
40
-0.85454545454545472
40
-0.83636363636363653
40
-0.81818181818181834
40
-0.80000000000000016
40
-0.78181818181818197
40
-0.76363636363636378
40
-0.74545454545454559
40
-0.7272727272727274
40
-0.70909090909090922
40
-0.69090909090909103
40
-0.67272727272727284
40
-0.65454545454545465
40
-0.63636363636363646
40
-0.61818181818181828
40
-0.60000000000000009
40
-0.5818181818181819
40
-0.56363636363636371
40
-0.54545454545454553
40
-0.52727272727272734
40
-0.50909090909090915
40
-0.49090909090909102
40
-0.47272727272727283
40
-0.45454545454545464
40
-0.43636363636363645
40
-0.41818181818181827
40
-0.40000000000000008
40
-0.38181818181818189
40
-0.3636363636363637
40
-0.34545454545454551
40
-0.32727272727272733
40
-0.30909090909090914
40
-0.29090909090909095
40
-0.27272727272727276
40
-0.25454545454545457
40
-0.23636363636363641
40
-0.21818181818181823
40
-0.20000000000000004
40
-0.18181818181818185
40
-0.16363636363636366
40
-0.14545454545454548
40
-0.12727272727272729
40
-0.1090909090909091
40
-0.090909090909090912
40
-0.072727272727272724
40
-0.054545454545454543
40
-0.036363636363636362
40
-0.018181818181818181
40
0
40
0
40
0
40
0
40
0
40
0
41
1
41
1
41
1
41
1
41
1
41
1
41
1
41
1
41
1
41
1
41
1
41
1
41
1
41
1
41
1
41
1
41
1
41
1
41
1
41
1
41
1
41
1
41
1
41
1
41
1
41
1
41
1
41
1
41
1
41
1
41
1
41
1
41
1
41
1
41
1
41
1
41
1
41
1
41
1
41
1
41
1
41
1
41
1
41
1
41
1
41
1
41
1
41
1
41
1
41
1
41
1
41
1
41
1
41
1
41
1
41
1
41
1
41
1
41
1
41
1
10
-0.17145448098660615
20
0.5948767580819011
30
4.3709567898628207e-17
10
-0.17154597606364688
20
0.59450326538444609
30
4.3709567898628207e-17
10
-0.17172770053853309
20
0.59375637484727373
30
4.3709567898628207e-17
10
-0.17199649021369059
20
0.59263632361535168
30
4.3709567898628207e-17
10
-0.17234727828186414
20
0.59114349142138667
30
4.3709567898628207e-17
10
-0.17277306877529544
20
0.58927840168205314
30
4.3709567898628207e-17
10
-0.17318611270458403
20
0.58741426353365578
30
4.3709567898628207e-17
10
-0.17358633714763191
20
0.58555107700887943
30
4.3709567898628207e-17
10
-0.17397364811303889
20
0.58368883968173102
30
4.3709567898628207e-17
10
-0.17434793137139745
20
0.5818275470466292
30
4.3709567898628207e-17
10
-0.17470906171726797
20
0.57996721070384394
30
4.3709567898628207e-17
10
-0.17505691219496894
20
0.57810787639106564
30
4.3709567898628207e-17
10
-0.17539136280052878
20
0.57624963993916778
30
4.3709567898628207e-17
10
-0.17571231148539351
20
0.57439266928800869
30
4.3709567898628207e-17
10
-0.17601967904894758
20
0.57253720885521431
30
4.3709567898628207e-17
10
-0.17631338755900569
20
0.57068351079927815
30
4.3709567898628207e-17
10
-0.17659334145462513
20
0.56883177184928457
30
4.3709567898628207e-17
10
-0.17685941039859607
20
0.56698207749119944
30
4.3709567898628207e-17
10
-0.17711140550636731
20
0.5651343199071539
30
4.3709567898628207e-17
10
-0.17734907834144337
20
0.56328820110105582
30
4.3709567898628207e-17
10
-0.17757216725361896
20
0.56144341301364742
30
4.3709567898628207e-17
10
-0.17778043798319396
20
0.55959979572769758
30
4.3709567898628207e-17
10
-0.17797371889663122
20
0.55775747412051246
30
4.3709567898628207e-17
10
-0.17815195820997204
20
0.55591707806724899
30
4.3709567898628207e-17
10
-0.1783152000317452
20
0.55407965130269565
30
4.3709567898628207e-17
10
-0.17846347227227335
20
0.55224622306224302
30
4.3709567898628207e-17
10
-0.1785966890855987
20
0.55041743348678818
30
4.3709567898628207e-17
10
-0.17871456652156564
20
0.54859321120852789
30
4.3709567898628207e-17
10
-0.17881648497016789
20
0.54677224067648944
30
4.3709567898628207e-17
10
-0.17890160365362229
20
0.54495241930807381
30
4.3709567898628207e-17
10
-0.1789691098436676
20
0.54313184356859656
30
4.3709567898628207e-17
10
-0.17901844008816037
20
0.54130968357113374
30
4.3709567898628207e-17
10
-0.17904948402785589
20
0.5394869901937277
30
4.3709567898628207e-17
10
-0.17906287464958731
20
0.53766783662166218
30
4.3709567898628207e-17
10
-0.1790595633577538
20
0.5358576831035472
30
4.3709567898628207e-17
10
-0.1790402444421893
20
0.534061156347022
30
4.3709567898628207e-17
10
-0.17900484106731343
20
0.53228006687672536
30
4.3709567898628207e-17
10
-0.17895194332003156
20
0.53051123983159165
30
4.3709567898628207e-17
10
-0.17887832065071496
20
0.52874463346354272
30
4.3709567898628207e-17
10
-0.17878015853878751
20
0.52696824031855083
30
4.3709567898628207e-17
10
-0.17865432507295836
20
0.52517308631519788
30
4.3709567898628207e-17
10
-0.17849947546965553
20
0.52335763659381362
30
4.3709567898628207e-17
10
-0.17831758530932856
20
0.52153377993645611
30
4.3709567898628207e-17
10
-0.1781141937672929
20
0.5197280570552022
30
4.3709567898628207e-17
10
-0.17789499412537649
20
0.51796936608362143
30
4.3709567898628207e-17
10
-0.17766288999639657
20
0.51627844578393922
30
4.3709567898628207e-17
10
-0.17741524425264532
20
0.51465794495277373
30
4.3709567898628207e-17
10
-0.17714010868254629
20
0.51307904040038699
30
4.3709567898628207e-17
10
-0.17681657769369225
20
0.51148213283889254
30
4.3709567898628207e-17
10
-0.17641906364829768
20
0.50979096026452198
30
4.3709567898628207e-17
10
-0.17592057493180788
20
0.50792327528300507
30
4.3709567898628207e-17
10
-0.17529619194902429
20
0.50580224700031562
30
4.3709567898628207e-17
10
-0.17452699414743467
20
0.50336926865173293
30
4.3709567898628207e-17
10
-0.17359989369439316
20
0.50058362331902129
30
4.3709567898628207e-17
10
-0.17250635849233389
20
0.49741856934324646
30
4.3709567898628207e-17
10
-0.17124152857772557
20
0.49385868998598725
30
4.3709567898628207e-17
10
-0.17009084923140164
20
0.49068913536481262
30
4.3709567898628207e-17
10
-0.16914950882662289
20
0.48813015717932912
30
4.3709567898628207e-17
10
-0.16848715336477996
20
0.48634340914697149
30
4.3709567898628207e-17
10
-0.16814727684686215
20
0.48542984452266608
30
4.3709567898628207e-17
0
ARC
5
186
100
AcDbEntity
8
0
100
AcDbCircle
10
-2.444917347366227e-06
20
-3.4970624706616941e-05
30
4.3709567898628207e-17
40
0.51375944881887825
210
0
220
0
230
1
100
AcDbArc
50
109.10395895970724
51
114.89604026811297
0
SPLINE
5
187
100
AcDbEntity
8
0
100
AcDbSpline
70
4
71
5
72
66
73
60
74
0
42
0.000000001
43
0.0000000001
44
0.0000000001
40
0
40
0
40
0
40
0
40
0
40
0
40
0.018181818181818181
40
0.036363636363636362
40
0.054545454545454543
40
0.072727272727272724
40
0.090909090909090912
40
0.1090909090909091
40
0.12727272727272729
40
0.14545454545454548
40
0.16363636363636366
40
0.18181818181818185
40
0.20000000000000004
40
0.21818181818181823
40
0.23636363636363641
40
0.25454545454545457
40
0.27272727272727276
40
0.29090909090909095
40
0.30909090909090914
40
0.32727272727272733
40
0.34545454545454551
40
0.3636363636363637
40
0.38181818181818189
40
0.40000000000000008
40
0.41818181818181827
40
0.43636363636363645
40
0.45454545454545464
40
0.47272727272727283
40
0.49090909090909102
40
0.50909090909090915
40
0.52727272727272734
40
0.54545454545454553
40
0.56363636363636371
40
0.5818181818181819
40
0.60000000000000009
40
0.61818181818181828
40
0.63636363636363646
40
0.65454545454545465
40
0.67272727272727284
40
0.69090909090909103
40
0.70909090909090922
40
0.7272727272727274
40
0.74545454545454559
40
0.76363636363636378
40
0.78181818181818197
40
0.80000000000000016
40
0.81818181818181834
40
0.83636363636363653
40
0.85454545454545472
40
0.87272727272727291
40
0.89090909090909109
40
0.90909090909090928
40
0.92727272727272747
40
0.94545454545454566
40
0.96363636363636385
40
0.98181818181818203
40
1
40
1
40
1
40
1
40
1
40
1
41
1
41
1
41
1
41
1
41
1
41
1
41
1
41
1
41
1
41
1
41
1
41
1
41
1
41
1
41
1
41
1
41
1
41
1
41
1
41
1
41
1
41
1
41
1
41
1
41
1
41
1
41
1
41
1
41
1
41
1
41
1
41
1
41
1
41
1
41
1
41
1
41
1
41
1
41
1
41
1
41
1
41
1
41
1
41
1
41
1
41
1
41
1
41
1
41
1
41
1
41
1
41
1
41
1
41
1
41
1
41
1
41
1
41
1
41
1
41
1
10
-0.21628136621409233
20
0.4659824104389077
30
4.3709567898628207e-17
10
-0.21667149480878986
20
0.46687567190691598
30
4.3709567898628207e-17
10
-0.21743621561625101
20
0.46862106165623962
30
4.3709567898628207e-17
10
-0.21853668758026124
20
0.47111574652014065
30
4.3709567898628207e-17
10
-0.21991071573580104
20
0.47419506236694331
30
4.3709567898628207e-17
10
-0.22147377318454053
20
0.47763444998146376
30
4.3709567898628207e-17
10
-0.22288578098686943
20
0.4806708326767174
30
4.3709567898628207e-17
10
-0.22415395254381701
20
0.48331867634081871
30
4.3709567898628207e-17
10
-0.22529072669492875
20
0.48560314420664841
30
4.3709567898628207e-17
10
-0.22631497318885432
20
0.48756261714689497
30
4.3709567898628207e-17
10
-0.22725379339806326
20
0.48925239666058423
30
4.3709567898628207e-17
10
-0.22814263288858166
20
0.49074506087354802
30
4.3709567898628207e-17
10
-0.22901920935760003
20
0.49211852356140284
30
4.3709567898628207e-17
10
-0.22991809263714089
20
0.49344541768588457
30
4.3709567898628207e-17
10
-0.23086564564596129
20
0.49478313763189558
30
4.3709567898628207e-17
10
-0.23187329582955329
20
0.49616071699229525
30
4.3709567898628207e-17
10
-0.23293730618825798
20
0.49757808228503964
30
4.3709567898628207e-17
10
-0.23404535905179805
20
0.49901829827395694
30
4.3709567898628207e-17
10
-0.23518147549434967
20
0.50045662249534939
30
4.3709567898628207e-17
10
-0.23633120333768617
20
0.50187011532402126
30
4.3709567898628207e-17
10
-0.23748770505361574
20
0.5032488523322749
30
4.3709567898628207e-17
10
-0.23865107948887679
20
0.50459487177091611
30
4.3709567898628207e-17
10
-0.23982530765568388
20
0.5059168046623177
30
4.3709567898628207e-17
10
-0.24101598669586521
20
0.50722593823477913
30
4.3709567898628207e-17
10
-0.24222776833072687
20
0.50853174004575863
30
4.3709567898628207e-17
10
-0.24346184379743713
20
0.5098374733071348
30
4.3709567898628207e-17
10
-0.24471690012902689
20
0.51114188901094026
30
4.3709567898628207e-17
10
-0.24599022277466698
20
0.51244117668794542
30
4.3709567898628207e-17
10
-0.24727870311006694
20
0.51373074766293148
30
4.3709567898628207e-17
10
-0.24857996699564225
20
0.51500723222197664
30
4.3709567898628207e-17
10
-0.24989320504437568
20
0.51626995108863982
30
4.3709567898628207e-17
10
-0.25121858843060046
20
0.51751989264036491
30
4.3709567898628207e-17
10
-0.25255685483280832
20
0.51875899073391285
30
4.3709567898628207e-17
10
-0.25390886002265189
20
0.51998934189396717
30
4.3709567898628207e-17
10
-0.25527507214846801
20
0.52121232286598673
30
4.3709567898628207e-17
10
-0.25665533652984729
20
0.52242818223602205
30
4.3709567898628207e-17
10
-0.25804914673514689
20
0.52363651915885456
30
4.3709567898628207e-17
10
-0.25945580787440231
20
0.52483657387635285
30
4.3709567898628207e-17
10
-0.26087462663753785
20
0.52602756494817493
30
4.3709567898628207e-17
10
-0.26230512822624708
20
0.52720907525220573
30
4.3709567898628207e-17
10
-0.26374710243063176
20
0.52838113418590194
30
4.3709567898628207e-17
10
-0.26520049182620781
20
0.52954401951455388
30
4.3709567898628207e-17
10
-0.26666532219350603
20
0.5306981345949523
30
4.3709567898628207e-17
10
-0.26814162182774026
20
0.53184386636603598
30
4.3709567898628207e-17
10
-0.26962932975331294
20
0.53298142359571887
30
4.3709567898628207e-17
10
-0.27112829282993695
20
0.5341108353303764
30
4.3709567898628207e-17
10
-0.27263830565731761
20
0.53523202643715684
30
4.3709567898628207e-17
10
-0.27415913701172501
20
0.53634486966466344
30
4.3709567898628207e-17
10
-0.27569056013425913
20
0.5374492442109392
30
4.3709567898628207e-17
10
-0.2772323849565107
20
0.53854510015903845
30
4.3709567898628207e-17
10
-0.27878445858513246
20
0.53963245193575704
30
4.3709567898628207e-17
10
-0.28034665792378249
20
0.54071135483097454
30
4.3709567898628207e-17
10
-0.28191888484897881
20
0.5417818874751571
30
4.3709567898628207e-17
10
-0.28350106032079853
20
0.54284413245976082
30
4.3709567898628207e-17
10
-0.28509311841271617
20
0.54389815682181841
30
4.3709567898628207e-17
10
-0.28669500664624847
20
0.54494401119377445
30
4.3709567898628207e-17
10
-0.28798435083320334
20
0.5457741869556878
30
4.3709567898628207e-17
10
-0.28895575489970282
20
0.54639316740059596
30
4.3709567898628207e-17
10
-0.28960531030509179
20
0.54680419907165656
30
4.3709567898628207e-17
10
-0.28993057618136081
20
0.54700930941734449
30
4.3709567898628207e-17
0
ARC
5
188
100
AcDbEntity
8
0
100
AcDbCircle
10
-2.4534638248391271e-06
20
-3.4955518790102498e-05
30
4.3709567898628207e-17
40
0.61912498265053906
210
0
220
0
230
1
100
AcDbArc
50
117.92315325886602
51
121.07684596896256
0
SPLINE
5
189
100
AcDbEntity
8
0
100
AcDbSpline
70
4
71
5
72
66
73
60
74
0
42
0.000000001
43
0.0000000001
44
0.0000000001
40
-1
40
-1
40
-1
40
-1
40
-1
40
-1
40
-0.98181818181818203
40
-0.96363636363636385
40
-0.94545454545454566
40
-0.92727272727272747
40
-0.90909090909090928
40
-0.89090909090909109
40
-0.87272727272727291
40
-0.85454545454545472
40
-0.83636363636363653
40
-0.81818181818181834
40
-0.80000000000000016
40
-0.78181818181818197
40
-0.76363636363636378
40
-0.74545454545454559
40
-0.7272727272727274
40
-0.70909090909090922
40
-0.69090909090909103
40
-0.67272727272727284
40
-0.65454545454545465
40
-0.63636363636363646
40
-0.61818181818181828
40
-0.60000000000000009
40
-0.5818181818181819
40
-0.56363636363636371
40
-0.54545454545454553
40
-0.52727272727272734
40
-0.50909090909090915
40
-0.49090909090909102
40
-0.47272727272727283
40
-0.45454545454545464
40
-0.43636363636363645
40
-0.41818181818181827
40
-0.40000000000000008
40
-0.38181818181818189
40
-0.3636363636363637
40
-0.34545454545454551
40
-0.32727272727272733
40
-0.30909090909090914
40
-0.29090909090909095
40
-0.27272727272727276
40
-0.25454545454545457
40
-0.23636363636363641
40
-0.21818181818181823
40
-0.20000000000000004
40
-0.18181818181818185
40
-0.16363636363636366
40
-0.14545454545454548
40
-0.12727272727272729
40
-0.1090909090909091
40
-0.090909090909090912
40
-0.072727272727272724
40
-0.054545454545454543
40
-0.036363636363636362
40
-0.018181818181818181
40
0
40
0
40
0
40
0
40
0
40
0
41
1
41
1
41
1
41
1
41
1
41
1
41
1
41
1
41
1
41
1
41
1
41
1
41
1
41
1
41
1
41
1
41
1
41
1
41
1
41
1
41
1
41
1
41
1
41
1
41
1
41
1
41
1
41
1
41
1
41
1
41
1
41
1
41
1
41
1
41
1
41
1
41
1
41
1
41
1
41
1
41
1
41
1
41
1
41
1
41
1
41
1
41
1
41
1
41
1
41
1
41
1
41
1
41
1
41
1
41
1
41
1
41
1
41
1
41
1
41
1
10
-0.31958688007062347
20
0.53023058023894143
30
4.3709567898628207e-17
10
-0.31957859050519505
20
0.52984613332810659
30
4.3709567898628207e-17
10
-0.31956081337310854
20
0.52907765871384504
30
4.3709567898628207e-17
10
-0.31953055367185079
20
0.52792620441517291
30
4.3709567898628207e-17
10
-0.31948301552350716
20
0.52639344861189385
30
4.3709567898628207e-17
10
-0.31941157681235105
20
0.52448170757535617
30
4.3709567898628207e-17
10
-0.31932807215556069
20
0.52257418475860162
30
4.3709567898628207e-17
10
-0.31923243112424549
20
0.52067089906686947
30
4.3709567898628207e-17
10
-0.31912456230178388
20
0.51877187248362133
30
4.3709567898628207e-17
10
-0.31900435418490886
20
0.51687713022155446
30
4.3709567898628207e-17
10
-0.31887168883682698
20
0.51498671589121581
30
4.3709567898628207e-17
10
-0.31872645546555683
20
0.51310070653035567
30
4.3709567898628207e-17
10
-0.31856856295902269
20
0.51121922576378565
30
4.3709567898628207e-17
10
-0.31839795621192785
20
0.50934246222104818
30
4.3709567898628207e-17
10
-0.31821462198228695
20
0.50747067249006406
30
4.3709567898628207e-17
10
-0.31801855025680997
20
0.50560412030757318
30
4.3709567898628207e-17
10
-0.31780969964794509
20
0.50374302043227603
30
4.3709567898628207e-17
10
-0.31758796638500891
20
0.50188748917103532
30
4.3709567898628207e-17
10
-0.31735314011421856
20
0.50003747126671061
30
4.3709567898628207e-17
10
-0.31710490373728401
20
0.49819274317727963
30
4.3709567898628207e-17
10
-0.31684292478791343
20
0.49635307506040488
30
4.3709567898628207e-17
10
-0.31656693559898741
20
0.49451837307876978
30
4.3709567898628207e-17
10
-0.31627680270586506
20
0.4926888022766131
30
4.3709567898628207e-17
10
-0.31597263911276657
20
0.49086498446928956
30
4.3709567898628207e-17
10
-0.31565475756370098
20
0.48904791641105977
30
4.3709567898628207e-17
10
-0.31532345140368995
20
0.48723858504324696
30
4.3709567898628207e-17
10
-0.3149788033925624
20
0.48543763091304865
30
4.3709567898628207e-17
10
-0.3146205207841824
20
0.48364505857616802
30
4.3709567898628207e-17
10
-0.31424766459159786
20
0.48185975767481504
30
4.3709567898628207e-17
10
-0.31385887849741367
20
0.48007991487945739
30
4.3709567898628207e-17
10
-0.31345288479538497
20
0.4783039018663357
30
4.3709567898628207e-17
10
-0.3130289244419947
20
0.47653106285838176
30
4.3709567898628207e-17
10
-0.31258716282564897
20
0.47476244148891078
30
4.3709567898628207e-17
10
-0.31212926558259885
20
0.47300180832373817
30
4.3709567898628207e-17
10
-0.31165756491525409
20
0.47125419131643392
30
4.3709567898628207e-17
10
-0.31117392893614598
20
0.46952387982796584
30
4.3709567898628207e-17
10
-0.31067875202606082
20
0.46781264257735189
30
4.3709567898628207e-17
10
-0.31016985059901858
20
0.46611777779665498
30
4.3709567898628207e-17
10
-0.30964150518805866
20
0.46443042202983714
30
4.3709567898628207e-17
10
-0.30908692349146555
20
0.46273996423752078
30
4.3709567898628207e-17
10
-0.3085007576520627
20
0.46103854672098599
30
4.3709567898628207e-17
10
-0.30788131145775283
20
0.45932503497523808
30
4.3709567898628207e-17
10
-0.30723357021592818
20
0.45761040136406206
30
4.3709567898628207e-17
10
-0.30656975360081651
20
0.45591884860263421
30
4.3709567898628207e-17
10
-0.30590284028768522
20
0.45427681661473224
30
4.3709567898628207e-17
10
-0.30524100253776493
20
0.45270358599609417
30
4.3709567898628207e-17
10
-0.30458237864030613
20
0.45120239782665617
30
4.3709567898628207e-17
10
-0.30390796751875315
20
0.44974850346776879
30
4.3709567898628207e-17
10
-0.30318215049075636
20
0.44828974519350639
30
4.3709567898628207e-17
10
-0.30236047373720504
20
0.44675908213285209
30
4.3709567898628207e-17
10
-0.3013955781685011
20
0.44508405534745332
30
4.3709567898628207e-17
10
-0.30024350800543792
20
0.44319690155835212
30
4.3709567898628207e-17
10
-0.29887081885076966
20
0.44104590797723581
30
4.3709567898628207e-17
10
-0.29725433051494765
20
0.4385951324615413
30
4.3709567898628207e-17
10
-0.29537888037384463
20
0.43582095282158423
30
4.3709567898628207e-17
10
-0.29323578391754246
20
0.43270973548265695
30
4.3709567898628207e-17
10
-0.29130397191844831
20
0.42994599854580762
30
4.3709567898628207e-17
10
-0.28973239461937683
20
0.4277178522521326
30
4.3709567898628207e-17
10
-0.28863016395270408
20
0.42616341639068128
30
4.3709567898628207e-17
10
-0.28806542052241518
20
0.42536894724185692
30
4.3709567898628207e-17
0
ARC
5
190
100
AcDbEntity
8
0
100
AcDbCircle
10
-2.444917347366227e-06
20
-3.4970624706616941e-05
30
4.3709567898628207e-17
40
0.5137594488188687
210
0
220
0
230
1
100
AcDbArc
50
124.10395895970795
51
129.89604026811398
0
SPLINE
5
191
100
AcDbEntity
8
0
100
AcDbSpline
70
4
71
5
72
66
73
60
74
0
42
0.000000001
43
0.0000000001
44
0.0000000001
40
0
40
0
40
0
40
0
40
0
40
0
40
0.018181818181818181
40
0.036363636363636362
40
0.054545454545454543
40
0.072727272727272724
40
0.090909090909090912
40
0.1090909090909091
40
0.12727272727272729
40
0.14545454545454548
40
0.16363636363636366
40
0.18181818181818185
40
0.20000000000000004
40
0.21818181818181823
40
0.23636363636363641
40
0.25454545454545457
40
0.27272727272727276
40
0.29090909090909095
40
0.30909090909090914
40
0.32727272727272733
40
0.34545454545454551
40
0.3636363636363637
40
0.38181818181818189
40
0.40000000000000008
40
0.41818181818181827
40
0.43636363636363645
40
0.45454545454545464
40
0.47272727272727283
40
0.49090909090909102
40
0.50909090909090915
40
0.52727272727272734
40
0.54545454545454553
40
0.56363636363636371
40
0.5818181818181819
40
0.60000000000000009
40
0.61818181818181828
40
0.63636363636363646
40
0.65454545454545465
40
0.67272727272727284
40
0.69090909090909103
40
0.70909090909090922
40
0.7272727272727274
40
0.74545454545454559
40
0.76363636363636378
40
0.78181818181818197
40
0.80000000000000016
40
0.81818181818181834
40
0.83636363636363653
40
0.85454545454545472
40
0.87272727272727291
40
0.89090909090909109
40
0.90909090909090928
40
0.92727272727272747
40
0.94545454545454566
40
0.96363636363636385
40
0.98181818181818203
40
1
40
1
40
1
40
1
40
1
40
1
41
1
41
1
41
1
41
1
41
1
41
1
41
1
41
1
41
1
41
1
41
1
41
1
41
1
41
1
41
1
41
1
41
1
41
1
41
1
41
1
41
1
41
1
41
1
41
1
41
1
41
1
41
1
41
1
41
1
41
1
41
1
41
1
41
1
41
1
41
1
41
1
41
1
41
1
41
1
41
1
41
1
41
1
41
1
41
1
41
1
41
1
41
1
41
1
41
1
41
1
41
1
41
1
41
1
41
1
41
1
41
1
41
1
41
1
41
1
41
1
10
-0.32952601424787636
20
0.39412614935839452
30
4.3709567898628207e-17
10
-0.33013404261304741
20
0.39488800096944465
30
4.3709567898628207e-17
10
-0.33132444629877505
20
0.39637599369577731
30
4.3709567898628207e-17
10
-0.33303309254383456
20
0.39850085113102368
30
4.3709567898628207e-17
10
-0.33515728741209477
20
0.40111961717934419
30
4.3709567898628207e-17
10
-0.33755726398795516
20
0.40403726146651553
30
4.3709567898628207e-17
10
-0.33970703246115419
20
0.40660472741951276
30
4.3709567898628207e-17
10
-0.34161730448926581
20
0.40883412104758748
30
4.3709567898628207e-17
10
-0.3433066077924492
20
0.41074652875857581
30
4.3709567898628207e-17
10
-0.3448031028489898
20
0.41237413977823134
30
4.3709567898628207e-17
10
-0.34614728065561118
20
0.41376335690130384
30
4.3709567898628207e-17
10
-0.34739216360119446
20
0.41497511122640907
30
4.3709567898628207e-17
10
-0.34859434975261328
20
0.41607489962330502
30
4.3709567898628207e-17
10
-0.34980602979728376
20
0.41712393281471583
30
4.3709567898628207e-17
10
-0.35106752311923556
20
0.41817082629389563
30
4.3709567898628207e-17
10
-0.35239738223000439
20
0.41924066671751525
30
4.3709567898628207e-17
10
-0.35379197844655219
20
0.42033435031405153
30
4.3709567898628207e-17
10
-0.35523503065136758
20
0.42143870694915181
30
4.3709567898628207e-17
10
-0.3567047005664688
20
0.42253397288842448
30
4.3709567898628207e-17
10
-0.35818109124775122
20
0.42360173065439599
30
4.3709567898628207e-17
10
-0.35965502951924488
20
0.42463416366855689
30
4.3709567898628207e-17
10
-0.36112713839769917
20
0.42563321514658914
30
4.3709567898628207e-17
10
-0.36260349711860568
20
0.42660619165413932
30
4.3709567898628207e-17
10
-0.36409243345546505
20
0.42756254716963099
30
4.3709567898628207e-17
10
-0.36560089101020793
20
0.42851022269726136
30
4.3709567898628207e-17
10
-0.36713086501096004
20
0.4294520619427924
30
4.3709567898628207e-17
10
-0.36868076396196731
20
0.43038719827802463
30
4.3709567898628207e-17
10
-0.37024697958646735
20
0.43131265364977084
30
4.3709567898628207e-17
10
-0.37182532154743708
20
0.43222480030930166
30
4.3709567898628207e-17
10
-0.37341262445599349
20
0.43312099783545138
30
4.3709567898628207e-17
10
-0.37500793069463512
20
0.43400079958233939
30
4.3709567898628207e-17
10
-0.37661166141597602
20
0.43486511594608596
30
4.3709567898628207e-17
10
-0.37822502968168165
20
0.43571562396363639
30
4.3709567898628207e-17
10
-0.37984940472421047
20
0.43655412723232701
30
4.3709567898628207e-17
10
-0.38148559506807822
20
0.43738183442044815
30
4.3709567898628207e-17
10
-0.3831335156422892
20
0.43819902567792363
30
4.3709567898628207e-17
10
-0.38479257352506407
20
0.43900544489215748
30
4.3709567898628207e-17
10
-0.38646190086436588
20
0.43980053804390534
30
4.3709567898628207e-17
10
-0.38814062572244068
20
0.44058372976160864
30
4.3709567898628207e-17
10
-0.38982818152019322
20
0.44135474002308889
30
4.3709567898628207e-17
10
-0.39152437281907354
20
0.44211365163043337
30
4.3709567898628207e-17
10
-0.39322921604223859
20
0.44286074774686479
30
4.3709567898628207e-17
10
-0.39494284048818878
20
0.44359641131263366
30
4.3709567898628207e-17
10
-0.3966653736351719
20
0.44432100875871605
30
4.3709567898628207e-17
10
-0.3983968106183966
20
0.44503475752107519
30
4.3709567898628207e-17
10
-0.40013701103345684
20
0.44573772529196942
30
4.3709567898628207e-17
10
-0.40188575703308682
20
0.44642989266013683
30
4.3709567898628207e-17
10
-0.40364279233722705
20
0.44711119655526682
30
4.3709567898628207e-17
10
-0.40540786664775158
20
0.44778157898115356
30
4.3709567898628207e-17
10
-0.40718078345322406
20
0.44844104091506765
30
4.3709567898628207e-17
10
-0.4089613988039465
20
0.44908963586395312
30
4.3709567898628207e-17
10
-0.41074960810806282
20
0.44972744909342655
30
4.3709567898628207e-17
10
-0.41254533693663187
20
0.45035458195091854
30
4.3709567898628207e-17
10
-0.4143485303191885
20
0.45097113467068001
30
4.3709567898628207e-17
10
-0.41615914192605147
20
0.4515771890685219
30
4.3709567898628207e-17
10
-0.41797713417152732
20
0.45217280763401757
30
4.3709567898628207e-17
10
-0.41943741031863996
20
0.45264098901150601
30
4.3709567898628207e-17
10
-0.42053591852190303
20
0.45298746033623855
30
4.3709567898628207e-17
10
-0.4212697236881654
20
0.45321636913290209
30
4.3709567898628207e-17
10
-0.42163699286226458
20
0.45333030550949849
30
4.3709567898628207e-17
0
ARC
5
192
100
AcDbEntity
8
0
100
AcDbCircle
10
-2.3178201515819074e-06
20
-3.5099959717106564e-05
30
4.3709567898628207e-17
40
0.61912518126315508
210
0
220
0
230
1
100
AcDbArc
50
132.92315376483913
51
136.0768454629893
0
SPLINE
5
193
100
AcDbEntity
8
0
100
AcDbSpline
70
4
71
5
72
66
73
60
74
0
42
0.000000001
43
0.0000000001
44
0.0000000001
40
-1
40
-1
40
-1
40
-1
40
-1
40
-1
40
-0.98181818181818203
40
-0.96363636363636385
40
-0.94545454545454566
40
-0.92727272727272747
40
-0.90909090909090928
40
-0.89090909090909109
40
-0.87272727272727291
40
-0.85454545454545472
40
-0.83636363636363653
40
-0.81818181818181834
40
-0.80000000000000016
40
-0.78181818181818197
40
-0.76363636363636378
40
-0.74545454545454559
40
-0.7272727272727274
40
-0.70909090909090922
40
-0.69090909090909103
40
-0.67272727272727284
40
-0.65454545454545465
40
-0.63636363636363646
40
-0.61818181818181828
40
-0.60000000000000009
40
-0.5818181818181819
40
-0.56363636363636371
40
-0.54545454545454553
40
-0.52727272727272734
40
-0.50909090909090915
40
-0.49090909090909102
40
-0.47272727272727283
40
-0.45454545454545464
40
-0.43636363636363645
40
-0.41818181818181827
40
-0.40000000000000008
40
-0.38181818181818189
40
-0.3636363636363637
40
-0.34545454545454551
40
-0.32727272727272733
40
-0.30909090909090914
40
-0.29090909090909095
40
-0.27272727272727276
40
-0.25454545454545457
40
-0.23636363636363641
40
-0.21818181818181823
40
-0.20000000000000004
40
-0.18181818181818185
40
-0.16363636363636366
40
-0.14545454545454548
40
-0.12727272727272729
40
-0.1090909090909091
40
-0.090909090909090912
40
-0.072727272727272724
40
-0.054545454545454543
40
-0.036363636363636362
40
-0.018181818181818181
40
0
40
0
40
0
40
0
40
0
40
0
41
1
41
1
41
1
41
1
41
1
41
1
41
1
41
1
41
1
41
1
41
1
41
1
41
1
41
1
41
1
41
1
41
1
41
1
41
1
41
1
41
1
41
1
41
1
41
1
41
1
41
1
41
1
41
1
41
1
41
1
41
1
41
1
41
1
41
1
41
1
41
1
41
1
41
1
41
1
41
1
41
1
41
1
41
1
41
1
41
1
41
1
41
1
41
1
41
1
41
1
41
1
41
1
41
1
41
1
41
1
41
1
41
1
41
1
41
1
41
1
10
-0.44594012803719241
20
0.42944768140987977
30
4.3709567898628207e-17
10
-0.44583261874948993
20
0.42907847970722829
30
4.3709567898628207e-17
10
-0.44561655149262136
20
0.42834079129073527
30
4.3709567898628207e-17
10
-0.44528930456359966
20
0.42723640363276072
30
4.3709567898628207e-17
10
-0.44484667984499293
20
0.42576817899511032
30
4.3709567898628207e-17
10
-0.4442828803593451
20
0.42394006865380351
30
4.3709567898628207e-17
10
-0.44370851782081749
20
0.42211915569649783
30
4.3709567898628207e-17
10
-0.44312352909334857
20
0.42030547661254064
30
4.3709567898628207e-17
10
-0.44252783156499409
20
0.41849907629665695
30
4.3709567898628207e-17
10
-0.44192132405739493
20
0.416700007961603
30
4.3709567898628207e-17
10
-0.44130390393959756
20
0.41490834425622908
30
4.3709567898628207e-17
10
-0.44067548413360735
20
0.41312418826838071
30
4.3709567898628207e-17
10
-0.44003600862837761
20
0.41134768299201668
30
4.3709567898628207e-17
10
-0.43938547301719993
20
0.40957902489159792
30
4.3709567898628207e-17
10
-0.43872393091914114
20
0.40781846523930465
30
4.3709567898628207e-17
10
-0.43805144092219384
20
0.40606626137689028
30
4.3709567898628207e-17
10
-0.43736801863269353
20
0.40432263145720942
30
4.3709567898628207e-17
10
-0.4366735939182862
20
0.40258771468188409
30
4.3709567898628207e-17
10
-0.4359679492912199
20
0.40086151212017779
30
4.3709567898628207e-17
10
-0.43525072060113451
20
0.39914388991815364
30
4.3709567898628207e-17
10
-0.43452152722267762
20
0.39743471211377202
30
4.3709567898628207e-17
10
-0.4337800863223818
20
0.39573395734449784
30
4.3709567898628207e-17
10
-0.43302631169989603
20
0.39404181957401713
30
4.3709567898628207e-17
10
-0.43226047344657148
20
0.39235887018219623
30
4.3709567898628207e-17
10
-0.431483131628909
20
0.3906859910156113
30
4.3709567898628207e-17
10
-0.4306948250356552
20
0.38902405946309832
30
4.3709567898628207e-17
10
-0.42989579939247796
20
0.38737367282591639
30
4.3709567898628207e-17
10
-0.42908577310742885
20
0.38573491127281223
30
4.3709567898628207e-17
10
-0.4282635518070152
20
0.38410694530822681
30
4.3709567898628207e-17
10
-0.42742735606501681
20
0.38248837443110412
30
4.3709567898628207e-17
10
-0.42657553027076917
20
0.38087795649617928
30
4.3709567898628207e-17
10
-0.42570717151694121
20
0.37927525452636546
30
4.3709567898628207e-17
10
-0.42482270966864721
20
0.37768123378836843
30
4.3709567898628207e-17
10
-0.4239247295012058
20
0.37609910527070417
30
4.3709567898628207e-17
10
-0.4230167850793034
20
0.37453312198518302
30
4.3709567898628207e-17
10
-0.42210179102939049
20
0.37298694363323998
30
4.3709567898628207e-17
10
-0.42118058607221837
20
0.37146217659299446
30
4.3709567898628207e-17
10
-0.4202503617566945
20
0.36995677631065405
30
4.3709567898628207e-17
10
-0.41930329947073508
20
0.36846366165209621
30
4.3709567898628207e-17
10
-0.41833009201561222
20
0.3669743411173858
30
4.3709567898628207e-17
10
-0.41732354003588706
20
0.36548260887968625
30
4.3709567898628207e-17
10
-0.41628171148499465
20
0.36398780810332493
30
4.3709567898628207e-17
10
-0.41521226165681707
20
0.36249924698535924
30
4.3709567898628207e-17
10
-0.41413325797390887
20
0.36103714086902267
30
4.3709567898628207e-17
10
-0.41306408002972456
20
0.3596236696311883
30
4.3709567898628207e-17
10
-0.41201761180782237
20
0.35827534176037429
30
4.3709567898628207e-17
10
-0.4109928938869219
20
0.35699576974559322
30
4.3709567898628207e-17
10
-0.40996516721742854
20
0.35576596607810634
30
4.3709567898628207e-17
10
-0.40888652738134496
20
0.35454476905676785
30
4.3709567898628207e-17
10
-0.40769668383249735
20
0.35327892766787489
30
4.3709567898628207e-17
10
-0.40633113744989757
20
0.35191070938588415
30
4.3709567898628207e-17
10
-0.40472989178404256
20
0.35038603650237859
30
4.3709567898628207e-17
10
-0.40284725777339703
20
0.34866361434652843
30
4.3709567898628207e-17
10
-0.40065154256319985
20
0.34671472494907979
30
4.3709567898628207e-17
10
-0.3981219863106355
20
0.34452047540280989
30
4.3709567898628207e-17
10
-0.39524667179449813
20
0.34206994440233407
30
4.3709567898628207e-17
10
-0.39266537693812748
20
0.33990036925481537
30
4.3709567898628207e-17
10
-0.39057066314086497
20
0.33815489934074716
30
4.3709567898628207e-17
10
-0.38910367246806193
20
0.33693870788539448
30
4.3709567898628207e-17
10
-0.38835254845705558
20
0.33631747597165484
30
4.3709567898628207e-17
0
ARC
5
194
100
AcDbEntity
8
0
100
AcDbCircle
10
-2.444917347366227e-06
20
-3.4970624706616941e-05
30
4.3709567898628207e-17
40
0.51375944881886138
210
0
220
0
230
1
100
AcDbArc
50
139.10395895970893
51
144.89604026811492
0
SPLINE
5
195
100
AcDbEntity
8
0
100
AcDbSpline
70
4
71
5
72
66
73
60
74
0
42
0.000000001
43
0.0000000001
44
0.0000000001
40
0
40
0
40
0
40
0
40
0
40
0
40
0.018181818181818181
40
0.036363636363636362
40
0.054545454545454543
40
0.072727272727272724
40
0.090909090909090912
40
0.1090909090909091
40
0.12727272727272729
40
0.14545454545454548
40
0.16363636363636366
40
0.18181818181818185
40
0.20000000000000004
40
0.21818181818181823
40
0.23636363636363641
40
0.25454545454545457
40
0.27272727272727276
40
0.29090909090909095
40
0.30909090909090914
40
0.32727272727272733
40
0.34545454545454551
40
0.3636363636363637
40
0.38181818181818189
40
0.40000000000000008
40
0.41818181818181827
40
0.43636363636363645
40
0.45454545454545464
40
0.47272727272727283
40
0.49090909090909102
40
0.50909090909090915
40
0.52727272727272734
40
0.54545454545454553
40
0.56363636363636371
40
0.5818181818181819
40
0.60000000000000009
40
0.61818181818181828
40
0.63636363636363646
40
0.65454545454545465
40
0.67272727272727284
40
0.69090909090909103
40
0.70909090909090922
40
0.7272727272727274
40
0.74545454545454559
40
0.76363636363636378
40
0.78181818181818197
40
0.80000000000000016
40
0.81818181818181834
40
0.83636363636363653
40
0.85454545454545472
40
0.87272727272727291
40
0.89090909090909109
40
0.90909090909090928
40
0.92727272727272747
40
0.94545454545454566
40
0.96363636363636385
40
0.98181818181818203
40
1
40
1
40
1
40
1
40
1
40
1
41
1
41
1
41
1
41
1
41
1
41
1
41
1
41
1
41
1
41
1
41
1
41
1
41
1
41
1
41
1
41
1
41
1
41
1
41
1
41
1
41
1
41
1
41
1
41
1
41
1
41
1
41
1
41
1
41
1
41
1
41
1
41
1
41
1
41
1
41
1
41
1
41
1
41
1
41
1
41
1
41
1
41
1
41
1
41
1
41
1
41
1
41
1
41
1
41
1
41
1
41
1
41
1
41
1
41
1
41
1
41
1
41
1
41
1
41
1
41
1
10
-0.42031417559522821
20
0.29540845933308169
30
4.3709567898628207e-17
10
-0.4210986676029404
20
0.29598698215912006
30
4.3709567898628207e-17
10
-0.42263363012359051
20
0.29711617361757731
30
4.3709567898628207e-17
10
-0.42483400923244469
20
0.29872639810188639
30
4.3709567898628207e-17
10
-0.4275636104440087
20
0.3007061497735416
30
4.3709567898628207e-17
10
-0.43063695170946481
20
0.30290321809681009
30
4.3709567898628207e-17
10
-0.43337797768430913
20
0.30482679874551116
30
4.3709567898628207e-17
10
-0.43580016830110829
20
0.30648581284564536
30
4.3709567898628207e-17
10
-0.43792687752732096
20
0.30789583297627993
30
4.3709567898628207e-17
10
-0.43979363748096884
20
0.30908066307379373
30
4.3709567898628207e-17
10
-0.44145156938859659
20
0.31007464495493919
30
4.3709567898628207e-17
10
-0.44296765907375263
20
0.31092291033743558
30
4.3709567898628207e-17
10
-0.44441352790819577
20
0.31167407568170274
30
4.3709567898628207e-17
10
-0.44585543072553979
20
0.31237375806178591
30
4.3709567898628207e-17
10
-0.44734489567560531
20
0.31305848101370476
30
4.3709567898628207e-17
10
-0.4489063360129199
20
0.31374767464371317
30
4.3709567898628207e-17
10
-0.45053647865982432
20
0.31444314381432503
30
4.3709567898628207e-17
10
-0.4522161885828504
20
0.31513638101592067
30
4.3709567898628207e-17
10
-0.45391925639445541
20
0.31581394810928015
30
4.3709567898628207e-17
10
-0.45562169632855531
20
0.31646320488532759
30
4.3709567898628207e-17
10
-0.45731262469819156
20
0.3170789753016528
30
4.3709567898628207e-17
10
-0.45899314623255999
20
0.31766297511186803
30
4.3709567898628207e-17
10
-0.46067102410055849
20
0.31822068849450791
30
4.3709567898628207e-17
10
-0.46235674918334574
20
0.31875909190510854
30
4.3709567898628207e-17
10
-0.46405908376847083
20
0.31928405862829051
30
4.3709567898628207e-17
10
-0.46578069110351838
20
0.31979781906985355
30
4.3709567898628207e-17
10
-0.46751980962175732
20
0.32029994804065159
30
4.3709567898628207e-17
10
-0.46927218321859565
20
0.32078850285294369
30
4.3709567898628207e-17
10
-0.47103282540881819
20
0.32126106390956555
30
4.3709567898628207e-17
10
-0.47279799527027155
20
0.32171590002244804
30
4.3709567898628207e-17
10
-0.47456665221501954
20
0.32215282761444802
30
4.3709567898628207e-17
10
-0.47633943867310774
20
0.32257261705837548
30
4.3709567898628207e-17
10
-0.478117960421229
20
0.32297657428406601
30
4.3709567898628207e-17
10
-0.47990400684171386
20
0.32336608704932912
30
4.3709567898628207e-17
10
-0.48169867173564307
20
0.32374211357653571
30
4.3709567898628207e-17
10
-0.4835019454388752
20
0.32410494648772609
30
4.3709567898628207e-17
10
-0.48531318894613296
20
0.32445449185657899
30
4.3709567898628207e-17
10
-0.48713142058599029
20
0.32479043915823547
30
4.3709567898628207e-17
10
-0.48895564921413859
20
0.32511245830054586
30
4.3709567898628207e-17
10
-0.49078525508212728
20
0.32542042544431571
30
4.3709567898628207e-17
10
-0.49262007084157267
20
0.32571447115343677
30
4.3709567898628207e-17
10
-0.4944601856440593
20
0.32599486469194944
30
4.3709567898628207e-17
10
-0.49630582349457708
20
0.32626194248681561
30
4.3709567898628207e-17
10
-0.49815720236697009
20
0.32651602548937947
30
4.3709567898628207e-17
10
-0.50001437383877689
20
0.32675732498575866
30
4.3709567898628207e-17
10
-0.50187721980980227
20
0.32698594270099401
30
4.3709567898628207e-17
10
-0.5037455248317424
20
0.32720191626827339
30
4.3709567898628207e-17
10
-0.50561902503327427
20
0.32740525109651786
30
4.3709567898628207e-17
10
-0.50749746363445014
20
0.32759595594761354
30
4.3709567898628207e-17
10
-0.50938065107273323
20
0.32777408262642377
30
4.3709567898628207e-17
10
-0.51126846215201016
20
0.32793972007359734
30
4.3709567898628207e-17
10
-0.51316081791267221
20
0.32809297771974932
30
4.3709567898628207e-17
10
-0.51505767269252967
20
0.32823397272260257
30
4.3709567898628207e-17
10
-0.51695899933672684
20
0.32836281612841861
30
4.3709567898628207e-17
10
-0.51886477426971322
20
0.32847959895622753
30
4.3709567898628207e-17
10
-0.52077497735998601
20
0.32858439129424533
30
4.3709567898628207e-17
10
-0.52230667006105103
20
0.32865867250018643
30
4.3709567898628207e-17
10
-0.52345742088238822
20
0.32870902325665841
30
4.3709567898628207e-17
10
-0.52422546820010463
20
0.32874020942284743
30
4.3709567898628207e-17
10
-0.52460971188475503
20
0.32875520725464902
30
4.3709567898628207e-17
0
ARC
5
196
100
AcDbEntity
8
0
100
AcDbCircle
10
-2.454239152508414e-06
20
-3.4965133724959818e-05
30
4.3709567898628207e-17
40
0.61912498918523418
210
0
220
0
230
1
100
AcDbArc
50
147.92315327551344
51
151.07684595231521
0
SPLINE
5
197
100
AcDbEntity
8
0
100
AcDbSpline
70
4
71
5
72
66
73
60
74
0
42
0.000000001
43
0.0000000001
44
0.0000000001
40
-1
40
-1
40
-1
40
-1
40
-1
40
-1
40
-0.98181818181818203
40
-0.96363636363636385
40
-0.94545454545454566
40
-0.92727272727272747
40
-0.90909090909090928
40
-0.89090909090909109
40
-0.87272727272727291
40
-0.85454545454545472
40
-0.83636363636363653
40
-0.81818181818181834
40
-0.80000000000000016
40
-0.78181818181818197
40
-0.76363636363636378
40
-0.74545454545454559
40
-0.7272727272727274
40
-0.70909090909090922
40
-0.69090909090909103
40
-0.67272727272727284
40
-0.65454545454545465
40
-0.63636363636363646
40
-0.61818181818181828
40
-0.60000000000000009
40
-0.5818181818181819
40
-0.56363636363636371
40
-0.54545454545454553
40
-0.52727272727272734
40
-0.50909090909090915
40
-0.49090909090909102
40
-0.47272727272727283
40
-0.45454545454545464
40
-0.43636363636363645
40
-0.41818181818181827
40
-0.40000000000000008
40
-0.38181818181818189
40
-0.3636363636363637
40
-0.34545454545454551
40
-0.32727272727272733
40
-0.30909090909090914
40
-0.29090909090909095
40
-0.27272727272727276
40
-0.25454545454545457
40
-0.23636363636363641
40
-0.21818181818181823
40
-0.20000000000000004
40
-0.18181818181818185
40
-0.16363636363636366
40
-0.14545454545454548
40
-0.12727272727272729
40
-0.1090909090909091
40
-0.090909090909090912
40
-0.072727272727272724
40
-0.054545454545454543
40
-0.036363636363636362
40
-0.018181818181818181
40
0
40
0
40
0
40
0
40
0
40
0
41
1
41
1
41
1
41
1
41
1
41
1
41
1
41
1
41
1
41
1
41
1
41
1
41
1
41
1
41
1
41
1
41
1
41
1
41
1
41
1
41
1
41
1
41
1
41
1
41
1
41
1
41
1
41
1
41
1
41
1
41
1
41
1
41
1
41
1
41
1
41
1
41
1
41
1
41
1
41
1
41
1
41
1
41
1
41
1
41
1
41
1
41
1
41
1
41
1
41
1
41
1
41
1
41
1
41
1
41
1
41
1
41
1
41
1
41
1
41
1
10
-0.54190345984600619
20
0.29939624959830136
30
4.3709567898628207e-17
10
-0.54170405741637306
20
0.2990674535898048
30
4.3709567898628207e-17
10
-0.54130442466130291
20
0.29841082361769766
30
4.3709567898628207e-17
10
-0.54070249184202046
20
0.29742876479434444
30
4.3709567898628207e-17
10
-0.53989494469628574
20
0.2961251284050665
30
4.3709567898628207e-17
10
-0.53887720643930492
20
0.29450523145757157
30
4.3709567898628207e-17
10
-0.53785112787674572
20
0.29289502056840322
30
4.3709567898628207e-17
10
-0.53681665746805174
20
0.29129454732440296
30
4.3709567898628207e-17
10
-0.53577372703585957
20
0.28970387647210444
30
4.3709567898628207e-17
10
-0.5347222526218629
20
0.28812308559797417
30
4.3709567898628207e-17
10
-0.53366215389506766
20
0.28655227143825407
30
4.3709567898628207e-17
10
-0.53259337342566704
20
0.2849915561055919
30
4.3709567898628207e-17
10
-0.53151589412068001
20
0.28344109221826147
30
4.3709567898628207e-17
10
-0.53042976257228291
20
0.28190107068689335
30
4.3709567898628207e-17
10
-0.52933509560654146
20
0.28037172034413793
30
4.3709567898628207e-17
10
-0.52823201642006223
20
0.27885327459935455
30
4.3709567898628207e-17
10
-0.52712059654953025
20
0.27734594013280583
30
4.3709567898628207e-17
10
-0.52600080428033558
20
0.27584986955452756
30
4.3709567898628207e-17
10
-0.52487242981219018
20
0.27436512018732395
30
4.3709567898628207e-17
10
-0.52373508675890701
20
0.27289165698726903
30
4.3709567898628207e-17
10
-0.52258837227505961
20
0.2714294471382066
30
4.3709567898628207e-17
10
-0.52143200763546449
20
0.26997854320819831
30
4.3709567898628207e-17
10
-0.52026595977847023
20
0.26853915486206903
30
4.3709567898628207e-17
10
-0.51909063747628015
20
0.26711176410560195
30
4.3709567898628207e-17
10
-0.51790680995027938
20
0.26569707778130247
30
4.3709567898628207e-17
10
-0.51671522471537257
20
0.26429580393291824
30
4.3709567898628207e-17
10
-0.51551627371727249
20
0.26290845591067968
30
4.3709567898628207e-17
10
-0.51430970570824075
20
0.26153518403300979
30
4.3709567898628207e-17
10
-0.51309415232282862
20
0.26017549619533181
30
4.3709567898628207e-17
10
-0.51186753229094972
20
0.2588285001669019
30
4.3709567898628207e-17
10
-0.51062792492465481
20
0.25749342463110009
30
4.3709567898628207e-17
10
-0.50937434498444289
20
0.25617008119008661
30
4.3709567898628207e-17
10
-0.50810745751753394
20
0.25485929096262266
30
4.3709567898628207e-17
10
-0.50683059029014321
20
0.25356348653636213
30
4.3709567898628207e-17
10
-0.50554827702558902
20
0.25228585614562338
30
4.3709567898628207e-17
10
-0.504264280237263
20
0.25102918042970346
30
4.3709567898628207e-17
10
-0.5029798258284558
20
0.24979479395381293
30
4.3709567898628207e-17
10
-0.50169167187426744
20
0.24858144871127069
30
4.3709567898628207e-17
10
-0.50039043344299472
20
0.24738432845746261
30
4.3709567898628207e-17
10
-0.4990649227091114
20
0.24619763991358493
30
4.3709567898628207e-17
10
-0.49770657944308871
20
0.24501725204152305
30
4.3709567898628207e-17
10
-0.49631336742966697
20
0.2438430304371827
30
4.3709567898628207e-17
10
-0.49489509025358469
20
0.24268198479264474
30
4.3709567898628207e-17
10
-0.49347443182073508
20
0.24154896543697213
30
4.3709567898628207e-17
10
-0.49207585195548942
20
0.24046038067818848
30
4.3709567898628207e-17
10
-0.49071606834155096
20
0.23942884187138622
30
4.3709567898628207e-17
10
-0.48939508923008485
20
0.23845808672950039
30
4.3709567898628207e-17
10
-0.4880840848867728
20
0.23753618284103692
30
4.3709567898628207e-17
10
-0.48672612976489255
20
0.23663576963152669
30
4.3709567898628207e-17
10
-0.48524920529229287
20
0.23572101491314501
30
4.3709567898628207e-17
10
-0.4835760678251062
20
0.23475284694935303
30
4.3709567898628207e-17
10
-0.48163476890242035
20
0.23369455890873267
30
4.3709567898628207e-17
10
-0.47937048843244717
20
0.23251808840151725
30
4.3709567898628207e-17
10
-0.47674518071088412
20
0.23120389871393707
30
4.3709567898628207e-17
10
-0.47373390342519967
20
0.22973911374167413
30
4.3709567898628207e-17
10
-0.47032231878182207
20
0.22811626871762244
30
4.3709567898628207e-17
10
-0.4672674520468279
20
0.22668870832042756
30
4.3709567898628207e-17
10
-0.46479235303495292
20
0.22554486567621435
30
4.3709567898628207e-17
10
-0.46306057534603051
20
0.22474980006491005
30
4.3709567898628207e-17
10
-0.46217425861435207
20
0.22434414131460967
30
4.3709567898628207e-17
0
ARC
5
198
100
AcDbEntity
8
0
100
AcDbCircle
10
-2.444917347366227e-06
20
-3.4970624706616941e-05
30
4.3709567898628207e-17
40
0.51375944881885616
210
0
220
0
230
1
100
AcDbArc
50
154.1039589597101
51
159.89604026811608
0
SPLINE
5
199
100
AcDbEntity
8
0
100
AcDbSpline
70
4
71
5
72
66
73
60
74
0
42
0.000000001
43
0.0000000001
44
0.0000000001
40
0
40
0
40
0
40
0
40
0
40
0
40
0.018181818181818181
40
0.036363636363636362
40
0.054545454545454543
40
0.072727272727272724
40
0.090909090909090912
40
0.1090909090909091
40
0.12727272727272729
40
0.14545454545454548
40
0.16363636363636366
40
0.18181818181818185
40
0.20000000000000004
40
0.21818181818181823
40
0.23636363636363641
40
0.25454545454545457
40
0.27272727272727276
40
0.29090909090909095
40
0.30909090909090914
40
0.32727272727272733
40
0.34545454545454551
40
0.3636363636363637
40
0.38181818181818189
40
0.40000000000000008
40
0.41818181818181827
40
0.43636363636363645
40
0.45454545454545464
40
0.47272727272727283
40
0.49090909090909102
40
0.50909090909090915
40
0.52727272727272734
40
0.54545454545454553
40
0.56363636363636371
40
0.5818181818181819
40
0.60000000000000009
40
0.61818181818181828
40
0.63636363636363646
40
0.65454545454545465
40
0.67272727272727284
40
0.69090909090909103
40
0.70909090909090922
40
0.7272727272727274
40
0.74545454545454559
40
0.76363636363636378
40
0.78181818181818197
40
0.80000000000000016
40
0.81818181818181834
40
0.83636363636363653
40
0.85454545454545472
40
0.87272727272727291
40
0.89090909090909109
40
0.90909090909090928
40
0.92727272727272747
40
0.94545454545454566
40
0.96363636363636385
40
0.98181818181818203
40
1
40
1
40
1
40
1
40
1
40
1
41
1
41
1
41
1
41
1
41
1
41
1
41
1
41
1
41
1
41
1
41
1
41
1
41
1
41
1
41
1
41
1
41
1
41
1
41
1
41
1
41
1
41
1
41
1
41
1
41
1
41
1
41
1
41
1
41
1
41
1
41
1
41
1
41
1
41
1
41
1
41
1
41
1
41
1
41
1
41
1
41
1
41
1
41
1
41
1
41
1
41
1
41
1
41
1
41
1
41
1
41
1
41
1
41
1
41
1
41
1
41
1
41
1
41
1
41
1
41
1
10
-0.48245878709485596
20
0.17655678779949804
30
4.3709567898628207e-17
10
-0.48336628091099393
20
0.17691255646596493
30
4.3709567898628207e-17
10
-0.48514119710703046
20
0.1776059941246958
30
4.3709567898628207e-17
10
-0.48768335687925496
20
0.17859185152044513
30
4.3709567898628207e-17
10
-0.49083234662210912
20
0.17979767201068014
30
4.3709567898628207e-17
10
-0.49436960944884778
20
0.18112443779464277
30
4.3709567898628207e-17
10
-0.49751509653518966
20
0.18227304429672983
30
4.3709567898628207e-17
10
-0.50028413745343425
20
0.18324861979968543
30
4.3709567898628207e-17
10
-0.5027033208839139
20
0.18406016180826895
30
4.3709567898628207e-17
10
-0.50481312912914555
20
0.18472146677054971
30
4.3709567898628207e-17
10
-0.50667182981832048
20
0.18525247518721671
30
4.3709567898628207e-17
10
-0.50835580723648166
20
0.18567944374311363
30
4.3709567898628207e-17
10
-0.50994682518219359
20
0.18603079535789005
30
4.3709567898628207e-17
10
-0.5115206874779189
20
0.18633344472870986
30
4.3709567898628207e-17
10
-0.51313661948108424
20
0.18660933441574346
30
4.3709567898628207e-17
10
-0.51482323146630071
20
0.18687091384520066
30
4.3709567898628207e-17
10
-0.5165778290161156
20
0.18712077351522938
30
4.3709567898628207e-17
10
-0.51837972720199865
20
0.18735564831366297
30
4.3709567898628207e-17
10
-0.52020013165326318
20
0.18756934148343155
30
4.3709567898628207e-17
10
-0.52201260237213409
20
0.18775585149321683
30
4.3709567898628207e-17
10
-0.52380528686593242
20
0.18791299557544228
30
4.3709567898628207e-17
10
-0.52557969629083146
20
0.18804214509587849
30
4.3709567898628207e-17
10
-0.52734474870201742
20
0.18814658810824506
30
4.3709567898628207e-17
10
-0.52911238315210829
20
0.18823034811127631
30
4.3709567898628207e-17
10
-0.53089258347886736
20
0.18829683041537595
30
4.3709567898628207e-17
10
-0.5326884994534179
20
0.18834750012791066
30
4.3709567898628207e-17
10
-0.53449831948590565
20
0.18838240247472146
30
4.3709567898628207e-17
10
-0.53631742969039586
20
0.18840076252447358
30
4.3709567898628207e-17
10
-0.53814038725421232
20
0.18840153372311952
30
4.3709567898628207e-17
10
-0.53996313065958967
20
0.18838401209329489
30
4.3709567898628207e-17
10
-0.54178460726250766
20
0.18834828963707151
30
4.3709567898628207e-17
10
-0.54360563698989217
20
0.18829494420431178
30
4.3709567898628207e-17
10
-0.54542810890243543
20
0.18822482162078108
30
4.3709567898628207e-17
10
-0.5472541105888955
20
0.18813879923136154
30
4.3709567898628207e-17
10
-0.54908494658618212
20
0.18803751951123662
30
4.3709567898628207e-17
10
-0.55092068329560961
20
0.18792126761285532
30
4.3709567898628207e-17
10
-0.55276067917555527
20
0.18779011819709313
30
4.3709567898628207e-17
10
-0.55460390563448636
20
0.1876440253952299
30
4.3709567898628207e-17
10
-0.5564493198663848
20
0.18748292688975746
30
4.3709567898628207e-17
10
-0.55829629118827406
20
0.18730686346390335
30
4.3709567898628207e-17
10
-0.56014469174645409
20
0.187116004545653
30
4.3709567898628207e-17
10
-0.56199467734540554
20
0.18691058714996958
30
4.3709567898628207e-17
10
-0.56384655143103701
20
0.18669087826358632
30
4.3709567898628207e-17
10
-0.56570060761823249
20
0.18645713148591286
30
4.3709567898628207e-17
10
-0.5675569504119381
20
0.18620953755441461
30
4.3709567898628207e-17
10
-0.56941549206450259
20
0.18594822529451491
30
4.3709567898628207e-17
10
-0.57127603420902984
20
0.18567328681920517
30
4.3709567898628207e-17
10
-0.57313832336532355
20
0.18538479564802635
30
4.3709567898628207e-17
10
-0.57500211377074684
20
0.18508282670385237
30
4.3709567898628207e-17
10
-0.5768672357300394
20
0.18476747908873603
30
4.3709567898628207e-17
10
-0.57873359133257718
20
0.18443887111588761
30
4.3709567898628207e-17
10
-0.58060113263196234
20
0.18409712892341545
30
4.3709567898628207e-17
10
-0.58246984584455808
20
0.18374237749523553
30
4.3709567898628207e-17
10
-0.58433973348166912
20
0.18337473112199104
30
4.3709567898628207e-17
10
-0.58621079632852091
20
0.1829942838231127
30
4.3709567898628207e-17
10
-0.58808303307973475
20
0.18260110850903008
30
4.3709567898628207e-17
10
-0.58958176000841955
20
0.18227642740197325
30
4.3709567898628207e-17
10
-0.59070633168107711
20
0.18202722626928561
30
4.3709567898628207e-17
10
-0.59145627999481909
20
0.18185856451925772
30
4.3709567898628207e-17
10
-0.59183131261791333
20
0.18177360172878065
30
4.3709567898628207e-17
0
ARC
5
200
100
AcDbEntity
8
0
100
AcDbCircle
10
-2.3783209377225278e-06
20
-3.4989093520825483e-05
30
4.3709567898628207e-17
40
0.6191250690836908
210
0
220
0
230
1
100
AcDbArc
50
162.92315347905779
51
166.07684574877067
0
SPLINE
5
201
100
AcDbEntity
8
0
100
AcDbSpline
70
4
71
5
72
66
73
60
74
0
42
0.000000001
43
0.0000000001
44
0.0000000001
40
-1
40
-1
40
-1
40
-1
40
-1
40
-1
40
-0.98181818181818203
40
-0.96363636363636385
40
-0.94545454545454566
40
-0.92727272727272747
40
-0.90909090909090928
40
-0.89090909090909109
40
-0.87272727272727291
40
-0.85454545454545472
40
-0.83636363636363653
40
-0.81818181818181834
40
-0.80000000000000016
40
-0.78181818181818197
40
-0.76363636363636378
40
-0.74545454545454559
40
-0.7272727272727274
40
-0.70909090909090922
40
-0.69090909090909103
40
-0.67272727272727284
40
-0.65454545454545465
40
-0.63636363636363646
40
-0.61818181818181828
40
-0.60000000000000009
40
-0.5818181818181819
40
-0.56363636363636371
40
-0.54545454545454553
40
-0.52727272727272734
40
-0.50909090909090915
40
-0.49090909090909102
40
-0.47272727272727283
40
-0.45454545454545464
40
-0.43636363636363645
40
-0.41818181818181827
40
-0.40000000000000008
40
-0.38181818181818189
40
-0.3636363636363637
40
-0.34545454545454551
40
-0.32727272727272733
40
-0.30909090909090914
40
-0.29090909090909095
40
-0.27272727272727276
40
-0.25454545454545457
40
-0.23636363636363641
40
-0.21818181818181823
40
-0.20000000000000004
40
-0.18181818181818185
40
-0.16363636363636366
40
-0.14545454545454548
40
-0.12727272727272729
40
-0.1090909090909091
40
-0.090909090909090912
40
-0.072727272727272724
40
-0.054545454545454543
40
-0.036363636363636362
40
-0.018181818181818181
40
0
40
0
40
0
40
0
40
0
40
0
41
1
41
1
41
1
41
1
41
1
41
1
41
1
41
1
41
1
41
1
41
1
41
1
41
1
41
1
41
1
41
1
41
1
41
1
41
1
41
1
41
1
41
1
41
1
41
1
41
1
41
1
41
1
41
1
41
1
41
1
41
1
41
1
41
1
41
1
41
1
41
1
41
1
41
1
41
1
41
1
41
1
41
1
41
1
41
1
41
1
41
1
41
1
41
1
41
1
41
1
41
1
41
1
41
1
41
1
41
1
41
1
41
1
41
1
41
1
41
1
10
-0.60093713302119856
20
0.14893907496201261
30
4.3709567898628207e-17
10
-0.60065942639559033
20
0.1486730915522598
30
4.3709567898628207e-17
10
-0.60010346245398827
20
0.14814226827195515
30
4.3709567898628207e-17
10
-0.59926786447117564
20
0.14734946396905552
30
4.3709567898628207e-17
10
-0.59815042790170037
20
0.14629925649369918
30
4.3709567898628207e-17
10
-0.59674810805382217
20
0.14499796624001587
30
4.3709567898628207e-17
10
-0.59534023902580013
20
0.14370819063014609
30
4.3709567898628207e-17
10
-0.59392678438488455
20
0.14242999283283472
30
4.3709567898628207e-17
10
-0.59250769503440215
20
0.1411634530340351
30
4.3709567898628207e-17
10
-0.59108290995770452
20
0.13990866790652881
30
4.3709567898628207e-17
10
-0.58965237659820158
20
0.13866575168154069
30
4.3709567898628207e-17
10
-0.58821607108805818
20
0.13743483717475663
30
4.3709567898628207e-17
10
-0.58677401641725868
20
0.13621607622809526
30
4.3709567898628207e-17
10
-0.58532630700171007
20
0.13500964118812067
30
4.3709567898628207e-17
10
-0.58387311491297256
20
0.13381572285338844
30
4.3709567898628207e-17
10
-0.58241461956061535
20
0.13263451479439911
30
4.3709567898628207e-17
10
-0.5809509435365503
20
0.13146619813390079
30
4.3709567898628207e-17
10
-0.57948209570519138
20
0.13031092849021428
30
4.3709567898628207e-17
10
-0.57800788825125304
20
0.12916881553322776
30
4.3709567898628207e-17
10
-0.57652793888430431
20
0.12803992541721265
30
4.3709567898628207e-17
10
-0.5750418499920994
20
0.1269243307082642
30
4.3709567898628207e-17
10
-0.57354936595240369
20
0.12582215432261665
30
4.3709567898628207e-17
10
-0.57205050909536181
20
0.12473360733792342
30
4.3709567898628207e-17
10
-0.5705457990168834
20
0.12365904953798711
30
4.3709567898628207e-17
10
-0.56903616167207138
20
0.12259896459109437
30
4.3709567898628207e-17
10
-0.56752250236008561
20
0.12155384294389314
30
4.3709567898628207e-17
10
-0.56600533253622798
20
0.12052407901161365
30
4.3709567898628207e-17
10
-0.56448444841909029
20
0.11950988301840276
30
4.3709567898628207e-17
10
-0.56295840090310656
20
0.11851113378678017
30
4.3709567898628207e-17
10
-0.5614249487094386
20
0.11752750816036482
30
4.3709567898628207e-17
10
-0.5598820369645594
20
0.11655875821513451
30
4.3709567898628207e-17
10
-0.55832866523923863
20
0.11560495697149674
30
4.3709567898628207e-17
10
-0.5567656884409371
20
0.11466672544238257
30
4.3709567898628207e-17
10
-0.55519695054500506
20
0.11374555203775723
30
4.3709567898628207e-17
10
-0.55362765596765195
20
0.11284334294154702
30
4.3709567898628207e-17
10
-0.55206215870014497
20
0.1119618102349379
30
4.3709567898628207e-17
10
-0.55050198828502117
20
0.11110192572181248
30
4.3709567898628207e-17
10
-0.54894369025539336
20
0.11026332299219463
30
4.3709567898628207e-17
10
-0.54737695292751287
20
0.10944377891009194
30
4.3709567898628207e-17
10
-0.54578947028087188
20
0.1086405932202133
30
4.3709567898628207e-17
10
-0.54417190457734799
20
0.10785199119659052
30
4.3709567898628207e-17
10
-0.54252225419769506
20
0.10707837002612736
30
4.3709567898628207e-17
10
-0.54085180291941837
20
0.10632396319699373
30
4.3709567898628207e-17
10
-0.53918630526105893
20
0.10559724399868836
30
4.3709567898628207e-17
10
-0.53755363438131176
20
0.10490773097129946
30
4.3709567898628207e-17
10
-0.53597320238150248
20
0.10426327889347449
30
4.3709567898628207e-17
10
-0.53444598462293536
20
0.10366749598310948
30
4.3709567898628207e-17
10
-0.53294104538530274
20
0.10311631810009284
30
4.3709567898628207e-17
10
-0.5313963173750762
20
0.10259805037459316
30
4.3709567898628207e-17
10
-0.52973296194079111
20
0.10209672134907956
30
4.3709567898628207e-17
10
-0.52786625494236883
20
0.10159458275031888
30
4.3709567898628207e-17
10
-0.52571719907619985
20
0.10107480013379794
30
4.3709567898628207e-17
10
-0.52322557911892476
20
0.10052445579628098
30
4.3709567898628207e-17
10
-0.52034958926860608
20
0.099934525674187868
30
4.3709567898628207e-17
10
-0.51706180452040462
20
0.099299027951269159
30
4.3709567898628207e-17
10
-0.51334644360533987
20
0.098614463110167763
30
4.3709567898628207e-17
10
-0.51002618911137787
20
0.098026203345061694
30
4.3709567898628207e-17
10
-0.50733937879234559
20
0.097561938956393604
30
4.3709567898628207e-17
10
-0.50546083187498192
20
0.097242181596438715
30
4.3709567898628207e-17
10
-0.50449972344322958
20
0.097079740982914456
30
4.3709567898628207e-17
0
CIRCLE
5
202
100
AcDbEntity
8
0
100
AcDbCircle
10
-2.3783209377225278e-06
20
-3.4989093520825483e-05
30
4.3709567898628207e-17
40
0.099999999999999992
210
0
220
0
230
1
0
ENDSEC
0
SECTION
2
OBJECTS
0
DICTIONARY
5
C
100
AcDbDictionary
3
ACAD_GROUP
350
D
3
ACAD_MLINESTYLE
350
17
0
DICTIONARY
5
D
100
AcDbDictionary
0
DICTIONARY
5
1A
330
C
100
AcDbDictionary
0
DICTIONARY
5
17
100
AcDbDictionary
0
ENDSEC
0
EOF
