  0
SECTION
  2
HEADER
  9
$ACADVER
  1
AC1009
  0
ENDSEC
  0
SECTION
  2
ENTITIES
  0
POLYLINE
  5
90
  8
Layer_1
  62
0
  70
1
  66
1
  10
0
  20
0
  30
0
  0
VERTEX
  5
90
  8
Layer_1
  10
88.220619
  20
581.48352
  0
VERTEX
  5
91
  8
Layer_1
  10
88.268448
  20
581.36798
  0
VERTEX
  5
92
  8
Layer_1
  10
88.309799
  20
581.24988
  0
VERTEX
  5
93
  8
Layer_1
  10
88.344559
  20
581.12939
  0
VERTEX
  5
94
  8
Layer_1
  10
88.37262
  20
581.00708
  0
VERTEX
  5
95
  8
Layer_1
  10
88.393753
  20
580.88354
  0
VERTEX
  5
96
  8
Layer_1
  10
88.407982
  20
580.75922
  0
VERTEX
  5
97
  8
Layer_1
  10
88.415253
  20
580.6344
  0
VERTEX
  5
98
  8
Layer_1
  10
88.415573
  20
580.50934
  0
VERTEX
  5
99
  8
Layer_1
  10
88.408936
  20
580.38434
  0
VERTEX
  5
9a
  8
Layer_1
  10
88.395355
  20
580.25977
  0
VERTEX
  5
9b
  8
Layer_1
  10
88.374786
  20
580.13593
  0
VERTEX
  5
9c
  8
Layer_1
  10
88.347427
  20
580.01361
  0
VERTEX
  5
9d
  8
Layer_1
  10
88.313347
  20
579.89325
  0
VERTEX
  5
9e
  8
Layer_1
  10
88.272652
  20
579.77502
  0
VERTEX
  5
9f
  8
Layer_1
  10
88.225456
  20
579.65918
  0
VERTEX
  5
a0
  8
Layer_1
  10
88.171844
  20
579.54608
  0
VERTEX
  5
a1
  8
Layer_1
  10
88.082672
  20
578.8252
  0
VERTEX
  5
a2
  8
Layer_1
  10
87.94854
  20
578.11127
  0
VERTEX
  5
a3
  8
Layer_1
  10
87.814552
  20
577.56702
  0
VERTEX
  5
a4
  8
Layer_1
  10
87.654762
  20
577.03088
  0
VERTEX
  5
a5
  8
Layer_1
  10
87.469543
  20
576.5036
  0
VERTEX
  5
a6
  8
Layer_1
  10
87.259277
  20
575.98615
  0
VERTEX
  5
a7
  8
Layer_1
  10
87.024361
  20
575.47943
  0
VERTEX
  5
a8
  8
Layer_1
  10
86.765175
  20
574.98431
  0
VERTEX
  5
a9
  8
Layer_1
  10
86.482101
  20
574.50177
  0
VERTEX
  5
aa
  8
Layer_1
  10
86.175537
  20
574.03253
  0
VERTEX
  5
ab
  8
Layer_1
  10
85.75251
  20
573.45654
  0
VERTEX
  5
ac
  8
Layer_1
  10
85.29464
  20
572.90778
  0
VERTEX
  5
ad
  8
Layer_1
  10
85.256584
  20
572.81134
  0
VERTEX
  5
ae
  8
Layer_1
  10
85.214127
  20
572.7168
  0
VERTEX
  5
af
  8
Layer_1
  10
85.167442
  20
572.62445
  0
VERTEX
  5
b0
  8
Layer_1
  10
85.116646
  20
572.53442
  0
VERTEX
  5
b1
  8
Layer_1
  10
85.06179
  20
572.4469
  0
VERTEX
  5
b2
  8
Layer_1
  10
85.002983
  20
572.362
  0
VERTEX
  5
b3
  8
Layer_1
  10
84.940308
  20
572.27985
  0
VERTEX
  5
b4
  8
Layer_1
  10
84.873848
  20
572.20056
  0
VERTEX
  5
b5
  8
Layer_1
  10
84.803757
  20
572.12433
  0
VERTEX
  5
b6
  8
Layer_1
  10
84.730118
  20
572.05127
  0
VERTEX
  5
b7
  8
Layer_1
  10
84.653305
  20
571.98181
  0
VERTEX
  5
b8
  8
Layer_1
  10
84.573509
  20
571.91608
  0
VERTEX
  5
b9
  8
Layer_1
  10
84.49086
  20
571.85406
  0
VERTEX
  5
ba
  8
Layer_1
  10
84.405487
  20
571.79596
  0
VERTEX
  5
bb
  8
Layer_1
  10
84.317482
  20
571.74182
  0
VERTEX
  5
bc
  8
Layer_1
  10
84.227066
  20
571.69171
  0
VERTEX
  5
bd
  8
Layer_1
  10
84.134315
  20
571.64581
  0
VERTEX
  5
be
  8
Layer_1
  10
84.039391
  20
571.60406
  0
VERTEX
  5
bf
  8
Layer_1
  10
83.942688
  20
571.56683
  0
VERTEX
  5
c0
  8
Layer_1
  10
83.844528
  20
571.53406
  0
VERTEX
  5
c1
  8
Layer_1
  10
83.25058
  20
571.09167
  0
VERTEX
  5
c2
  8
Layer_1
  10
82.629593
  20
570.68811
  0
VERTEX
  5
c3
  8
Layer_1
  10
82.14325
  20
570.40955
  0
VERTEX
  5
c4
  8
Layer_1
  10
81.644897
  20
570.15521
  0
VERTEX
  5
c5
  8
Layer_1
  10
81.135452
  20
569.92548
  0
VERTEX
  5
c6
  8
Layer_1
  10
80.615845
  20
569.7207
  0
VERTEX
  5
c7
  8
Layer_1
  10
80.086983
  20
569.54108
  0
VERTEX
  5
c8
  8
Layer_1
  10
79.549782
  20
569.38708
  0
VERTEX
  5
c9
  8
Layer_1
  10
79.005157
  20
569.25903
  0
VERTEX
  5
ca
  8
Layer_1
  10
78.45401
  20
569.15723
  0
VERTEX
  5
cb
  8
Layer_1
  10
77.732315
  20
569.06494
  0
VERTEX
  5
cc
  8
Layer_1
  10
77.006271
  20
569.01813
  0
VERTEX
  5
cd
  8
Layer_1
  10
76.889709
  20
568.97363
  0
VERTEX
  5
ce
  8
Layer_1
  10
76.770676
  20
568.93555
  0
VERTEX
  5
cf
  8
Layer_1
  10
76.649506
  20
568.90411
  0
VERTEX
  5
d0
  8
Layer_1
  10
76.526955
  20
568.87946
  0
VERTEX
  5
d1
  8
Layer_1
  10
76.403442
  20
568.86163
  0
VERTEX
  5
d2
  8
Layer_1
  10
76.279205
  20
568.85071
  0
VERTEX
  5
d3
  8
Layer_1
  10
76.154572
  20
568.84662
  0
VERTEX
  5
d4
  8
Layer_1
  10
76.029808
  20
568.84949
  0
VERTEX
  5
d5
  8
Layer_1
  10
75.905235
  20
568.85925
  0
VERTEX
  5
d6
  8
Layer_1
  10
75.781181
  20
568.87592
  0
VERTEX
  5
d7
  8
Layer_1
  10
75.658371
  20
568.89941
  0
VERTEX
  5
d8
  8
Layer_1
  10
75.537292
  20
568.92963
  0
VERTEX
  5
d9
  8
Layer_1
  10
75.418152
  20
568.96643
  0
VERTEX
  5
da
  8
Layer_1
  10
75.301239
  20
569.00983
  0
VERTEX
  5
db
  8
Layer_1
  10
75.186821
  20
569.05963
  0
VERTEX
  5
dc
  8
Layer_1
  10
75.075165
  20
569.11572
  0
VERTEX
  5
dd
  8
Layer_1
  10
74.325966
  20
569.24182
  0
VERTEX
  5
de
  8
Layer_1
  10
73.586632
  20
569.41669
  0
VERTEX
  5
df
  8
Layer_1
  10
73.110863
  20
569.5567
  0
VERTEX
  5
e0
  8
Layer_1
  10
72.641739
  20
569.71692
  0
VERTEX
  5
e1
  8
Layer_1
  10
72.179901
  20
569.89703
  0
VERTEX
  5
e2
  8
Layer_1
  10
71.725975
  20
570.0968
  0
VERTEX
  5
e3
  8
Layer_1
  10
71.496971
  20
570.20673
  0
VERTEX
  5
e4
  8
Layer_1
  10
71.270378
  20
570.32153
  0
VERTEX
  5
e5
  8
Layer_1
  10
70.835388
  20
570.55975
  0
VERTEX
  5
e6
  8
Layer_1
  10
70.411194
  20
570.81628
  0
VERTEX
  5
e7
  8
Layer_1
  10
69.998367
  20
571.0907
  0
VERTEX
  5
e8
  8
Layer_1
  10
69.597473
  20
571.38269
  0
VERTEX
  5
e9
  8
Layer_1
  10
69.016129
  20
571.85608
  0
VERTEX
  5
ea
  8
Layer_1
  10
68.466499
  20
572.36603
  0
VERTEX
  5
eb
  8
Layer_1
  10
68.359215
  20
572.41937
  0
VERTEX
  5
ec
  8
Layer_1
  10
68.254936
  20
572.47827
  0
VERTEX
  5
ed
  8
Layer_1
  10
68.153931
  20
572.54272
  0
VERTEX
  5
ee
  8
Layer_1
  10
68.056412
  20
572.61243
  0
VERTEX
  5
ef
  8
Layer_1
  10
67.96257
  20
572.68738
  0
VERTEX
  5
f0
  8
Layer_1
  10
67.872749
  20
572.76733
  0
VERTEX
  5
f1
  8
Layer_1
  10
67.78746
  20
572.85181
  0
VERTEX
  5
f2
  8
Layer_1
  10
67.706924
  20
572.94055
  0
VERTEX
  5
f3
  8
Layer_1
  10
67.631264
  20
573.03345
  0
VERTEX
  5
f4
  8
Layer_1
  10
67.560646
  20
573.13019
  0
VERTEX
  5
f5
  8
Layer_1
  10
67.495216
  20
573.23059
  0
VERTEX
  5
f6
  8
Layer_1
  10
67.435158
  20
573.33453
  0
VERTEX
  5
f7
  8
Layer_1
  10
67.38063
  20
573.44171
  0
VERTEX
  5
f8
  8
Layer_1
  10
67.33194
  20
573.55151
  0
VERTEX
  5
f9
  8
Layer_1
  10
67.289268
  20
573.66351
  0
VERTEX
  5
fa
  8
Layer_1
  10
67.25264
  20
573.77759
  0
VERTEX
  5
fb
  8
Layer_1
  10
66.818085
  20
574.41754
  0
VERTEX
  5
fc
  8
Layer_1
  10
66.42717
  20
575.08502
  0
VERTEX
  5
fd
  8
Layer_1
  10
66.202866
  20
575.52045
  0
VERTEX
  5
fe
  8
Layer_1
  10
65.99733
  20
575.96472
  0
VERTEX
  5
ff
  8
Layer_1
  10
65.810776
  20
576.41736
  0
VERTEX
  5
100
  8
Layer_1
  10
65.643433
  20
576.87769
  0
VERTEX
  5
101
  8
Layer_1
  10
65.485985
  20
577.36066
  0
VERTEX
  5
102
  8
Layer_1
  10
65.36087
  20
577.83698
  0
VERTEX
  5
103
  8
Layer_1
  10
65.254822
  20
578.31769
  0
VERTEX
  5
104
  8
Layer_1
  10
65.168373
  20
578.80225
  0
VERTEX
  5
105
  8
Layer_1
  10
65.102104
  20
579.2901
  0
VERTEX
  5
106
  8
Layer_1
  10
65.046021
  20
579.94824
  0
VERTEX
  5
107
  8
Layer_1
  10
65.027245
  20
580.60852
  0
VERTEX
  5
108
  8
Layer_1
  10
65.027245
  20
580.73376
  0
VERTEX
  5
109
  8
Layer_1
  10
64.990326
  20
580.83344
  0
VERTEX
  5
10a
  8
Layer_1
  10
64.958115
  20
580.93488
  0
VERTEX
  5
10b
  8
Layer_1
  10
64.930687
  20
581.03796
  0
VERTEX
  5
10c
  8
Layer_1
  10
64.90818
  20
581.14209
  0
VERTEX
  5
10d
  8
Layer_1
  10
64.890678
  20
581.24701
  0
VERTEX
  5
10e
  8
Layer_1
  10
64.878159
  20
581.35254
  0
VERTEX
  5
10f
  8
Layer_1
  10
64.870621
  20
581.4585
  0
VERTEX
  5
110
  8
Layer_1
  10
64.868103
  20
581.5647
  0
VERTEX
  5
111
  8
Layer_1
  10
64.870598
  20
581.67096
  0
VERTEX
  5
112
  8
Layer_1
  10
64.878136
  20
581.77716
  0
VERTEX
  5
113
  8
Layer_1
  10
64.890724
  20
581.883
  0
VERTEX
  5
114
  8
Layer_1
  10
64.90831
  20
581.9881
  0
VERTEX
  5
115
  8
Layer_1
  10
64.930809
  20
582.09216
  0
VERTEX
  5
116
  8
Layer_1
  10
64.958183
  20
582.19482
  0
VERTEX
  5
117
  8
Layer_1
  10
64.990341
  20
582.29608
  0
VERTEX
  5
118
  8
Layer_1
  10
65.027245
  20
582.39569
  0
VERTEX
  5
119
  8
Layer_1
  10
65.026909
  20
586.54254
  0
VERTEX
  5
11a
  8
Layer_1
  10
61.789093
  20
586.54254
  0
VERTEX
  5
11b
  8
Layer_1
  10
61.789101
  20
574.48676
  0
VERTEX
  5
11c
  8
Layer_1
  10
61.828003
  20
573.66956
  0
VERTEX
  5
11d
  8
Layer_1
  10
61.942421
  20
572.87329
  0
VERTEX
  5
11e
  8
Layer_1
  10
62.128918
  20
572.10162
  0
VERTEX
  5
11f
  8
Layer_1
  10
62.384056
  20
571.35834
  0
VERTEX
  5
120
  8
Layer_1
  10
62.704391
  20
570.64722
  0
VERTEX
  5
121
  8
Layer_1
  10
63.086498
  20
569.97198
  0
VERTEX
  5
122
  8
Layer_1
  10
63.526924
  20
569.33643
  0
VERTEX
  5
123
  8
Layer_1
  10
64.022247
  20
568.7442
  0
VERTEX
  5
124
  8
Layer_1
  10
64.569016
  20
568.19916
  0
VERTEX
  5
125
  8
Layer_1
  10
65.163803
  20
567.70502
  0
VERTEX
  5
126
  8
Layer_1
  10
65.803162
  20
567.26556
  0
VERTEX
  5
127
  8
Layer_1
  10
66.483658
  20
566.88446
  0
VERTEX
  5
128
  8
Layer_1
  10
67.201859
  20
566.56549
  0
VERTEX
  5
129
  8
Layer_1
  10
67.954315
  20
566.31244
  0
VERTEX
  5
12a
  8
Layer_1
  10
68.73761
  20
566.12909
  0
VERTEX
  5
12b
  8
Layer_1
  10
69.548279
  20
566.0191
  0
VERTEX
  5
12c
  8
Layer_1
  10
86.158257
  20
564.56592
  0
VERTEX
  5
12d
  8
Layer_1
  10
86.193993
  20
564.56403
  0
VERTEX
  5
12e
  8
Layer_1
  10
86.265427
  20
564.56787
  0
VERTEX
  5
12f
  8
Layer_1
  10
86.335609
  20
564.58167
  0
VERTEX
  5
130
  8
Layer_1
  10
86.403122
  20
564.60516
  0
VERTEX
  5
131
  8
Layer_1
  10
86.466507
  20
564.63782
  0
VERTEX
  5
132
  8
Layer_1
  10
86.524719
  20
564.67908
  0
VERTEX
  5
133
  8
Layer_1
  10
86.576668
  20
564.72815
  0
VERTEX
  5
134
  8
Layer_1
  10
86.621124
  20
564.78381
  0
VERTEX
  5
135
  8
Layer_1
  10
86.65741
  20
564.84534
  0
VERTEX
  5
136
  8
Layer_1
  10
86.684708
  20
564.91132
  0
VERTEX
  5
137
  8
Layer_1
  10
86.702438
  20
564.98035
  0
VERTEX
  5
138
  8
Layer_1
  10
86.710365
  20
565.05133
  0
VERTEX
  5
139
  8
Layer_1
  10
86.708221
  20
565.12268
  0
VERTEX
  5
13a
  8
Layer_1
  10
86.696144
  20
565.19293
  0
VERTEX
  5
13b
  8
Layer_1
  10
86.66082
  20
565.31091
  0
VERTEX
  5
13c
  8
Layer_1
  10
86.637543
  20
565.39594
  0
VERTEX
  5
13d
  8
Layer_1
  10
86.6166
  20
565.48212
  0
VERTEX
  5
13e
  8
Layer_1
  10
86.598007
  20
565.56921
  0
VERTEX
  5
13f
  8
Layer_1
  10
86.581772
  20
565.65686
  0
VERTEX
  5
140
  8
Layer_1
  10
86.567894
  20
565.74463
  0
VERTEX
  5
141
  8
Layer_1
  10
86.556396
  20
565.83228
  0
VERTEX
  5
142
  8
Layer_1
  10
86.547256
  20
565.91931
  0
VERTEX
  5
143
  8
Layer_1
  10
86.540543
  20
566.00549
  0
VERTEX
  5
144
  8
Layer_1
  10
86.536201
  20
566.09039
  0
VERTEX
  5
145
  8
Layer_1
  10
86.534264
  20
566.17365
  0
VERTEX
  5
146
  8
Layer_1
  10
86.534798
  20
566.25598
  0
VERTEX
  5
147
  8
Layer_1
  10
86.537949
  20
566.33984
  0
VERTEX
  5
148
  8
Layer_1
  10
86.543602
  20
566.42517
  0
VERTEX
  5
149
  8
Layer_1
  10
86.551781
  20
566.5116
  0
VERTEX
  5
14a
  8
Layer_1
  10
86.562355
  20
566.59875
  0
VERTEX
  5
14b
  8
Layer_1
  10
86.575256
  20
566.68634
  0
VERTEX
  5
14c
  8
Layer_1
  10
86.590462
  20
566.77399
  0
VERTEX
  5
14d
  8
Layer_1
  10
86.607864
  20
566.86139
  0
VERTEX
  5
14e
  8
Layer_1
  10
86.627403
  20
566.94818
  0
VERTEX
  5
14f
  8
Layer_1
  10
86.649033
  20
567.034
  0
VERTEX
  5
150
  8
Layer_1
  10
86.672653
  20
567.11853
  0
VERTEX
  5
151
  8
Layer_1
  10
86.698196
  20
567.20148
  0
VERTEX
  5
152
  8
Layer_1
  10
86.725647
  20
567.28247
  0
VERTEX
  5
153
  8
Layer_1
  10
86.754883
  20
567.36108
  0
VERTEX
  5
154
  8
Layer_1
  10
86.785942
  20
567.43732
  0
VERTEX
  5
155
  8
Layer_1
  10
86.819778
  20
567.51343
  0
VERTEX
  5
156
  8
Layer_1
  10
86.856613
  20
567.58997
  0
VERTEX
  5
157
  8
Layer_1
  10
86.896225
  20
567.66669
  0
VERTEX
  5
158
  8
Layer_1
  10
86.938416
  20
567.74329
  0
VERTEX
  5
159
  8
Layer_1
  10
86.982994
  20
567.81946
  0
VERTEX
  5
15a
  8
Layer_1
  10
87.029793
  20
567.89496
  0
VERTEX
  5
15b
  8
Layer_1
  10
87.078621
  20
567.96948
  0
VERTEX
  5
15c
  8
Layer_1
  10
87.129234
  20
568.04279
  0
VERTEX
  5
15d
  8
Layer_1
  10
87.181488
  20
568.1145
  0
VERTEX
  5
15e
  8
Layer_1
  10
87.235184
  20
568.18433
  0
VERTEX
  5
15f
  8
Layer_1
  10
87.290115
  20
568.25208
  0
VERTEX
  5
160
  8
Layer_1
  10
87.346107
  20
568.31738
  0
VERTEX
  5
161
  8
Layer_1
  10
87.402939
  20
568.37994
  0
VERTEX
  5
162
  8
Layer_1
  10
87.460449
  20
568.43958
  0
VERTEX
  5
163
  8
Layer_1
  10
87.519661
  20
568.49713
  0
VERTEX
  5
164
  8
Layer_1
  10
87.581879
  20
568.55408
  0
VERTEX
  5
165
  8
Layer_1
  10
87.646851
  20
568.61011
  0
VERTEX
  5
166
  8
Layer_1
  10
87.714302
  20
568.66522
  0
VERTEX
  5
167
  8
Layer_1
  10
87.783897
  20
568.71906
  0
VERTEX
  5
168
  8
Layer_1
  10
87.855362
  20
568.77148
  0
VERTEX
  5
169
  8
Layer_1
  10
87.928467
  20
568.82233
  0
VERTEX
  5
16a
  8
Layer_1
  10
88.002838
  20
568.8714
  0
VERTEX
  5
16b
  8
Layer_1
  10
88.078255
  20
568.91846
  0
VERTEX
  5
16c
  8
Layer_1
  10
88.154373
  20
568.96332
  0
VERTEX
  5
16d
  8
Layer_1
  10
88.230957
  20
569.00586
  0
VERTEX
  5
16e
  8
Layer_1
  10
88.307678
  20
569.04578
  0
VERTEX
  5
16f
  8
Layer_1
  10
88.384277
  20
569.08301
  0
VERTEX
  5
170
  8
Layer_1
  10
88.460457
  20
569.11725
  0
VERTEX
  5
171
  8
Layer_1
  10
88.536453
  20
569.14868
  0
VERTEX
  5
172
  8
Layer_1
  10
88.61467
  20
569.17853
  0
VERTEX
  5
173
  8
Layer_1
  10
88.695206
  20
569.20691
  0
VERTEX
  5
174
  8
Layer_1
  10
88.777695
  20
569.23346
  0
VERTEX
  5
175
  8
Layer_1
  10
88.861862
  20
569.25806
  0
VERTEX
  5
176
  8
Layer_1
  10
88.947403
  20
569.28058
  0
VERTEX
  5
177
  8
Layer_1
  10
88.947403
  20
572.54846
  0
VERTEX
  5
178
  8
Layer_1
  10
90.471405
  20
572.54846
  0
VERTEX
  5
179
  8
Layer_1
  10
90.471405
  20
569.28107
  0
VERTEX
  5
17a
  8
Layer_1
  10
90.628624
  20
569.23792
  0
VERTEX
  5
17b
  8
Layer_1
  10
90.780281
  20
569.18799
  0
VERTEX
  5
17c
  8
Layer_1
  10
90.924461
  20
569.13251
  0
VERTEX
  5
17d
  8
Layer_1
  10
91.065231
  20
569.06946
  0
VERTEX
  5
17e
  8
Layer_1
  10
91.207069
  20
568.99664
  0
VERTEX
  5
17f
  8
Layer_1
  10
91.348198
  20
568.91516
  0
VERTEX
  5
180
  8
Layer_1
  10
91.486725
  20
568.82623
  0
VERTEX
  5
181
  8
Layer_1
  10
91.620865
  20
568.7312
  0
VERTEX
  5
182
  8
Layer_1
  10
91.748779
  20
568.63116
  0
VERTEX
  5
183
  8
Layer_1
  10
91.868698
  20
568.5274
  0
VERTEX
  5
184
  8
Layer_1
  10
91.978943
  20
568.42084
  0
VERTEX
  5
185
  8
Layer_1
  10
92.084373
  20
568.30652
  0
VERTEX
  5
186
  8
Layer_1
  10
92.18679
  20
568.18304
  0
VERTEX
  5
187
  8
Layer_1
  10
92.284912
  20
568.05231
  0
VERTEX
  5
188
  8
Layer_1
  10
92.377563
  20
567.91614
  0
VERTEX
  5
189
  8
Layer_1
  10
92.463501
  20
567.77637
  0
VERTEX
  5
18a
  8
Layer_1
  10
92.541557
  20
567.6347
  0
VERTEX
  5
18b
  8
Layer_1
  10
92.610466
  20
567.4931
  0
VERTEX
  5
18c
  8
Layer_1
  10
92.66951
  20
567.35217
  0
VERTEX
  5
18d
  8
Layer_1
  10
92.721794
  20
567.20435
  0
VERTEX
  5
18e
  8
Layer_1
  10
92.76767
  20
567.0498
  0
VERTEX
  5
18f
  8
Layer_1
  10
92.806732
  20
566.89063
  0
VERTEX
  5
190
  8
Layer_1
  10
92.838539
  20
566.72894
  0
VERTEX
  5
191
  8
Layer_1
  10
92.862686
  20
566.56702
  0
VERTEX
  5
192
  8
Layer_1
  10
92.878738
  20
566.40692
  0
VERTEX
  5
193
  8
Layer_1
  10
92.88623
  20
566.25079
  0
VERTEX
  5
194
  8
Layer_1
  10
92.884819
  20
566.09784
  0
VERTEX
  5
195
  8
Layer_1
  10
92.874596
  20
565.94025
  0
VERTEX
  5
196
  8
Layer_1
  10
92.855965
  20
565.77936
  0
VERTEX
  5
197
  8
Layer_1
  10
92.829361
  20
565.61725
  0
VERTEX
  5
198
  8
Layer_1
  10
92.795235
  20
565.45618
  0
VERTEX
  5
199
  8
Layer_1
  10
92.75399
  20
565.29822
  0
VERTEX
  5
19a
  8
Layer_1
  10
92.706055
  20
565.14551
  0
VERTEX
  5
19b
  8
Layer_1
  10
92.651878
  20
565.00024
  0
VERTEX
  5
19c
  8
Layer_1
  10
92.590393
  20
564.85931
  0
VERTEX
  5
19d
  8
Layer_1
  10
92.504211
  20
564.68481
  0
VERTEX
  5
19e
  8
Layer_1
  10
92.480034
  20
564.61749
  0
VERTEX
  5
19f
  8
Layer_1
  10
92.465569
  20
564.54749
  0
VERTEX
  5
1a0
  8
Layer_1
  10
92.46109
  20
564.47607
  0
VERTEX
  5
1a1
  8
Layer_1
  10
92.466629
  20
564.40503
  0
VERTEX
  5
1a2
  8
Layer_1
  10
92.482094
  20
564.33539
  0
VERTEX
  5
1a3
  8
Layer_1
  10
92.507217
  20
564.26849
  0
VERTEX
  5
1a4
  8
Layer_1
  10
92.541374
  20
564.20593
  0
VERTEX
  5
1a5
  8
Layer_1
  10
92.584045
  20
564.14862
  0
VERTEX
  5
1a6
  8
Layer_1
  10
92.634285
  20
564.09796
  0
VERTEX
  5
1a7
  8
Layer_1
  10
92.691055
  20
564.05487
  0
VERTEX
  5
1a8
  8
Layer_1
  10
92.753471
  20
564.02002
  0
VERTEX
  5
1a9
  8
Layer_1
  10
92.82003
  20
563.99438
  0
VERTEX
  5
1aa
  8
Layer_1
  10
92.889473
  20
563.97827
  0
VERTEX
  5
1ab
  8
Layer_1
  10
94.210938
  20
563.86139
  0
VERTEX
  5
1ac
  8
Layer_1
  10
94.210938
  20
579.09888
  0
VERTEX
  5
1ad
  8
Layer_1
  10
94.182091
  20
579.7641
  0
VERTEX
  5
1ae
  8
Layer_1
  10
94.097
  20
580.41528
  0
VERTEX
  5
1af
  8
Layer_1
  10
93.95784
  20
581.04974
  0
VERTEX
  5
1b0
  8
Layer_1
  10
93.7668
  20
581.66473
  0
VERTEX
  5
1b1
  8
Layer_1
  10
93.526047
  20
582.25763
  0
VERTEX
  5
1b2
  8
Layer_1
  10
93.237778
  20
582.82562
  0
VERTEX
  5
1b3
  8
Layer_1
  10
92.904152
  20
583.36603
  0
VERTEX
  5
1b4
  8
Layer_1
  10
92.527374
  20
583.87622
  0
VERTEX
  5
1b5
  8
Layer_1
  10
92.109604
  20
584.35339
  0
VERTEX
  5
1b6
  8
Layer_1
  10
91.653023
  20
584.79486
  0
VERTEX
  5
1b7
  8
Layer_1
  10
91.159813
  20
585.19794
  0
VERTEX
  5
1b8
  8
Layer_1
  10
90.632156
  20
585.55994
  0
VERTEX
  5
1b9
  8
Layer_1
  10
90.072227
  20
585.87805
  0
VERTEX
  5
1ba
  8
Layer_1
  10
89.482208
  20
586.14972
  0
VERTEX
  5
1bb
  8
Layer_1
  10
88.864281
  20
586.37207
  0
VERTEX
  5
1bc
  8
Layer_1
  10
88.220619
  20
586.54254
  0
VERTEX
  5
1bd
  8
Layer_1
  10
88.220619
  20
581.48352
  0
SEQEND
  0
POLYLINE
  5
1bf
  8
Layer_0
  62
1
  70
1
  66
1
  10
0
  20
0
  30
0
  0
VERTEX
  5
1bf
  8
Layer_0
  10
89.711639
  20
575.19855
  0
VERTEX
  5
1c0
  8
Layer_0
  10
89.731956
  20
575.40009
  0
VERTEX
  5
1c1
  8
Layer_0
  10
89.790222
  20
575.58777
  0
VERTEX
  5
1c2
  8
Layer_0
  10
89.882423
  20
575.75763
  0
VERTEX
  5
1c3
  8
Layer_0
  10
90.004532
  20
575.90564
  0
VERTEX
  5
1c4
  8
Layer_0
  10
90.152534
  20
576.02777
  0
VERTEX
  5
1c5
  8
Layer_0
  10
90.322395
  20
576.11993
  0
VERTEX
  5
1c6
  8
Layer_0
  10
90.510101
  20
576.17822
  0
VERTEX
  5
1c7
  8
Layer_0
  10
90.711639
  20
576.19855
  0
VERTEX
  5
1c8
  8
Layer_0
  10
90.913177
  20
576.17822
  0
VERTEX
  5
1c9
  8
Layer_0
  10
91.100883
  20
576.11993
  0
VERTEX
  5
1ca
  8
Layer_0
  10
91.270744
  20
576.02777
  0
VERTEX
  5
1cb
  8
Layer_0
  10
91.418747
  20
575.90564
  0
VERTEX
  5
1cc
  8
Layer_0
  10
91.540855
  20
575.75763
  0
VERTEX
  5
1cd
  8
Layer_0
  10
91.633057
  20
575.58777
  0
VERTEX
  5
1ce
  8
Layer_0
  10
91.691322
  20
575.40009
  0
VERTEX
  5
1cf
  8
Layer_0
  10
91.711639
  20
575.19855
  0
VERTEX
  5
1d0
  8
Layer_0
  10
91.691322
  20
574.99701
  0
VERTEX
  5
1d1
  8
Layer_0
  10
91.633057
  20
574.80927
  0
VERTEX
  5
1d2
  8
Layer_0
  10
91.540855
  20
574.6394
  0
VERTEX
  5
1d3
  8
Layer_0
  10
91.418747
  20
574.49146
  0
VERTEX
  5
1d4
  8
Layer_0
  10
91.270744
  20
574.36932
  0
VERTEX
  5
1d5
  8
Layer_0
  10
91.100883
  20
574.2771
  0
VERTEX
  5
1d6
  8
Layer_0
  10
90.913177
  20
574.21887
  0
VERTEX
  5
1d7
  8
Layer_0
  10
90.711639
  20
574.19855
  0
VERTEX
  5
1d8
  8
Layer_0
  10
90.510101
  20
574.21887
  0
VERTEX
  5
1d9
  8
Layer_0
  10
90.322395
  20
574.2771
  0
VERTEX
  5
1da
  8
Layer_0
  10
90.152534
  20
574.36932
  0
VERTEX
  5
1db
  8
Layer_0
  10
90.004532
  20
574.49146
  0
VERTEX
  5
1dc
  8
Layer_0
  10
89.882423
  20
574.6394
  0
VERTEX
  5
1dd
  8
Layer_0
  10
89.790222
  20
574.80927
  0
VERTEX
  5
1de
  8
Layer_0
  10
89.731956
  20
574.99701
  0
VERTEX
  5
1df
  8
Layer_0
  10
89.711639
  20
575.19855
  0
SEQEND
  0
POLYLINE
  5
1e1
  8
Layer_0
  62
1
  70
1
  66
1
  10
0
  20
0
  30
0
  0
VERTEX
  5
1e1
  8
Layer_0
  10
46.710632
  20
580.69855
  0
VERTEX
  5
1e2
  8
Layer_0
  10
46.730949
  20
580.90009
  0
VERTEX
  5
1e3
  8
Layer_0
  10
46.789219
  20
581.08777
  0
VERTEX
  5
1e4
  8
Layer_0
  10
46.881416
  20
581.25763
  0
VERTEX
  5
1e5
  8
Layer_0
  10
47.003525
  20
581.40564
  0
VERTEX
  5
1e6
  8
Layer_0
  10
47.151527
  20
581.52777
  0
VERTEX
  5
1e7
  8
Layer_0
  10
47.321388
  20
581.61993
  0
VERTEX
  5
1e8
  8
Layer_0
  10
47.509098
  20
581.67822
  0
VERTEX
  5
1e9
  8
Layer_0
  10
47.710632
  20
581.69855
  0
VERTEX
  5
1ea
  8
Layer_0
  10
47.912167
  20
581.67822
  0
VERTEX
  5
1eb
  8
Layer_0
  10
48.099876
  20
581.61993
  0
VERTEX
  5
1ec
  8
Layer_0
  10
48.269737
  20
581.52777
  0
VERTEX
  5
1ed
  8
Layer_0
  10
48.41774
  20
581.40564
  0
VERTEX
  5
1ee
  8
Layer_0
  10
48.539848
  20
581.25763
  0
VERTEX
  5
1ef
  8
Layer_0
  10
48.632046
  20
581.08777
  0
VERTEX
  5
1f0
  8
Layer_0
  10
48.690315
  20
580.90009
  0
VERTEX
  5
1f1
  8
Layer_0
  10
48.710632
  20
580.69855
  0
VERTEX
  5
1f2
  8
Layer_0
  10
48.690315
  20
580.49701
  0
VERTEX
  5
1f3
  8
Layer_0
  10
48.632046
  20
580.30933
  0
VERTEX
  5
1f4
  8
Layer_0
  10
48.539848
  20
580.13947
  0
VERTEX
  5
1f5
  8
Layer_0
  10
48.41774
  20
579.99146
  0
VERTEX
  5
1f6
  8
Layer_0
  10
48.269737
  20
579.86932
  0
VERTEX
  5
1f7
  8
Layer_0
  10
48.099876
  20
579.77716
  0
VERTEX
  5
1f8
  8
Layer_0
  10
47.912167
  20
579.71887
  0
VERTEX
  5
1f9
  8
Layer_0
  10
47.710632
  20
579.69855
  0
VERTEX
  5
1fa
  8
Layer_0
  10
47.509098
  20
579.71887
  0
VERTEX
  5
1fb
  8
Layer_0
  10
47.321388
  20
579.77716
  0
VERTEX
  5
1fc
  8
Layer_0
  10
47.151527
  20
579.86932
  0
VERTEX
  5
1fd
  8
Layer_0
  10
47.003525
  20
579.99146
  0
VERTEX
  5
1fe
  8
Layer_0
  10
46.881416
  20
580.13947
  0
VERTEX
  5
1ff
  8
Layer_0
  10
46.789219
  20
580.30933
  0
VERTEX
  5
200
  8
Layer_0
  10
46.730949
  20
580.49701
  0
VERTEX
  5
201
  8
Layer_0
  10
46.710632
  20
580.69855
  0
SEQEND
  0
POLYLINE
  5
203
  8
Layer_0
  62
1
  70
1
  66
1
  10
0
  20
0
  30
0
  0
VERTEX
  5
203
  8
Layer_0
  10
46.710632
  20
578.19855
  0
VERTEX
  5
204
  8
Layer_0
  10
46.730949
  20
578.40009
  0
VERTEX
  5
205
  8
Layer_0
  10
46.789219
  20
578.58777
  0
VERTEX
  5
206
  8
Layer_0
  10
46.881416
  20
578.75763
  0
VERTEX
  5
207
  8
Layer_0
  10
47.003525
  20
578.90564
  0
VERTEX
  5
208
  8
Layer_0
  10
47.151527
  20
579.02777
  0
VERTEX
  5
209
  8
Layer_0
  10
47.321388
  20
579.11993
  0
VERTEX
  5
20a
  8
Layer_0
  10
47.509098
  20
579.17822
  0
VERTEX
  5
20b
  8
Layer_0
  10
47.710632
  20
579.19855
  0
VERTEX
  5
20c
  8
Layer_0
  10
47.912167
  20
579.17822
  0
VERTEX
  5
20d
  8
Layer_0
  10
48.099876
  20
579.11993
  0
VERTEX
  5
20e
  8
Layer_0
  10
48.269737
  20
579.02777
  0
VERTEX
  5
20f
  8
Layer_0
  10
48.41774
  20
578.90564
  0
VERTEX
  5
210
  8
Layer_0
  10
48.539848
  20
578.75763
  0
VERTEX
  5
211
  8
Layer_0
  10
48.632046
  20
578.58777
  0
VERTEX
  5
212
  8
Layer_0
  10
48.690315
  20
578.40009
  0
VERTEX
  5
213
  8
Layer_0
  10
48.710632
  20
578.19855
  0
VERTEX
  5
214
  8
Layer_0
  10
48.690315
  20
577.99701
  0
VERTEX
  5
215
  8
Layer_0
  10
48.632046
  20
577.80933
  0
VERTEX
  5
216
  8
Layer_0
  10
48.539848
  20
577.63947
  0
VERTEX
  5
217
  8
Layer_0
  10
48.41774
  20
577.49146
  0
VERTEX
  5
218
  8
Layer_0
  10
48.269737
  20
577.36932
  0
VERTEX
  5
219
  8
Layer_0
  10
48.099876
  20
577.27716
  0
VERTEX
  5
21a
  8
Layer_0
  10
47.912167
  20
577.21887
  0
VERTEX
  5
21b
  8
Layer_0
  10
47.710632
  20
577.19855
  0
VERTEX
  5
21c
  8
Layer_0
  10
47.509098
  20
577.21887
  0
VERTEX
  5
21d
  8
Layer_0
  10
47.321388
  20
577.27716
  0
VERTEX
  5
21e
  8
Layer_0
  10
47.151527
  20
577.36932
  0
VERTEX
  5
21f
  8
Layer_0
  10
47.003525
  20
577.49146
  0
VERTEX
  5
220
  8
Layer_0
  10
46.881416
  20
577.63947
  0
VERTEX
  5
221
  8
Layer_0
  10
46.789219
  20
577.80933
  0
VERTEX
  5
222
  8
Layer_0
  10
46.730949
  20
577.99701
  0
VERTEX
  5
223
  8
Layer_0
  10
46.710632
  20
578.19855
  0
SEQEND
  0
POLYLINE
  5
225
  8
Layer_1
  62
0
  70
1
  66
1
  10
0
  20
0
  30
0
  0
VERTEX
  5
225
  8
Layer_1
  10
45.220634
  20
588.43024
  0
VERTEX
  5
226
  8
Layer_1
  10
45.220634
  20
583.60852
  0
VERTEX
  5
227
  8
Layer_1
  10
45.200031
  20
582.91754
  0
VERTEX
  5
228
  8
Layer_1
  10
45.13829
  20
582.229
  0
VERTEX
  5
229
  8
Layer_1
  10
45.168152
  20
582.10144
  0
VERTEX
  5
22a
  8
Layer_1
  10
45.190514
  20
581.97253
  0
VERTEX
  5
22b
  8
Layer_1
  10
45.20533
  20
581.84271
  0
VERTEX
  5
22c
  8
Layer_1
  10
45.212578
  20
581.71216
  0
VERTEX
  5
22d
  8
Layer_1
  10
45.212234
  20
581.58136
  0
VERTEX
  5
22e
  8
Layer_1
  10
45.204254
  20
581.45062
  0
VERTEX
  5
22f
  8
Layer_1
  10
45.188675
  20
581.32031
  0
VERTEX
  5
230
  8
Layer_1
  10
45.165543
  20
581.19141
  0
VERTEX
  5
231
  8
Layer_1
  10
45.135025
  20
581.06427
  0
VERTEX
  5
232
  8
Layer_1
  10
45.097183
  20
580.93915
  0
VERTEX
  5
233
  8
Layer_1
  10
45.052124
  20
580.81647
  0
VERTEX
  5
234
  8
Layer_1
  10
44.999985
  20
580.69641
  0
VERTEX
  5
235
  8
Layer_1
  10
44.940819
  20
580.57941
  0
VERTEX
  5
236
  8
Layer_1
  10
44.874908
  20
580.466
  0
VERTEX
  5
237
  8
Layer_1
  10
44.802673
  20
580.35687
  0
VERTEX
  5
238
  8
Layer_1
  10
44.724319
  20
580.2522
  0
VERTEX
  5
239
  8
Layer_1
  10
44.421265
  20
579.37756
  0
VERTEX
  5
23a
  8
Layer_1
  10
44.051331
  20
578.53381
  0
VERTEX
  5
23b
  8
Layer_1
  10
43.617012
  20
577.72449
  0
VERTEX
  5
23c
  8
Layer_1
  10
43.120815
  20
576.95325
  0
VERTEX
  5
23d
  8
Layer_1
  10
42.565235
  20
576.22363
  0
VERTEX
  5
23e
  8
Layer_1
  10
41.952774
  20
575.53918
  0
VERTEX
  5
23f
  8
Layer_1
  10
41.285931
  20
574.9035
  0
VERTEX
  5
240
  8
Layer_1
  10
40.567207
  20
574.32013
  0
VERTEX
  5
241
  8
Layer_1
  10
40.510735
  20
574.23419
  0
VERTEX
  5
242
  8
Layer_1
  10
40.450317
  20
574.15082
  0
VERTEX
  5
243
  8
Layer_1
  10
40.386261
  20
574.07037
  0
VERTEX
  5
244
  8
Layer_1
  10
40.318665
  20
573.99304
  0
VERTEX
  5
245
  8
Layer_1
  10
40.247696
  20
573.91895
  0
VERTEX
  5
246
  8
Layer_1
  10
40.173447
  20
573.84821
  0
VERTEX
  5
247
  8
Layer_1
  10
40.096046
  20
573.78088
  0
VERTEX
  5
248
  8
Layer_1
  10
40.015633
  20
573.71716
  0
VERTEX
  5
249
  8
Layer_1
  10
39.932281
  20
573.65704
  0
VERTEX
  5
24a
  8
Layer_1
  10
39.846146
  20
573.60071
  0
VERTEX
  5
24b
  8
Layer_1
  10
39.757492
  20
573.5484
  0
VERTEX
  5
24c
  8
Layer_1
  10
39.666718
  20
573.50024
  0
VERTEX
  5
24d
  8
Layer_1
  10
39.573929
  20
573.4563
  0
VERTEX
  5
24e
  8
Layer_1
  10
39.479317
  20
573.41669
  0
VERTEX
  5
24f
  8
Layer_1
  10
39.383011
  20
573.38141
  0
VERTEX
  5
250
  8
Layer_1
  10
39.285172
  20
573.35059
  0
VERTEX
  5
251
  8
Layer_1
  10
39.185944
  20
573.32416
  0
VERTEX
  5
252
  8
Layer_1
  10
39.08548
  20
573.30225
  0
VERTEX
  5
253
  8
Layer_1
  10
38.983955
  20
573.28497
  0
VERTEX
  5
254
  8
Layer_1
  10
38.881882
  20
573.27234
  0
VERTEX
  5
255
  8
Layer_1
  10
38.263229
  20
572.98029
  0
VERTEX
  5
256
  8
Layer_1
  10
37.630108
  20
572.72583
  0
VERTEX
  5
257
  8
Layer_1
  10
36.98423
  20
572.50934
  0
VERTEX
  5
258
  8
Layer_1
  10
36.327316
  20
572.33136
  0
VERTEX
  5
259
  8
Layer_1
  10
35.661095
  20
572.1922
  0
VERTEX
  5
25a
  8
Layer_1
  10
34.987282
  20
572.09229
  0
VERTEX
  5
25b
  8
Layer_1
  10
34.307602
  20
572.03204
  0
VERTEX
  5
25c
  8
Layer_1
  10
33.623772
  20
572.01184
  0
VERTEX
  5
25d
  8
Layer_1
  10
33.369507
  20
572.01465
  0
VERTEX
  5
25e
  8
Layer_1
  10
33.115372
  20
572.02301
  0
VERTEX
  5
25f
  8
Layer_1
  10
32.382984
  20
572.07843
  0
VERTEX
  5
260
  8
Layer_1
  10
31.659012
  20
572.17957
  0
VERTEX
  5
261
  8
Layer_1
  10
31.537117
  20
572.1601
  0
VERTEX
  5
262
  8
Layer_1
  10
31.414207
  20
572.14734
  0
VERTEX
  5
263
  8
Layer_1
  10
31.290543
  20
572.14136
  0
VERTEX
  5
264
  8
Layer_1
  10
31.166748
  20
572.14215
  0
VERTEX
  5
265
  8
Layer_1
  10
31.043419
  20
572.14972
  0
VERTEX
  5
266
  8
Layer_1
  10
30.920807
  20
572.16406
  0
VERTEX
  5
267
  8
Layer_1
  10
30.799232
  20
572.185
  0
VERTEX
  5
268
  8
Layer_1
  10
30.678932
  20
572.21259
  0
VERTEX
  5
269
  8
Layer_1
  10
30.560219
  20
572.24677
  0
VERTEX
  5
26a
  8
Layer_1
  10
30.443306
  20
572.28748
  0
VERTEX
  5
26b
  8
Layer_1
  10
30.328781
  20
572.33453
  0
VERTEX
  5
26c
  8
Layer_1
  10
30.217224
  20
572.3877
  0
VERTEX
  5
26d
  8
Layer_1
  10
30.108887
  20
572.44684
  0
VERTEX
  5
26e
  8
Layer_1
  10
30.003967
  20
572.51184
  0
VERTEX
  5
26f
  8
Layer_1
  10
29.902756
  20
572.5824
  0
VERTEX
  5
270
  8
Layer_1
  10
29.805473
  20
572.65857
  0
VERTEX
  5
271
  8
Layer_1
  10
29.097755
  20
572.93164
  0
VERTEX
  5
272
  8
Layer_1
  10
28.409401
  20
573.25037
  0
VERTEX
  5
273
  8
Layer_1
  10
27.961496
  20
573.4881
  0
VERTEX
  5
274
  8
Layer_1
  10
27.534151
  20
573.73932
  0
VERTEX
  5
275
  8
Layer_1
  10
27.117931
  20
574.00854
  0
VERTEX
  5
276
  8
Layer_1
  10
26.713417
  20
574.29553
  0
VERTEX
  5
277
  8
Layer_1
  10
26.51144
  20
574.4491
  0
VERTEX
  5
278
  8
Layer_1
  10
26.320274
  20
574.60077
  0
VERTEX
  5
279
  8
Layer_1
  10
25.933992
  20
574.92792
  0
VERTEX
  5
27a
  8
Layer_1
  10
25.570034
  20
575.26447
  0
VERTEX
  5
27b
  8
Layer_1
  10
25.220791
  20
575.61627
  0
VERTEX
  5
27c
  8
Layer_1
  10
24.886749
  20
575.98291
  0
VERTEX
  5
27d
  8
Layer_1
  10
24.40498
  20
576.57336
  0
VERTEX
  5
27e
  8
Layer_1
  10
23.970802
  20
577.18201
  0
VERTEX
  5
27f
  8
Layer_1
  10
23.877159
  20
577.25574
  0
VERTEX
  5
280
  8
Layer_1
  10
23.787415
  20
577.33441
  0
VERTEX
  5
281
  8
Layer_1
  10
23.702087
  20
577.4176
  0
VERTEX
  5
282
  8
Layer_1
  10
23.621391
  20
577.505
  0
VERTEX
  5
283
  8
Layer_1
  10
23.545486
  20
577.5965
  0
VERTEX
  5
284
  8
Layer_1
  10
23.474525
  20
577.69189
  0
VERTEX
  5
285
  8
Layer_1
  10
23.408646
  20
577.79089
  0
VERTEX
  5
286
  8
Layer_1
  10
23.348007
  20
577.89343
  0
VERTEX
  5
287
  8
Layer_1
  10
23.292786
  20
577.99921
  0
VERTEX
  5
288
  8
Layer_1
  10
23.243286
  20
578.10767
  0
VERTEX
  5
289
  8
Layer_1
  10
23.199646
  20
578.21838
  0
VERTEX
  5
28a
  8
Layer_1
  10
23.161987
  20
578.33118
  0
VERTEX
  5
28b
  8
Layer_1
  10
23.13031
  20
578.44574
  0
VERTEX
  5
28c
  8
Layer_1
  10
23.104759
  20
578.56189
  0
VERTEX
  5
28d
  8
Layer_1
  10
23.08535
  20
578.67932
  0
VERTEX
  5
28e
  8
Layer_1
  10
23.072166
  20
578.79779
  0
VERTEX
  5
28f
  8
Layer_1
  10
22.777336
  20
579.50562
  0
VERTEX
  5
290
  8
Layer_1
  10
22.529922
  20
580.23132
  0
VERTEX
  5
291
  8
Layer_1
  10
22.307781
  20
581.07172
  0
VERTEX
  5
292
  8
Layer_1
  10
22.152079
  20
581.9093
  0
VERTEX
  5
293
  8
Layer_1
  10
22.058285
  20
582.75604
  0
VERTEX
  5
294
  8
Layer_1
  10
22.026909
  20
583.60852
  0
VERTEX
  5
295
  8
Layer_1
  10
22.02726
  20
585.66113
  0
VERTEX
  5
296
  8
Layer_1
  10
21.990349
  20
585.7608
  0
VERTEX
  5
297
  8
Layer_1
  10
21.95813
  20
585.86224
  0
VERTEX
  5
298
  8
Layer_1
  10
21.930717
  20
585.96527
  0
VERTEX
  5
299
  8
Layer_1
  10
21.908226
  20
586.06946
  0
VERTEX
  5
29a
  8
Layer_1
  10
21.890709
  20
586.17438
  0
VERTEX
  5
29b
  8
Layer_1
  10
21.878189
  20
586.27991
  0
VERTEX
  5
29c
  8
Layer_1
  10
21.870644
  20
586.38586
  0
VERTEX
  5
29d
  8
Layer_1
  10
21.868149
  20
586.492
  0
VERTEX
  5
29e
  8
Layer_1
  10
21.870659
  20
586.59827
  0
VERTEX
  5
29f
  8
Layer_1
  10
21.878197
  20
586.70441
  0
VERTEX
  5
2a0
  8
Layer_1
  10
21.89077
  20
586.81024
  0
VERTEX
  5
2a1
  8
Layer_1
  10
21.90834
  20
586.91541
  0
VERTEX
  5
2a2
  8
Layer_1
  10
21.930847
  20
587.01941
  0
VERTEX
  5
2a3
  8
Layer_1
  10
21.958191
  20
587.12207
  0
VERTEX
  5
2a4
  8
Layer_1
  10
21.990364
  20
587.22333
  0
VERTEX
  5
2a5
  8
Layer_1
  10
22.02726
  20
587.32294
  0
VERTEX
  5
2a6
  8
Layer_1
  10
22.026909
  20
589.54254
  0
VERTEX
  5
2a7
  8
Layer_1
  10
18.789093
  20
589.54254
  0
VERTEX
  5
2a8
  8
Layer_1
  10
18.789101
  20
577.48676
  0
VERTEX
  5
2a9
  8
Layer_1
  10
18.828003
  20
576.66956
  0
VERTEX
  5
2aa
  8
Layer_1
  10
18.942423
  20
575.87329
  0
VERTEX
  5
2ab
  8
Layer_1
  10
19.12892
  20
575.10162
  0
VERTEX
  5
2ac
  8
Layer_1
  10
19.384054
  20
574.35834
  0
VERTEX
  5
2ad
  8
Layer_1
  10
19.704391
  20
573.64722
  0
VERTEX
  5
2ae
  8
Layer_1
  10
20.086494
  20
572.97198
  0
VERTEX
  5
2af
  8
Layer_1
  10
20.526924
  20
572.33643
  0
VERTEX
  5
2b0
  8
Layer_1
  10
21.022243
  20
571.7442
  0
VERTEX
  5
2b1
  8
Layer_1
  10
21.569012
  20
571.19916
  0
VERTEX
  5
2b2
  8
Layer_1
  10
22.163795
  20
570.70502
  0
VERTEX
  5
2b3
  8
Layer_1
  10
22.803156
  20
570.26556
  0
VERTEX
  5
2b4
  8
Layer_1
  10
23.483654
  20
569.88446
  0
VERTEX
  5
2b5
  8
Layer_1
  10
24.201853
  20
569.56549
  0
VERTEX
  5
2b6
  8
Layer_1
  10
24.954315
  20
569.31244
  0
VERTEX
  5
2b7
  8
Layer_1
  10
25.737602
  20
569.12909
  0
VERTEX
  5
2b8
  8
Layer_1
  10
26.548279
  20
569.0191
  0
VERTEX
  5
2b9
  8
Layer_1
  10
43.157867
  20
567.56592
  0
VERTEX
  5
2ba
  8
Layer_1
  10
43.193626
  20
567.56409
  0
VERTEX
  5
2bb
  8
Layer_1
  10
43.26503
  20
567.56787
  0
VERTEX
  5
2bc
  8
Layer_1
  10
43.335213
  20
567.58173
  0
VERTEX
  5
2bd
  8
Layer_1
  10
43.402733
  20
567.60522
  0
VERTEX
  5
2be
  8
Layer_1
  10
43.46611
  20
567.63788
  0
VERTEX
  5
2bf
  8
Layer_1
  10
43.52433
  20
567.67908
  0
VERTEX
  5
2c0
  8
Layer_1
  10
43.576294
  20
567.72815
  0
VERTEX
  5
2c1
  8
Layer_1
  10
43.620728
  20
567.78387
  0
VERTEX
  5
2c2
  8
Layer_1
  10
43.657028
  20
567.84534
  0
VERTEX
  5
2c3
  8
Layer_1
  10
43.684303
  20
567.91132
  0
VERTEX
  5
2c4
  8
Layer_1
  10
43.702057
  20
567.98035
  0
VERTEX
  5
2c5
  8
Layer_1
  10
43.709961
  20
568.05139
  0
VERTEX
  5
2c6
  8
Layer_1
  10
43.707848
  20
568.12268
  0
VERTEX
  5
2c7
  8
Layer_1
  10
43.69577
  20
568.19293
  0
VERTEX
  5
2c8
  8
Layer_1
  10
43.660431
  20
568.31097
  0
VERTEX
  5
2c9
  8
Layer_1
  10
43.637123
  20
568.39594
  0
VERTEX
  5
2ca
  8
Layer_1
  10
43.616188
  20
568.48218
  0
VERTEX
  5
2cb
  8
Layer_1
  10
43.59761
  20
568.56927
  0
VERTEX
  5
2cc
  8
Layer_1
  10
43.581375
  20
568.65692
  0
VERTEX
  5
2cd
  8
Layer_1
  10
43.567505
  20
568.74469
  0
VERTEX
  5
2ce
  8
Layer_1
  10
43.556
  20
568.83234
  0
VERTEX
  5
2cf
  8
Layer_1
  10
43.546883
  20
568.91937
  0
VERTEX
  5
2d0
  8
Layer_1
  10
43.540146
  20
569.00555
  0
VERTEX
  5
2d1
  8
Layer_1
  10
43.535812
  20
569.09045
  0
VERTEX
  5
2d2
  8
Layer_1
  10
43.533875
  20
569.17377
  0
VERTEX
  5
2d3
  8
Layer_1
  10
43.534409
  20
569.25604
  0
VERTEX
  5
2d4
  8
Layer_1
  10
43.53756
  20
569.33997
  0
VERTEX
  5
2d5
  8
Layer_1
  10
43.543228
  20
569.42529
  0
VERTEX
  5
2d6
  8
Layer_1
  10
43.551392
  20
569.51172
  0
VERTEX
  5
2d7
  8
Layer_1
  10
43.561974
  20
569.59888
  0
VERTEX
  5
2d8
  8
Layer_1
  10
43.574921
  20
569.68646
  0
VERTEX
  5
2d9
  8
Layer_1
  10
43.590096
  20
569.77411
  0
VERTEX
  5
2da
  8
Layer_1
  10
43.607521
  20
569.86151
  0
VERTEX
  5
2db
  8
Layer_1
  10
43.62706
  20
569.9483
  0
VERTEX
  5
2dc
  8
Layer_1
  10
43.648689
  20
570.03412
  0
VERTEX
  5
2dd
  8
Layer_1
  10
43.672318
  20
570.11871
  0
VERTEX
  5
2de
  8
Layer_1
  10
43.697891
  20
570.20166
  0
VERTEX
  5
2df
  8
Layer_1
  10
43.725327
  20
570.28259
  0
VERTEX
  5
2e0
  8
Layer_1
  10
43.754562
  20
570.36127
  0
VERTEX
  5
2e1
  8
Layer_1
  10
43.785614
  20
570.4375
  0
VERTEX
  5
2e2
  8
Layer_1
  10
43.819473
  20
570.51355
  0
VERTEX
  5
2e3
  8
Layer_1
  10
43.856308
  20
570.59015
  0
VERTEX
  5
2e4
  8
Layer_1
  10
43.895927
  20
570.66687
  0
VERTEX
  5
2e5
  8
Layer_1
  10
43.938133
  20
570.74347
  0
VERTEX
  5
2e6
  8
Layer_1
  10
43.982727
  20
570.81964
  0
VERTEX
  5
2e7
  8
Layer_1
  10
44.029541
  20
570.89514
  0
VERTEX
  5
2e8
  8
Layer_1
  10
44.078377
  20
570.96973
  0
VERTEX
  5
2e9
  8
Layer_1
  10
44.129005
  20
571.04297
  0
VERTEX
  5
2ea
  8
Layer_1
  10
44.181267
  20
571.11469
  0
VERTEX
  5
2eb
  8
Layer_1
  10
44.23497
  20
571.18451
  0
VERTEX
  5
2ec
  8
Layer_1
  10
44.289917
  20
571.25226
  0
VERTEX
  5
2ed
  8
Layer_1
  10
44.345901
  20
571.31757
  0
VERTEX
  5
2ee
  8
Layer_1
  10
44.402756
  20
571.38013
  0
VERTEX
  5
2ef
  8
Layer_1
  10
44.460251
  20
571.43976
  0
VERTEX
  5
2f0
  8
Layer_1
  10
44.519478
  20
571.49731
  0
VERTEX
  5
2f1
  8
Layer_1
  10
44.581711
  20
571.5542
  0
VERTEX
  5
2f2
  8
Layer_1
  10
44.646698
  20
571.61029
  0
VERTEX
  5
2f3
  8
Layer_1
  10
44.714142
  20
571.66541
  0
VERTEX
  5
2f4
  8
Layer_1
  10
44.783752
  20
571.71924
  0
VERTEX
  5
2f5
  8
Layer_1
  10
44.855247
  20
571.77167
  0
VERTEX
  5
2f6
  8
Layer_1
  10
44.928337
  20
571.82251
  0
VERTEX
  5
2f7
  8
Layer_1
  10
45.002724
  20
571.87158
  0
VERTEX
  5
2f8
  8
Layer_1
  10
45.078156
  20
571.91864
  0
VERTEX
  5
2f9
  8
Layer_1
  10
45.154289
  20
571.9635
  0
VERTEX
  5
2fa
  8
Layer_1
  10
45.230865
  20
572.00598
  0
VERTEX
  5
2fb
  8
Layer_1
  10
45.307602
  20
572.04596
  0
VERTEX
  5
2fc
  8
Layer_1
  10
45.384209
  20
572.08313
  0
VERTEX
  5
2fd
  8
Layer_1
  10
45.460381
  20
572.11737
  0
VERTEX
  5
2fe
  8
Layer_1
  10
45.5364
  20
572.1488
  0
VERTEX
  5
2ff
  8
Layer_1
  10
45.614632
  20
572.17865
  0
VERTEX
  5
300
  8
Layer_1
  10
45.695175
  20
572.20697
  0
VERTEX
  5
301
  8
Layer_1
  10
45.777679
  20
572.23358
  0
VERTEX
  5
302
  8
Layer_1
  10
45.861862
  20
572.25818
  0
VERTEX
  5
303
  8
Layer_1
  10
45.947418
  20
572.28064
  0
VERTEX
  5
304
  8
Layer_1
  10
45.947418
  20
575.54846
  0
VERTEX
  5
305
  8
Layer_1
  10
47.47142
  20
575.54846
  0
VERTEX
  5
306
  8
Layer_1
  10
47.47142
  20
572.28101
  0
VERTEX
  5
307
  8
Layer_1
  10
47.628639
  20
572.23779
  0
VERTEX
  5
308
  8
Layer_1
  10
47.780266
  20
572.18787
  0
VERTEX
  5
309
  8
Layer_1
  10
47.924416
  20
572.13239
  0
VERTEX
  5
30a
  8
Layer_1
  10
48.065178
  20
572.06934
  0
VERTEX
  5
30b
  8
Layer_1
  10
48.207039
  20
571.99646
  0
VERTEX
  5
30c
  8
Layer_1
  10
48.348129
  20
571.91498
  0
VERTEX
  5
30d
  8
Layer_1
  10
48.486641
  20
571.82605
  0
VERTEX
  5
30e
  8
Layer_1
  10
48.620773
  20
571.73102
  0
VERTEX
  5
30f
  8
Layer_1
  10
48.748688
  20
571.63098
  0
VERTEX
  5
310
  8
Layer_1
  10
48.868561
  20
571.52716
  0
VERTEX
  5
311
  8
Layer_1
  10
48.978798
  20
571.42065
  0
VERTEX
  5
312
  8
Layer_1
  10
49.084221
  20
571.30627
  0
VERTEX
  5
313
  8
Layer_1
  10
49.186592
  20
571.1828
  0
VERTEX
  5
314
  8
Layer_1
  10
49.284729
  20
571.05206
  0
VERTEX
  5
315
  8
Layer_1
  10
49.377373
  20
570.91589
  0
VERTEX
  5
316
  8
Layer_1
  10
49.46331
  20
570.77606
  0
VERTEX
  5
317
  8
Layer_1
  10
49.541351
  20
570.63446
  0
VERTEX
  5
318
  8
Layer_1
  10
49.610229
  20
570.49286
  0
VERTEX
  5
319
  8
Layer_1
  10
49.66925
  20
570.35193
  0
VERTEX
  5
31a
  8
Layer_1
  10
49.721519
  20
570.2041
  0
VERTEX
  5
31b
  8
Layer_1
  10
49.767395
  20
570.0495
  0
VERTEX
  5
31c
  8
Layer_1
  10
49.806442
  20
569.89032
  0
VERTEX
  5
31d
  8
Layer_1
  10
49.838242
  20
569.7287
  0
VERTEX
  5
31e
  8
Layer_1
  10
49.862366
  20
569.56677
  0
VERTEX
  5
31f
  8
Layer_1
  10
49.878403
  20
569.40668
  0
VERTEX
  5
320
  8
Layer_1
  10
49.885887
  20
569.25055
  0
VERTEX
  5
321
  8
Layer_1
  10
49.88446
  20
569.0976
  0
VERTEX
  5
322
  8
Layer_1
  10
49.874214
  20
568.94
  0
VERTEX
  5
323
  8
Layer_1
  10
49.855576
  20
568.77911
  0
VERTEX
  5
324
  8
Layer_1
  10
49.828964
  20
568.617
  0
VERTEX
  5
325
  8
Layer_1
  10
49.794838
  20
568.45593
  0
VERTEX
  5
326
  8
Layer_1
  10
49.753586
  20
568.29797
  0
VERTEX
  5
327
  8
Layer_1
  10
49.705643
  20
568.14532
  0
VERTEX
  5
328
  8
Layer_1
  10
49.651443
  20
568.00012
  0
VERTEX
  5
329
  8
Layer_1
  10
49.589981
  20
567.85919
  0
VERTEX
  5
32a
  8
Layer_1
  10
49.503868
  20
567.68481
  0
VERTEX
  5
32b
  8
Layer_1
  10
49.479706
  20
567.61749
  0
VERTEX
  5
32c
  8
Layer_1
  10
49.465233
  20
567.54749
  0
VERTEX
  5
32d
  8
Layer_1
  10
49.460762
  20
567.47614
  0
VERTEX
  5
32e
  8
Layer_1
  10
49.466309
  20
567.40503
  0
VERTEX
  5
32f
  8
Layer_1
  10
49.481758
  20
567.33539
  0
VERTEX
  5
330
  8
Layer_1
  10
49.506882
  20
567.26849
  0
VERTEX
  5
331
  8
Layer_1
  10
49.541031
  20
567.20593
  0
VERTEX
  5
332
  8
Layer_1
  10
49.583694
  20
567.14868
  0
VERTEX
  5
333
  8
Layer_1
  10
49.633965
  20
567.09796
  0
VERTEX
  5
334
  8
Layer_1
  10
49.690727
  20
567.05487
  0
VERTEX
  5
335
  8
Layer_1
  10
49.753143
  20
567.02008
  0
VERTEX
  5
336
  8
Layer_1
  10
49.819702
  20
566.99438
  0
VERTEX
  5
337
  8
Layer_1
  10
49.889153
  20
566.97827
  0
VERTEX
  5
338
  8
Layer_1
  10
51.210938
  20
566.86139
  0
VERTEX
  5
339
  8
Layer_1
  10
51.210938
  20
582.14209
  0
VERTEX
  5
33a
  8
Layer_1
  10
51.206703
  20
582.39594
  0
VERTEX
  5
33b
  8
Layer_1
  10
51.194054
  20
582.64929
  0
VERTEX
  5
33c
  8
Layer_1
  10
51.172943
  20
582.90186
  0
VERTEX
  5
33d
  8
Layer_1
  10
51.143524
  20
583.15356
  0
VERTEX
  5
33e
  8
Layer_1
  10
51.105721
  20
583.40417
  0
VERTEX
  5
33f
  8
Layer_1
  10
51.05957
  20
583.65338
  0
VERTEX
  5
340
  8
Layer_1
  10
51.005157
  20
583.90106
  0
VERTEX
  5
341
  8
Layer_1
  10
50.942467
  20
584.14697
  0
VERTEX
  5
342
  8
Layer_1
  10
50.871613
  20
584.39081
  0
VERTEX
  5
343
  8
Layer_1
  10
50.792732
  20
584.63196
  0
VERTEX
  5
344
  8
Layer_1
  10
50.705894
  20
584.87018
  0
VERTEX
  5
345
  8
Layer_1
  10
50.611214
  20
585.10522
  0
VERTEX
  5
346
  8
Layer_1
  10
50.508858
  20
585.33704
  0
VERTEX
  5
347
  8
Layer_1
  10
50.39875
  20
585.56531
  0
VERTEX
  5
348
  8
Layer_1
  10
50.281097
  20
585.78992
  0
VERTEX
  5
349
  8
Layer_1
  10
50.155975
  20
586.01062
  0
VERTEX
  5
34a
  8
Layer_1
  10
50.023445
  20
586.22723
  0
VERTEX
  5
34b
  8
Layer_1
  10
49.883926
  20
586.43909
  0
VERTEX
  5
34c
  8
Layer_1
  10
49.73761
  20
586.64587
  0
VERTEX
  5
34d
  8
Layer_1
  10
49.584641
  20
586.84753
  0
VERTEX
  5
34e
  8
Layer_1
  10
49.425194
  20
587.04388
  0
VERTEX
  5
34f
  8
Layer_1
  10
49.259369
  20
587.23474
  0
VERTEX
  5
350
  8
Layer_1
  10
49.087318
  20
587.41998
  0
VERTEX
  5
351
  8
Layer_1
  10
48.909187
  20
587.59943
  0
VERTEX
  5
352
  8
Layer_1
  10
48.725121
  20
587.77295
  0
VERTEX
  5
353
  8
Layer_1
  10
48.535286
  20
587.94037
  0
VERTEX
  5
354
  8
Layer_1
  10
48.339767
  20
588.10156
  0
VERTEX
  5
355
  8
Layer_1
  10
48.138779
  20
588.25635
  0
VERTEX
  5
356
  8
Layer_1
  10
47.932564
  20
588.40442
  0
VERTEX
  5
357
  8
Layer_1
  10
47.721817
  20
588.54541
  0
VERTEX
  5
358
  8
Layer_1
  10
47.506752
  20
588.6792
  0
VERTEX
  5
359
  8
Layer_1
  10
47.287537
  20
588.8056
  0
VERTEX
  5
35a
  8
Layer_1
  10
47.064377
  20
588.92462
  0
VERTEX
  5
35b
  8
Layer_1
  10
46.837479
  20
589.03607
  0
VERTEX
  5
35c
  8
Layer_1
  10
46.60701
  20
589.14001
  0
VERTEX
  5
35d
  8
Layer_1
  10
46.373169
  20
589.23621
  0
VERTEX
  5
35e
  8
Layer_1
  10
46.136124
  20
589.32465
  0
VERTEX
  5
35f
  8
Layer_1
  10
45.896095
  20
589.40527
  0
VERTEX
  5
360
  8
Layer_1
  10
45.653275
  20
589.47791
  0
VERTEX
  5
361
  8
Layer_1
  10
45.407829
  20
589.54254
  0
VERTEX
  5
362
  8
Layer_1
  10
45.414063
  20
589.44757
  0
VERTEX
  5
363
  8
Layer_1
  10
45.41626
  20
589.3526
  0
VERTEX
  5
364
  8
Layer_1
  10
45.414452
  20
589.25769
  0
VERTEX
  5
365
  8
Layer_1
  10
45.408653
  20
589.16302
  0
VERTEX
  5
366
  8
Layer_1
  10
45.398872
  20
589.06866
  0
VERTEX
  5
367
  8
Layer_1
  10
45.385124
  20
588.97485
  0
VERTEX
  5
368
  8
Layer_1
  10
45.367416
  20
588.88159
  0
VERTEX
  5
369
  8
Layer_1
  10
45.345764
  20
588.78906
  0
VERTEX
  5
36a
  8
Layer_1
  10
45.320175
  20
588.69739
  0
VERTEX
  5
36b
  8
Layer_1
  10
45.290726
  20
588.60687
  0
VERTEX
  5
36c
  8
Layer_1
  10
45.257523
  20
588.51776
  0
VERTEX
  5
36d
  8
Layer_1
  10
45.220634
  20
588.43024
  0
SEQEND
  0
POLYLINE
  5
36f
  8
Layer_0
  62
1
  70
1
  66
1
  10
0
  20
0
  30
0
  0
VERTEX
  5
36f
  8
Layer_0
  10
4.4992981
  20
583.86481
  0
VERTEX
  5
370
  8
Layer_0
  10
4.4789815
  20
583.66327
  0
VERTEX
  5
371
  8
Layer_0
  10
4.4207134
  20
583.47559
  0
VERTEX
  5
372
  8
Layer_0
  10
4.3285141
  20
583.30573
  0
VERTEX
  5
373
  8
Layer_0
  10
4.2064047
  20
583.15771
  0
VERTEX
  5
374
  8
Layer_0
  10
4.0584073
  20
583.03558
  0
VERTEX
  5
375
  8
Layer_0
  10
3.8885431
  20
582.94342
  0
VERTEX
  5
376
  8
Layer_0
  10
3.7008328
  20
582.88513
  0
VERTEX
  5
377
  8
Layer_0
  10
3.4992979
  20
582.86481
  0
VERTEX
  5
378
  8
Layer_0
  10
3.2977629
  20
582.88513
  0
VERTEX
  5
379
  8
Layer_0
  10
3.1100526
  20
582.94342
  0
VERTEX
  5
37a
  8
Layer_0
  10
2.9401884
  20
583.03558
  0
VERTEX
  5
37b
  8
Layer_0
  10
2.792191
  20
583.15771
  0
VERTEX
  5
37c
  8
Layer_0
  10
2.6700821
  20
583.30573
  0
VERTEX
  5
37d
  8
Layer_0
  10
2.577883
  20
583.47559
  0
VERTEX
  5
37e
  8
Layer_0
  10
2.5196147
  20
583.66327
  0
VERTEX
  5
37f
  8
Layer_0
  10
2.4992981
  20
583.86481
  0
VERTEX
  5
380
  8
Layer_0
  10
2.5196147
  20
584.06635
  0
VERTEX
  5
381
  8
Layer_0
  10
2.5778832
  20
584.25403
  0
VERTEX
  5
382
  8
Layer_0
  10
2.6700826
  20
584.42389
  0
VERTEX
  5
383
  8
Layer_0
  10
2.7921915
  20
584.5719
  0
VERTEX
  5
384
  8
Layer_0
  10
2.9401889
  20
584.69403
  0
VERTEX
  5
385
  8
Layer_0
  10
3.1100531
  20
584.78619
  0
VERTEX
  5
386
  8
Layer_0
  10
3.2977633
  20
584.84448
  0
VERTEX
  5
387
  8
Layer_0
  10
3.4992983
  20
584.86481
  0
VERTEX
  5
388
  8
Layer_0
  10
3.7008333
  20
584.84448
  0
VERTEX
  5
389
  8
Layer_0
  10
3.8885434
  20
584.78619
  0
VERTEX
  5
38a
  8
Layer_0
  10
4.0584073
  20
584.69403
  0
VERTEX
  5
38b
  8
Layer_0
  10
4.2064047
  20
584.5719
  0
VERTEX
  5
38c
  8
Layer_0
  10
4.3285141
  20
584.42389
  0
VERTEX
  5
38d
  8
Layer_0
  10
4.4207134
  20
584.25403
  0
VERTEX
  5
38e
  8
Layer_0
  10
4.4789815
  20
584.06635
  0
VERTEX
  5
38f
  8
Layer_0
  10
4.4992981
  20
583.86481
  0
SEQEND
  0
POLYLINE
  5
391
  8
Layer_0
  62
1
  70
1
  66
1
  10
0
  20
0
  30
0
  0
VERTEX
  5
391
  8
Layer_0
  10
4.4992981
  20
586.36481
  0
VERTEX
  5
392
  8
Layer_0
  10
4.4789815
  20
586.16327
  0
VERTEX
  5
393
  8
Layer_0
  10
4.4207134
  20
585.97559
  0
VERTEX
  5
394
  8
Layer_0
  10
4.3285141
  20
585.80573
  0
VERTEX
  5
395
  8
Layer_0
  10
4.2064047
  20
585.65771
  0
VERTEX
  5
396
  8
Layer_0
  10
4.0584073
  20
585.53558
  0
VERTEX
  5
397
  8
Layer_0
  10
3.8885431
  20
585.44342
  0
VERTEX
  5
398
  8
Layer_0
  10
3.7008328
  20
585.38513
  0
VERTEX
  5
399
  8
Layer_0
  10
3.4992979
  20
585.36481
  0
VERTEX
  5
39a
  8
Layer_0
  10
3.2977629
  20
585.38513
  0
VERTEX
  5
39b
  8
Layer_0
  10
3.1100526
  20
585.44342
  0
VERTEX
  5
39c
  8
Layer_0
  10
2.9401884
  20
585.53558
  0
VERTEX
  5
39d
  8
Layer_0
  10
2.792191
  20
585.65771
  0
VERTEX
  5
39e
  8
Layer_0
  10
2.6700821
  20
585.80573
  0
VERTEX
  5
39f
  8
Layer_0
  10
2.577883
  20
585.97559
  0
VERTEX
  5
3a0
  8
Layer_0
  10
2.5196147
  20
586.16327
  0
VERTEX
  5
3a1
  8
Layer_0
  10
2.4992981
  20
586.36481
  0
VERTEX
  5
3a2
  8
Layer_0
  10
2.5196147
  20
586.56635
  0
VERTEX
  5
3a3
  8
Layer_0
  10
2.5778832
  20
586.75403
  0
VERTEX
  5
3a4
  8
Layer_0
  10
2.6700826
  20
586.92389
  0
VERTEX
  5
3a5
  8
Layer_0
  10
2.7921915
  20
587.0719
  0
VERTEX
  5
3a6
  8
Layer_0
  10
2.9401889
  20
587.19403
  0
VERTEX
  5
3a7
  8
Layer_0
  10
3.1100531
  20
587.28619
  0
VERTEX
  5
3a8
  8
Layer_0
  10
3.2977633
  20
587.34448
  0
VERTEX
  5
3a9
  8
Layer_0
  10
3.4992983
  20
587.36481
  0
VERTEX
  5
3aa
  8
Layer_0
  10
3.7008333
  20
587.34448
  0
VERTEX
  5
3ab
  8
Layer_0
  10
3.8885434
  20
587.28619
  0
VERTEX
  5
3ac
  8
Layer_0
  10
4.0584073
  20
587.19403
  0
VERTEX
  5
3ad
  8
Layer_0
  10
4.2064047
  20
587.0719
  0
VERTEX
  5
3ae
  8
Layer_0
  10
4.3285141
  20
586.92389
  0
VERTEX
  5
3af
  8
Layer_0
  10
4.4207134
  20
586.75403
  0
VERTEX
  5
3b0
  8
Layer_0
  10
4.4789815
  20
586.56635
  0
VERTEX
  5
3b1
  8
Layer_0
  10
4.4992981
  20
586.36481
  0
SEQEND
  0
POLYLINE
  5
3b3
  8
Layer_1
  62
0
  70
1
  66
1
  10
0
  20
0
  30
0
  0
VERTEX
  5
3b3
  8
Layer_1
  10
5.9910202
  20
578.72369
  0
VERTEX
  5
3b4
  8
Layer_1
  10
5.9455719
  20
578.83276
  0
VERTEX
  5
3b5
  8
Layer_1
  10
5.9059067
  20
578.94421
  0
VERTEX
  5
3b6
  8
Layer_1
  10
5.8721008
  20
579.05768
  0
VERTEX
  5
3b7
  8
Layer_1
  10
5.8442764
  20
579.17297
  0
VERTEX
  5
3b8
  8
Layer_1
  10
5.8225937
  20
579.28949
  0
VERTEX
  5
3b9
  8
Layer_1
  10
5.8070831
  20
579.40674
  0
VERTEX
  5
3ba
  8
Layer_1
  10
5.7977905
  20
579.52454
  0
VERTEX
  5
3bb
  8
Layer_1
  10
5.7946854
  20
579.6427
  0
VERTEX
  5
3bc
  8
Layer_1
  10
5.7977676
  20
579.76086
  0
VERTEX
  5
3bd
  8
Layer_1
  10
5.8070831
  20
579.87885
  0
VERTEX
  5
3be
  8
Layer_1
  10
5.8226318
  20
579.99634
  0
VERTEX
  5
3bf
  8
Layer_1
  10
5.8443527
  20
580.11292
  0
VERTEX
  5
3c0
  8
Layer_1
  10
5.8721161
  20
580.22797
  0
VERTEX
  5
3c1
  8
Layer_1
  10
5.9058533
  20
580.34131
  0
VERTEX
  5
3c2
  8
Layer_1
  10
5.9454803
  20
580.45258
  0
VERTEX
  5
3c3
  8
Layer_1
  10
5.9906464
  20
580.56171
  0
VERTEX
  5
3c4
  8
Layer_1
  10
5.9906464
  20
583.45483
  0
VERTEX
  5
3c5
  8
Layer_1
  10
5.9934187
  20
583.70819
  0
VERTEX
  5
3c6
  8
Layer_1
  10
6.0017242
  20
583.96143
  0
VERTEX
  5
3c7
  8
Layer_1
  10
6.0354319
  20
584.4729
  0
VERTEX
  5
3c8
  8
Layer_1
  10
6.0916758
  20
584.98212
  0
VERTEX
  5
3c9
  8
Layer_1
  10
6.1703568
  20
585.4884
  0
VERTEX
  5
3ca
  8
Layer_1
  10
6.2713776
  20
585.99091
  0
VERTEX
  5
3cb
  8
Layer_1
  10
6.4134989
  20
586.55756
  0
VERTEX
  5
3cc
  8
Layer_1
  10
6.5842819
  20
587.11627
  0
VERTEX
  5
3cd
  8
Layer_1
  10
6.580658
  20
587.24677
  0
VERTEX
  5
3ce
  8
Layer_1
  10
6.5846252
  20
587.37744
  0
VERTEX
  5
3cf
  8
Layer_1
  10
6.5962143
  20
587.50787
  0
VERTEX
  5
3d0
  8
Layer_1
  10
6.6153793
  20
587.63757
  0
VERTEX
  5
3d1
  8
Layer_1
  10
6.6419907
  20
587.76563
  0
VERTEX
  5
3d2
  8
Layer_1
  10
6.675972
  20
587.89178
  0
VERTEX
  5
3d3
  8
Layer_1
  10
6.7172012
  20
588.01569
  0
VERTEX
  5
3d4
  8
Layer_1
  10
6.7655411
  20
588.13708
  0
VERTEX
  5
3d5
  8
Layer_1
  10
6.8209229
  20
588.25555
  0
VERTEX
  5
3d6
  8
Layer_1
  10
6.8832397
  20
588.37079
  0
VERTEX
  5
3d7
  8
Layer_1
  10
6.9521255
  20
588.48224
  0
VERTEX
  5
3d8
  8
Layer_1
  10
7.0272369
  20
588.58929
  0
VERTEX
  5
3d9
  8
Layer_1
  10
7.1083374
  20
588.69165
  0
VERTEX
  5
3da
  8
Layer_1
  10
7.1951981
  20
588.78918
  0
VERTEX
  5
3db
  8
Layer_1
  10
7.2876511
  20
588.88153
  0
VERTEX
  5
3dc
  8
Layer_1
  10
7.3852921
  20
588.96857
  0
VERTEX
  5
3dd
  8
Layer_1
  10
7.6856871
  20
589.49139
  0
VERTEX
  5
3de
  8
Layer_1
  10
8.0128555
  20
589.99792
  0
VERTEX
  5
3df
  8
Layer_1
  10
8.3401566
  20
590.45288
  0
VERTEX
  5
3e0
  8
Layer_1
  10
8.6888409
  20
590.89117
  0
VERTEX
  5
3e1
  8
Layer_1
  10
9.0582819
  20
591.31219
  0
VERTEX
  5
3e2
  8
Layer_1
  10
9.4478531
  20
591.71509
  0
VERTEX
  5
3e3
  8
Layer_1
  10
9.6307287
  20
591.89136
  0
VERTEX
  5
3e4
  8
Layer_1
  10
9.817421
  20
592.0636
  0
VERTEX
  5
3e5
  8
Layer_1
  10
10.242413
  20
592.42896
  0
VERTEX
  5
3e6
  8
Layer_1
  10
10.684292
  20
592.77313
  0
VERTEX
  5
3e7
  8
Layer_1
  10
11.142273
  20
593.09558
  0
VERTEX
  5
3e8
  8
Layer_1
  10
11.61557
  20
593.39569
  0
VERTEX
  5
3e9
  8
Layer_1
  10
12.128762
  20
593.6864
  0
VERTEX
  5
3ea
  8
Layer_1
  10
12.656174
  20
593.95044
  0
VERTEX
  5
3eb
  8
Layer_1
  10
12.728371
  20
594.02246
  0
VERTEX
  5
3ec
  8
Layer_1
  10
12.803864
  20
594.09125
  0
VERTEX
  5
3ed
  8
Layer_1
  10
12.882416
  20
594.15656
  0
VERTEX
  5
3ee
  8
Layer_1
  10
12.963707
  20
594.21814
  0
VERTEX
  5
3ef
  8
Layer_1
  10
13.047615
  20
594.27594
  0
VERTEX
  5
3f0
  8
Layer_1
  10
13.133972
  20
594.32977
  0
VERTEX
  5
3f1
  8
Layer_1
  10
13.222664
  20
594.3797
  0
VERTEX
  5
3f2
  8
Layer_1
  10
13.313545
  20
594.4256
  0
VERTEX
  5
3f3
  8
Layer_1
  10
13.406487
  20
594.46735
  0
VERTEX
  5
3f4
  8
Layer_1
  10
13.501343
  20
594.50494
  0
VERTEX
  5
3f5
  8
Layer_1
  10
13.597969
  20
594.53821
  0
VERTEX
  5
3f6
  8
Layer_1
  10
13.6959
  20
594.56702
  0
VERTEX
  5
3f7
  8
Layer_1
  10
13.794876
  20
594.59137
  0
VERTEX
  5
3f8
  8
Layer_1
  10
13.894783
  20
594.61121
  0
VERTEX
  5
3f9
  8
Layer_1
  10
13.995384
  20
594.62653
  0
VERTEX
  5
3fa
  8
Layer_1
  10
14.096603
  20
594.63727
  0
VERTEX
  5
3fb
  8
Layer_1
  10
14.198257
  20
594.64343
  0
VERTEX
  5
3fc
  8
Layer_1
  10
14.300186
  20
594.64496
  0
VERTEX
  5
3fd
  8
Layer_1
  10
14.402222
  20
594.64191
  0
VERTEX
  5
3fe
  8
Layer_1
  10
14.504166
  20
594.63416
  0
VERTEX
  5
3ff
  8
Layer_1
  10
15.107319
  20
594.7832
  0
VERTEX
  5
400
  8
Layer_1
  10
15.71759
  20
594.89978
  0
VERTEX
  5
401
  8
Layer_1
  10
16.272713
  20
594.97675
  0
VERTEX
  5
402
  8
Layer_1
  10
16.830576
  20
595.02679
  0
VERTEX
  5
403
  8
Layer_1
  10
17.390205
  20
595.0498
  0
VERTEX
  5
404
  8
Layer_1
  10
17.950623
  20
595.04578
  0
VERTEX
  5
405
  8
Layer_1
  10
18.204414
  20
595.0351
  0
VERTEX
  5
406
  8
Layer_1
  10
18.457909
  20
595.0188
  0
VERTEX
  5
407
  8
Layer_1
  10
19.015579
  20
594.9632
  0
VERTEX
  5
408
  8
Layer_1
  10
19.569592
  20
594.8808
  0
VERTEX
  5
409
  8
Layer_1
  10
20.11898
  20
594.77179
  0
VERTEX
  5
40a
  8
Layer_1
  10
20.662781
  20
594.63623
  0
VERTEX
  5
40b
  8
Layer_1
  10
21.246078
  20
594.45917
  0
VERTEX
  5
40c
  8
Layer_1
  10
21.819252
  20
594.25165
  0
VERTEX
  5
40d
  8
Layer_1
  10
21.941284
  20
594.24573
  0
VERTEX
  5
40e
  8
Layer_1
  10
22.062645
  20
594.23315
  0
VERTEX
  5
40f
  8
Layer_1
  10
22.183113
  20
594.21411
  0
VERTEX
  5
410
  8
Layer_1
  10
22.302368
  20
594.18854
  0
VERTEX
  5
411
  8
Layer_1
  10
22.420174
  20
594.15656
  0
VERTEX
  5
412
  8
Layer_1
  10
22.536278
  20
594.11816
  0
VERTEX
  5
413
  8
Layer_1
  10
22.650261
  20
594.07343
  0
VERTEX
  5
414
  8
Layer_1
  10
22.761452
  20
594.02271
  0
VERTEX
  5
415
  8
Layer_1
  10
22.869591
  20
593.96613
  0
VERTEX
  5
416
  8
Layer_1
  10
22.974449
  20
593.90381
  0
VERTEX
  5
417
  8
Layer_1
  10
23.075768
  20
593.83594
  0
VERTEX
  5
418
  8
Layer_1
  10
23.17334
  20
593.76263
  0
VERTEX
  5
419
  8
Layer_1
  10
23.26693
  20
593.68402
  0
VERTEX
  5
41a
  8
Layer_1
  10
23.356277
  20
593.60028
  0
VERTEX
  5
41b
  8
Layer_1
  10
23.440804
  20
593.51202
  0
VERTEX
  5
41c
  8
Layer_1
  10
23.520325
  20
593.41937
  0
VERTEX
  5
41d
  8
Layer_1
  10
24.060802
  20
593.0766
  0
VERTEX
  5
41e
  8
Layer_1
  10
24.581726
  20
592.70477
  0
VERTEX
  5
41f
  8
Layer_1
  10
25.020451
  20
592.35608
  0
VERTEX
  5
420
  8
Layer_1
  10
25.441574
  20
591.98676
  0
VERTEX
  5
421
  8
Layer_1
  10
25.844376
  20
591.5976
  0
VERTEX
  5
422
  8
Layer_1
  10
26.228134
  20
591.18915
  0
VERTEX
  5
423
  8
Layer_1
  10
26.39546
  20
590.99805
  0
VERTEX
  5
424
  8
Layer_1
  10
26.558563
  20
590.80328
  0
VERTEX
  5
425
  8
Layer_1
  10
26.903118
  20
590.36127
  0
VERTEX
  5
426
  8
Layer_1
  10
27.225731
  20
589.90344
  0
VERTEX
  5
427
  8
Layer_1
  10
27.52586
  20
589.43054
  0
VERTEX
  5
428
  8
Layer_1
  10
27.802956
  20
588.94336
  0
VERTEX
  5
429
  8
Layer_1
  10
28.086479
  20
588.37939
  0
VERTEX
  5
42a
  8
Layer_1
  10
28.33889
  20
587.80078
  0
VERTEX
  5
42b
  8
Layer_1
  10
28.415047
  20
587.71051
  0
VERTEX
  5
42c
  8
Layer_1
  10
28.486122
  20
587.61633
  0
VERTEX
  5
42d
  8
Layer_1
  10
28.552193
  20
587.51849
  0
VERTEX
  5
42e
  8
Layer_1
  10
28.613121
  20
587.41724
  0
VERTEX
  5
42f
  8
Layer_1
  10
28.668739
  20
587.31268
  0
VERTEX
  5
430
  8
Layer_1
  10
28.718788
  20
587.20538
  0
VERTEX
  5
431
  8
Layer_1
  10
28.763039
  20
587.09576
  0
VERTEX
  5
432
  8
Layer_1
  10
28.80146
  20
586.98413
  0
VERTEX
  5
433
  8
Layer_1
  10
28.833923
  20
586.87073
  0
VERTEX
  5
434
  8
Layer_1
  10
28.860458
  20
586.75568
  0
VERTEX
  5
435
  8
Layer_1
  10
28.880898
  20
586.6394
  0
VERTEX
  5
436
  8
Layer_1
  10
28.89521
  20
586.52197
  0
VERTEX
  5
437
  8
Layer_1
  10
28.903358
  20
586.40375
  0
VERTEX
  5
438
  8
Layer_1
  10
28.905273
  20
586.28552
  0
VERTEX
  5
439
  8
Layer_1
  10
28.900978
  20
586.16748
  0
VERTEX
  5
43a
  8
Layer_1
  10
28.890488
  20
586.04993
  0
VERTEX
  5
43b
  8
Layer_1
  10
29.017231
  20
585.41498
  0
VERTEX
  5
43c
  8
Layer_1
  10
29.108749
  20
584.77399
  0
VERTEX
  5
43d
  8
Layer_1
  10
29.165197
  20
584.11548
  0
VERTEX
  5
43e
  8
Layer_1
  10
29.184029
  20
583.45483
  0
VERTEX
  5
43f
  8
Layer_1
  10
29.184639
  20
579.47253
  0
VERTEX
  5
440
  8
Layer_1
  10
29.209717
  20
579.40613
  0
VERTEX
  5
441
  8
Layer_1
  10
29.232681
  20
579.33911
  0
VERTEX
  5
442
  8
Layer_1
  10
29.253494
  20
579.27142
  0
VERTEX
  5
443
  8
Layer_1
  10
29.272141
  20
579.20325
  0
VERTEX
  5
444
  8
Layer_1
  10
29.288651
  20
579.13446
  0
VERTEX
  5
445
  8
Layer_1
  10
29.302971
  20
579.06525
  0
VERTEX
  5
446
  8
Layer_1
  10
29.315132
  20
578.99567
  0
VERTEX
  5
447
  8
Layer_1
  10
29.32505
  20
578.92566
  0
VERTEX
  5
448
  8
Layer_1
  10
29.332848
  20
578.85535
  0
VERTEX
  5
449
  8
Layer_1
  10
29.338364
  20
578.78485
  0
VERTEX
  5
44a
  8
Layer_1
  10
29.341705
  20
578.71411
  0
VERTEX
  5
44b
  8
Layer_1
  10
29.342789
  20
578.64319
  0
VERTEX
  5
44c
  8
Layer_1
  10
29.34166
  20
578.5722
  0
VERTEX
  5
44d
  8
Layer_1
  10
29.33828
  20
578.5014
  0
VERTEX
  5
44e
  8
Layer_1
  10
29.332664
  20
578.43079
  0
VERTEX
  5
44f
  8
Layer_1
  10
29.32486
  20
578.36047
  0
VERTEX
  5
450
  8
Layer_1
  10
29.314835
  20
578.29053
  0
VERTEX
  5
451
  8
Layer_1
  10
29.302643
  20
578.22089
  0
VERTEX
  5
452
  8
Layer_1
  10
29.288269
  20
578.15173
  0
VERTEX
  5
453
  8
Layer_1
  10
29.271713
  20
578.08301
  0
VERTEX
  5
454
  8
Layer_1
  10
29.252991
  20
578.01483
  0
VERTEX
  5
455
  8
Layer_1
  10
29.23214
  20
577.9472
  0
VERTEX
  5
456
  8
Layer_1
  10
29.209129
  20
577.88025
  0
VERTEX
  5
457
  8
Layer_1
  10
29.184021
  20
577.81396
  0
VERTEX
  5
458
  8
Layer_1
  10
29.184021
  20
577.52081
  0
VERTEX
  5
459
  8
Layer_1
  10
32.421844
  20
577.52081
  0
VERTEX
  5
45a
  8
Layer_1
  10
32.421844
  20
589.5766
  0
VERTEX
  5
45b
  8
Layer_1
  10
32.382942
  20
590.3938
  0
VERTEX
  5
45c
  8
Layer_1
  10
32.268524
  20
591.19006
  0
VERTEX
  5
45d
  8
Layer_1
  10
32.082027
  20
591.96173
  0
VERTEX
  5
45e
  8
Layer_1
  10
31.826891
  20
592.70496
  0
VERTEX
  5
45f
  8
Layer_1
  10
31.506554
  20
593.41608
  0
VERTEX
  5
460
  8
Layer_1
  10
31.124451
  20
594.09131
  0
VERTEX
  5
461
  8
Layer_1
  10
30.684021
  20
594.72693
  0
VERTEX
  5
462
  8
Layer_1
  10
30.188702
  20
595.31909
  0
VERTEX
  5
463
  8
Layer_1
  10
29.641933
  20
595.86414
  0
VERTEX
  5
464
  8
Layer_1
  10
29.04715
  20
596.35834
  0
VERTEX
  5
465
  8
Layer_1
  10
28.407789
  20
596.79779
  0
VERTEX
  5
466
  8
Layer_1
  10
27.727291
  20
597.17889
  0
VERTEX
  5
467
  8
Layer_1
  10
27.009092
  20
597.49786
  0
VERTEX
  5
468
  8
Layer_1
  10
26.25663
  20
597.75092
  0
VERTEX
  5
469
  8
Layer_1
  10
25.473343
  20
597.93427
  0
VERTEX
  5
46a
  8
Layer_1
  10
24.662666
  20
598.04425
  0
VERTEX
  5
46b
  8
Layer_1
  10
8.0526886
  20
599.49744
  0
VERTEX
  5
46c
  8
Layer_1
  10
8.0169525
  20
599.49933
  0
VERTEX
  5
46d
  8
Layer_1
  10
7.9455185
  20
599.49548
  0
VERTEX
  5
46e
  8
Layer_1
  10
7.8753357
  20
599.48169
  0
VERTEX
  5
46f
  8
Layer_1
  10
7.8078232
  20
599.45819
  0
VERTEX
  5
470
  8
Layer_1
  10
7.7444382
  20
599.42554
  0
VERTEX
  5
471
  8
Layer_1
  10
7.6862259
  20
599.38428
  0
VERTEX
  5
472
  8
Layer_1
  10
7.6342773
  20
599.33521
  0
VERTEX
  5
473
  8
Layer_1
  10
7.5898209
  20
599.27954
  0
VERTEX
  5
474
  8
Layer_1
  10
7.5535355
  20
599.21802
  0
VERTEX
  5
475
  8
Layer_1
  10
7.5262375
  20
599.15204
  0
VERTEX
  5
476
  8
Layer_1
  10
7.5085068
  20
599.08301
  0
VERTEX
  5
477
  8
Layer_1
  10
7.5005798
  20
599.01202
  0
VERTEX
  5
478
  8
Layer_1
  10
7.5027237
  20
598.94067
  0
VERTEX
  5
479
  8
Layer_1
  10
7.514801
  20
598.87042
  0
VERTEX
  5
47a
  8
Layer_1
  10
7.5501251
  20
598.75244
  0
VERTEX
  5
47b
  8
Layer_1
  10
7.5734253
  20
598.66742
  0
VERTEX
  5
47c
  8
Layer_1
  10
7.5943451
  20
598.58124
  0
VERTEX
  5
47d
  8
Layer_1
  10
7.6129456
  20
598.49414
  0
VERTEX
  5
47e
  8
Layer_1
  10
7.6291733
  20
598.40649
  0
VERTEX
  5
47f
  8
Layer_1
  10
7.6430435
  20
598.31873
  0
VERTEX
  5
480
  8
Layer_1
  10
7.6545563
  20
598.23114
  0
VERTEX
  5
481
  8
Layer_1
  10
7.6636734
  20
598.14404
  0
VERTEX
  5
482
  8
Layer_1
  10
7.6704178
  20
598.05792
  0
VERTEX
  5
483
  8
Layer_1
  10
7.6747513
  20
597.97302
  0
VERTEX
  5
484
  8
Layer_1
  10
7.6766739
  20
597.88977
  0
VERTEX
  5
485
  8
Layer_1
  10
7.6761475
  20
597.8075
  0
VERTEX
  5
486
  8
Layer_1
  10
7.673027
  20
597.72357
  0
VERTEX
  5
487
  8
Layer_1
  10
7.6673355
  20
597.63831
  0
VERTEX
  5
488
  8
Layer_1
  10
7.6591721
  20
597.55188
  0
VERTEX
  5
489
  8
Layer_1
  10
7.648613
  20
597.46472
  0
VERTEX
  5
48a
  8
Layer_1
  10
7.6356888
  20
597.37714
  0
VERTEX
  5
48b
  8
Layer_1
  10
7.6205063
  20
597.28949
  0
VERTEX
  5
48c
  8
Layer_1
  10
7.6031036
  20
597.20209
  0
VERTEX
  5
48d
  8
Layer_1
  10
7.58358
  20
597.1153
  0
VERTEX
  5
48e
  8
Layer_1
  10
7.5619354
  20
597.02948
  0
VERTEX
  5
48f
  8
Layer_1
  10
7.5383453
  20
596.94489
  0
VERTEX
  5
490
  8
Layer_1
  10
7.5127716
  20
596.862
  0
VERTEX
  5
491
  8
Layer_1
  10
7.4853363
  20
596.78101
  0
VERTEX
  5
492
  8
Layer_1
  10
7.4561234
  20
596.70233
  0
VERTEX
  5
493
  8
Layer_1
  10
7.4250793
  20
596.62616
  0
VERTEX
  5
494
  8
Layer_1
  10
7.3912277
  20
596.55005
  0
VERTEX
  5
495
  8
Layer_1
  10
7.3544159
  20
596.47351
  0
VERTEX
  5
496
  8
Layer_1
  10
7.314827
  20
596.39679
  0
VERTEX
  5
497
  8
Layer_1
  10
7.2726135
  20
596.32019
  0
VERTEX
  5
498
  8
Layer_1
  10
7.2280426
  20
596.24402
  0
VERTEX
  5
499
  8
Layer_1
  10
7.1812439
  20
596.16852
  0
VERTEX
  5
49a
  8
Layer_1
  10
7.132431
  20
596.09399
  0
VERTEX
  5
49b
  8
Layer_1
  10
7.0818253
  20
596.02075
  0
VERTEX
  5
49c
  8
Layer_1
  10
7.0295563
  20
595.94904
  0
VERTEX
  5
49d
  8
Layer_1
  10
6.9758682
  20
595.87921
  0
VERTEX
  5
49e
  8
Layer_1
  10
6.9209518
  20
595.81146
  0
VERTEX
  5
49f
  8
Layer_1
  10
6.864975
  20
595.74615
  0
VERTEX
  5
4a0
  8
Layer_1
  10
6.8081284
  20
595.68353
  0
VERTEX
  5
4a1
  8
Layer_1
  10
6.7506485
  20
595.62396
  0
VERTEX
  5
4a2
  8
Layer_1
  10
6.691452
  20
595.56641
  0
VERTEX
  5
4a3
  8
Layer_1
  10
6.6292343
  20
595.50946
  0
VERTEX
  5
4a4
  8
Layer_1
  10
6.56427
  20
595.45337
  0
VERTEX
  5
4a5
  8
Layer_1
  10
6.4968567
  20
595.39832
  0
VERTEX
  5
4a6
  8
Layer_1
  10
6.4272537
  20
595.34448
  0
VERTEX
  5
4a7
  8
Layer_1
  10
6.3557892
  20
595.29199
  0
VERTEX
  5
4a8
  8
Layer_1
  10
6.2827072
  20
595.24115
  0
VERTEX
  5
4a9
  8
Layer_1
  10
6.2083282
  20
595.19208
  0
VERTEX
  5
4aa
  8
Layer_1
  10
6.1329269
  20
595.14502
  0
VERTEX
  5
4ab
  8
Layer_1
  10
6.0568237
  20
595.10016
  0
VERTEX
  5
4ac
  8
Layer_1
  10
5.9802475
  20
595.05762
  0
VERTEX
  5
4ad
  8
Layer_1
  10
5.9035263
  20
595.01764
  0
VERTEX
  5
4ae
  8
Layer_1
  10
5.8269348
  20
594.98047
  0
VERTEX
  5
4af
  8
Layer_1
  10
5.7507553
  20
594.94623
  0
VERTEX
  5
4b0
  8
Layer_1
  10
5.6747742
  20
594.91479
  0
VERTEX
  5
4b1
  8
Layer_1
  10
5.5965576
  20
594.88489
  0
VERTEX
  5
4b2
  8
Layer_1
  10
5.5160599
  20
594.85657
  0
VERTEX
  5
4b3
  8
Layer_1
  10
5.4335785
  20
594.82996
  0
VERTEX
  5
4b4
  8
Layer_1
  10
5.3493958
  20
594.80536
  0
VERTEX
  5
4b5
  8
Layer_1
  10
5.2638626
  20
594.7829
  0
VERTEX
  5
4b6
  8
Layer_1
  10
5.2638626
  20
591.51489
  0
VERTEX
  5
4b7
  8
Layer_1
  10
3.7398682
  20
591.51489
  0
VERTEX
  5
4b8
  8
Layer_1
  10
3.7398682
  20
594.78217
  0
VERTEX
  5
4b9
  8
Layer_1
  10
3.5826263
  20
594.82532
  0
VERTEX
  5
4ba
  8
Layer_1
  10
3.4309311
  20
594.87531
  0
VERTEX
  5
4bb
  8
Layer_1
  10
3.2867355
  20
594.93073
  0
VERTEX
  5
4bc
  8
Layer_1
  10
3.1459427
  20
594.99377
  0
VERTEX
  5
4bd
  8
Layer_1
  10
3.004097
  20
595.06659
  0
VERTEX
  5
4be
  8
Layer_1
  10
2.8629684
  20
595.14807
  0
VERTEX
  5
4bf
  8
Layer_1
  10
2.7244034
  20
595.23694
  0
VERTEX
  5
4c0
  8
Layer_1
  10
2.5902481
  20
595.33203
  0
VERTEX
  5
4c1
  8
Layer_1
  10
2.4622955
  20
595.43207
  0
VERTEX
  5
4c2
  8
Layer_1
  10
2.3423843
  20
595.53583
  0
VERTEX
  5
4c3
  8
Layer_1
  10
2.2320938
  20
595.6424
  0
VERTEX
  5
4c4
  8
Layer_1
  10
2.1266556
  20
595.75671
  0
VERTEX
  5
4c5
  8
Layer_1
  10
2.0242615
  20
595.88019
  0
VERTEX
  5
4c6
  8
Layer_1
  10
1.9261169
  20
596.01093
  0
VERTEX
  5
4c7
  8
Layer_1
  10
1.8334351
  20
596.14709
  0
VERTEX
  5
4c8
  8
Layer_1
  10
1.7474823
  20
596.28693
  0
VERTEX
  5
4c9
  8
Layer_1
  10
1.6694183
  20
596.42859
  0
VERTEX
  5
4ca
  8
Layer_1
  10
1.600502
  20
596.57019
  0
VERTEX
  5
4cb
  8
Layer_1
  10
1.5414505
  20
596.71118
  0
VERTEX
  5
4cc
  8
Layer_1
  10
1.4891434
  20
596.85901
  0
VERTEX
  5
4cd
  8
Layer_1
  10
1.4432678
  20
597.01355
  0
VERTEX
  5
4ce
  8
Layer_1
  10
1.4042053
  20
597.17273
  0
VERTEX
  5
4cf
  8
Layer_1
  10
1.3723755
  20
597.33441
  0
VERTEX
  5
4d0
  8
Layer_1
  10
1.3482513
  20
597.4964
  0
VERTEX
  5
4d1
  8
Layer_1
  10
1.3322067
  20
597.65649
  0
VERTEX
  5
4d2
  8
Layer_1
  10
1.3247223
  20
597.81262
  0
VERTEX
  5
4d3
  8
Layer_1
  10
1.3261261
  20
597.96558
  0
VERTEX
  5
4d4
  8
Layer_1
  10
1.3363571
  20
598.12317
  0
VERTEX
  5
4d5
  8
Layer_1
  10
1.3550034
  20
598.28412
  0
VERTEX
  5
4d6
  8
Layer_1
  10
1.3815994
  20
598.44623
  0
VERTEX
  5
4d7
  8
Layer_1
  10
1.415741
  20
598.60736
  0
VERTEX
  5
4d8
  8
Layer_1
  10
1.4570084
  20
598.76532
  0
VERTEX
  5
4d9
  8
Layer_1
  10
1.5049438
  20
598.91797
  0
VERTEX
  5
4da
  8
Layer_1
  10
1.5591431
  20
599.06323
  0
VERTEX
  5
4db
  8
Layer_1
  10
1.6206284
  20
599.20416
  0
VERTEX
  5
4dc
  8
Layer_1
  10
1.7067337
  20
599.37854
  0
VERTEX
  5
4dd
  8
Layer_1
  10
1.7309113
  20
599.44586
  0
VERTEX
  5
4de
  8
Layer_1
  10
1.7453766
  20
599.51587
  0
VERTEX
  5
4df
  8
Layer_1
  10
1.749855
  20
599.58728
  0
VERTEX
  5
4e0
  8
Layer_1
  10
1.7443161
  20
599.65833
  0
VERTEX
  5
4e1
  8
Layer_1
  10
1.7288513
  20
599.72797
  0
VERTEX
  5
4e2
  8
Layer_1
  10
1.7037277
  20
599.79486
  0
VERTEX
  5
4e3
  8
Layer_1
  10
1.6695709
  20
599.85742
  0
VERTEX
  5
4e4
  8
Layer_1
  10
1.6268997
  20
599.91467
  0
VERTEX
  5
4e5
  8
Layer_1
  10
1.5766602
  20
599.96539
  0
VERTEX
  5
4e6
  8
Layer_1
  10
1.5198898
  20
600.00848
  0
VERTEX
  5
4e7
  8
Layer_1
  10
1.4574738
  20
600.04333
  0
VERTEX
  5
4e8
  8
Layer_1
  10
1.3909149
  20
600.06897
  0
VERTEX
  5
4e9
  8
Layer_1
  10
1.3214722
  20
600.08508
  0
VERTEX
  5
4ea
  8
Layer_1
  10
7.6293945e-06
  20
600.20197
  0
VERTEX
  5
4eb
  8
Layer_1
  10
7.6293945e-06
  20
584.9646
  0
VERTEX
  5
4ec
  8
Layer_1
  10
0.028856631
  20
584.29932
  0
VERTEX
  5
4ed
  8
Layer_1
  10
0.11395332
  20
583.64813
  0
VERTEX
  5
4ee
  8
Layer_1
  10
0.25311795
  20
583.01361
  0
VERTEX
  5
4ef
  8
Layer_1
  10
0.44417071
  20
582.39862
  0
VERTEX
  5
4f0
  8
Layer_1
  10
0.68493187
  20
581.80573
  0
VERTEX
  5
4f1
  8
Layer_1
  10
0.97322166
  20
581.23767
  0
VERTEX
  5
4f2
  8
Layer_1
  10
1.3068603
  20
580.69727
  0
VERTEX
  5
4f3
  8
Layer_1
  10
1.6836681
  20
580.18707
  0
VERTEX
  5
4f4
  8
Layer_1
  10
2.1014652
  20
579.7099
  0
VERTEX
  5
4f5
  8
Layer_1
  10
2.5580719
  20
579.26843
  0
VERTEX
  5
4f6
  8
Layer_1
  10
3.0513084
  20
578.86536
  0
VERTEX
  5
4f7
  8
Layer_1
  10
3.578995
  20
578.50336
  0
VERTEX
  5
4f8
  8
Layer_1
  10
4.1389518
  20
578.18524
  0
VERTEX
  5
4f9
  8
Layer_1
  10
4.7289991
  20
577.91364
  0
VERTEX
  5
4fa
  8
Layer_1
  10
5.3469572
  20
577.69122
  0
VERTEX
  5
4fb
  8
Layer_1
  10
5.9906464
  20
577.52081
  0
VERTEX
  5
4fc
  8
Layer_1
  10
5.9910202
  20
578.72369
  0
SEQEND
  0
POLYLINE
  5
4fe
  8
Layer_0
  62
1
  70
1
  66
1
  10
0
  20
0
  30
0
  0
VERTEX
  5
4fe
  8
Layer_0
  10
4.4992981
  20
588.86481
  0
VERTEX
  5
4ff
  8
Layer_0
  10
4.4789815
  20
588.66327
  0
VERTEX
  5
500
  8
Layer_0
  10
4.4207134
  20
588.47559
  0
VERTEX
  5
501
  8
Layer_0
  10
4.3285141
  20
588.30573
  0
VERTEX
  5
502
  8
Layer_0
  10
4.2064047
  20
588.15771
  0
VERTEX
  5
503
  8
Layer_0
  10
4.0584073
  20
588.03558
  0
VERTEX
  5
504
  8
Layer_0
  10
3.8885431
  20
587.94342
  0
VERTEX
  5
505
  8
Layer_0
  10
3.7008328
  20
587.88513
  0
VERTEX
  5
506
  8
Layer_0
  10
3.4992979
  20
587.86481
  0
VERTEX
  5
507
  8
Layer_0
  10
3.2977629
  20
587.88513
  0
VERTEX
  5
508
  8
Layer_0
  10
3.1100526
  20
587.94342
  0
VERTEX
  5
509
  8
Layer_0
  10
2.9401884
  20
588.03558
  0
VERTEX
  5
50a
  8
Layer_0
  10
2.792191
  20
588.15771
  0
VERTEX
  5
50b
  8
Layer_0
  10
2.6700821
  20
588.30573
  0
VERTEX
  5
50c
  8
Layer_0
  10
2.577883
  20
588.47559
  0
VERTEX
  5
50d
  8
Layer_0
  10
2.5196147
  20
588.66327
  0
VERTEX
  5
50e
  8
Layer_0
  10
2.4992981
  20
588.86481
  0
VERTEX
  5
50f
  8
Layer_0
  10
2.5196147
  20
589.06635
  0
VERTEX
  5
510
  8
Layer_0
  10
2.5778832
  20
589.25403
  0
VERTEX
  5
511
  8
Layer_0
  10
2.6700826
  20
589.42389
  0
VERTEX
  5
512
  8
Layer_0
  10
2.7921915
  20
589.5719
  0
VERTEX
  5
513
  8
Layer_0
  10
2.9401889
  20
589.69403
  0
VERTEX
  5
514
  8
Layer_0
  10
3.1100531
  20
589.78619
  0
VERTEX
  5
515
  8
Layer_0
  10
3.2977633
  20
589.84448
  0
VERTEX
  5
516
  8
Layer_0
  10
3.4992983
  20
589.86481
  0
VERTEX
  5
517
  8
Layer_0
  10
3.7008333
  20
589.84448
  0
VERTEX
  5
518
  8
Layer_0
  10
3.8885434
  20
589.78619
  0
VERTEX
  5
519
  8
Layer_0
  10
4.0584073
  20
589.69403
  0
VERTEX
  5
51a
  8
Layer_0
  10
4.2064047
  20
589.5719
  0
VERTEX
  5
51b
  8
Layer_0
  10
4.3285141
  20
589.42389
  0
VERTEX
  5
51c
  8
Layer_0
  10
4.4207134
  20
589.25403
  0
VERTEX
  5
51d
  8
Layer_0
  10
4.4789815
  20
589.06635
  0
VERTEX
  5
51e
  8
Layer_0
  10
4.4992981
  20
588.86481
  0
SEQEND
  0
POLYLINE
  5
520
  8
Layer_0
  62
1
  70
1
  66
1
  10
0
  20
0
  30
0
  0
VERTEX
  5
520
  8
Layer_0
  10
58.288391
  20
583.20538
  0
VERTEX
  5
521
  8
Layer_0
  10
58.268074
  20
583.00385
  0
VERTEX
  5
522
  8
Layer_0
  10
58.209805
  20
582.81616
  0
VERTEX
  5
523
  8
Layer_0
  10
58.117607
  20
582.6463
  0
VERTEX
  5
524
  8
Layer_0
  10
57.995499
  20
582.49829
  0
VERTEX
  5
525
  8
Layer_0
  10
57.847496
  20
582.37616
  0
VERTEX
  5
526
  8
Layer_0
  10
57.677635
  20
582.284
  0
VERTEX
  5
527
  8
Layer_0
  10
57.489925
  20
582.22571
  0
VERTEX
  5
528
  8
Layer_0
  10
57.288391
  20
582.20538
  0
VERTEX
  5
529
  8
Layer_0
  10
57.086857
  20
582.22571
  0
VERTEX
  5
52a
  8
Layer_0
  10
56.899147
  20
582.284
  0
VERTEX
  5
52b
  8
Layer_0
  10
56.729286
  20
582.37616
  0
VERTEX
  5
52c
  8
Layer_0
  10
56.581284
  20
582.49829
  0
VERTEX
  5
52d
  8
Layer_0
  10
56.459175
  20
582.6463
  0
VERTEX
  5
52e
  8
Layer_0
  10
56.366978
  20
582.81616
  0
VERTEX
  5
52f
  8
Layer_0
  10
56.308708
  20
583.00385
  0
VERTEX
  5
530
  8
Layer_0
  10
56.288391
  20
583.20538
  0
VERTEX
  5
531
  8
Layer_0
  10
56.308708
  20
583.40692
  0
VERTEX
  5
532
  8
Layer_0
  10
56.366978
  20
583.5946
  0
VERTEX
  5
533
  8
Layer_0
  10
56.459175
  20
583.76447
  0
VERTEX
  5
534
  8
Layer_0
  10
56.581284
  20
583.91248
  0
VERTEX
  5
535
  8
Layer_0
  10
56.729286
  20
584.03461
  0
VERTEX
  5
536
  8
Layer_0
  10
56.899147
  20
584.12677
  0
VERTEX
  5
537
  8
Layer_0
  10
57.086857
  20
584.18506
  0
VERTEX
  5
538
  8
Layer_0
  10
57.288391
  20
584.20538
  0
VERTEX
  5
539
  8
Layer_0
  10
57.489925
  20
584.18506
  0
VERTEX
  5
53a
  8
Layer_0
  10
57.677635
  20
584.12677
  0
VERTEX
  5
53b
  8
Layer_0
  10
57.847496
  20
584.03461
  0
VERTEX
  5
53c
  8
Layer_0
  10
57.995499
  20
583.91248
  0
VERTEX
  5
53d
  8
Layer_0
  10
58.117607
  20
583.76447
  0
VERTEX
  5
53e
  8
Layer_0
  10
58.209805
  20
583.5946
  0
VERTEX
  5
53f
  8
Layer_0
  10
58.268074
  20
583.40692
  0
VERTEX
  5
540
  8
Layer_0
  10
58.288391
  20
583.20538
  0
SEQEND
  0
POLYLINE
  5
542
  8
Layer_0
  62
1
  70
1
  66
1
  10
0
  20
0
  30
0
  0
VERTEX
  5
542
  8
Layer_0
  10
58.288391
  20
585.70538
  0
VERTEX
  5
543
  8
Layer_0
  10
58.268074
  20
585.50385
  0
VERTEX
  5
544
  8
Layer_0
  10
58.209805
  20
585.31616
  0
VERTEX
  5
545
  8
Layer_0
  10
58.117607
  20
585.1463
  0
VERTEX
  5
546
  8
Layer_0
  10
57.995499
  20
584.99829
  0
VERTEX
  5
547
  8
Layer_0
  10
57.847496
  20
584.87616
  0
VERTEX
  5
548
  8
Layer_0
  10
57.677635
  20
584.784
  0
VERTEX
  5
549
  8
Layer_0
  10
57.489925
  20
584.72571
  0
VERTEX
  5
54a
  8
Layer_0
  10
57.288391
  20
584.70538
  0
VERTEX
  5
54b
  8
Layer_0
  10
57.086857
  20
584.72571
  0
VERTEX
  5
54c
  8
Layer_0
  10
56.899147
  20
584.784
  0
VERTEX
  5
54d
  8
Layer_0
  10
56.729286
  20
584.87616
  0
VERTEX
  5
54e
  8
Layer_0
  10
56.581284
  20
584.99829
  0
VERTEX
  5
54f
  8
Layer_0
  10
56.459175
  20
585.1463
  0
VERTEX
  5
550
  8
Layer_0
  10
56.366978
  20
585.31616
  0
VERTEX
  5
551
  8
Layer_0
  10
56.308708
  20
585.50385
  0
VERTEX
  5
552
  8
Layer_0
  10
56.288391
  20
585.70538
  0
VERTEX
  5
553
  8
Layer_0
  10
56.308708
  20
585.90692
  0
VERTEX
  5
554
  8
Layer_0
  10
56.366978
  20
586.0946
  0
VERTEX
  5
555
  8
Layer_0
  10
56.459175
  20
586.26447
  0
VERTEX
  5
556
  8
Layer_0
  10
56.581284
  20
586.41248
  0
VERTEX
  5
557
  8
Layer_0
  10
56.729286
  20
586.53461
  0
VERTEX
  5
558
  8
Layer_0
  10
56.899147
  20
586.62677
  0
VERTEX
  5
559
  8
Layer_0
  10
57.086857
  20
586.68506
  0
VERTEX
  5
55a
  8
Layer_0
  10
57.288391
  20
586.70538
  0
VERTEX
  5
55b
  8
Layer_0
  10
57.489925
  20
586.68506
  0
VERTEX
  5
55c
  8
Layer_0
  10
57.677635
  20
586.62677
  0
VERTEX
  5
55d
  8
Layer_0
  10
57.847496
  20
586.53461
  0
VERTEX
  5
55e
  8
Layer_0
  10
57.995499
  20
586.41248
  0
VERTEX
  5
55f
  8
Layer_0
  10
58.117607
  20
586.26447
  0
VERTEX
  5
560
  8
Layer_0
  10
58.209805
  20
586.0946
  0
VERTEX
  5
561
  8
Layer_0
  10
58.268074
  20
585.90692
  0
VERTEX
  5
562
  8
Layer_0
  10
58.288391
  20
585.70538
  0
SEQEND
  0
POLYLINE
  5
564
  8
Layer_0
  62
1
  70
1
  66
1
  10
0
  20
0
  30
0
  0
VERTEX
  5
564
  8
Layer_0
  10
58.288391
  20
588.20538
  0
VERTEX
  5
565
  8
Layer_0
  10
58.268074
  20
588.00385
  0
VERTEX
  5
566
  8
Layer_0
  10
58.209805
  20
587.81616
  0
VERTEX
  5
567
  8
Layer_0
  10
58.117607
  20
587.6463
  0
VERTEX
  5
568
  8
Layer_0
  10
57.995499
  20
587.49829
  0
VERTEX
  5
569
  8
Layer_0
  10
57.847496
  20
587.37616
  0
VERTEX
  5
56a
  8
Layer_0
  10
57.677635
  20
587.284
  0
VERTEX
  5
56b
  8
Layer_0
  10
57.489925
  20
587.22571
  0
VERTEX
  5
56c
  8
Layer_0
  10
57.288391
  20
587.20538
  0
VERTEX
  5
56d
  8
Layer_0
  10
57.086857
  20
587.22571
  0
VERTEX
  5
56e
  8
Layer_0
  10
56.899147
  20
587.284
  0
VERTEX
  5
56f
  8
Layer_0
  10
56.729286
  20
587.37616
  0
VERTEX
  5
570
  8
Layer_0
  10
56.581284
  20
587.49829
  0
VERTEX
  5
571
  8
Layer_0
  10
56.459175
  20
587.6463
  0
VERTEX
  5
572
  8
Layer_0
  10
56.366978
  20
587.81616
  0
VERTEX
  5
573
  8
Layer_0
  10
56.308708
  20
588.00385
  0
VERTEX
  5
574
  8
Layer_0
  10
56.288391
  20
588.20538
  0
VERTEX
  5
575
  8
Layer_0
  10
56.308708
  20
588.40692
  0
VERTEX
  5
576
  8
Layer_0
  10
56.366978
  20
588.5946
  0
VERTEX
  5
577
  8
Layer_0
  10
56.459175
  20
588.76447
  0
VERTEX
  5
578
  8
Layer_0
  10
56.581284
  20
588.91248
  0
VERTEX
  5
579
  8
Layer_0
  10
56.729286
  20
589.03461
  0
VERTEX
  5
57a
  8
Layer_0
  10
56.899147
  20
589.12677
  0
VERTEX
  5
57b
  8
Layer_0
  10
57.086857
  20
589.18506
  0
VERTEX
  5
57c
  8
Layer_0
  10
57.288391
  20
589.20538
  0
VERTEX
  5
57d
  8
Layer_0
  10
57.489925
  20
589.18506
  0
VERTEX
  5
57e
  8
Layer_0
  10
57.677635
  20
589.12677
  0
VERTEX
  5
57f
  8
Layer_0
  10
57.847496
  20
589.03461
  0
VERTEX
  5
580
  8
Layer_0
  10
57.995499
  20
588.91248
  0
VERTEX
  5
581
  8
Layer_0
  10
58.117607
  20
588.76447
  0
VERTEX
  5
582
  8
Layer_0
  10
58.209805
  20
588.5946
  0
VERTEX
  5
583
  8
Layer_0
  10
58.268074
  20
588.40692
  0
VERTEX
  5
584
  8
Layer_0
  10
58.288391
  20
588.20538
  0
SEQEND
  0
POLYLINE
  5
586
  8
Layer_1
  62
0
  70
1
  66
1
  10
0
  20
0
  30
0
  0
VERTEX
  5
586
  8
Layer_1
  10
59.779716
  20
579.99237
  0
VERTEX
  5
587
  8
Layer_1
  10
59.734344
  20
580.10138
  0
VERTEX
  5
588
  8
Layer_1
  10
59.694748
  20
580.21271
  0
VERTEX
  5
589
  8
Layer_1
  10
59.661011
  20
580.32611
  0
VERTEX
  5
58a
  8
Layer_1
  10
59.633217
  20
580.44141
  0
VERTEX
  5
58b
  8
Layer_1
  10
59.611572
  20
580.5578
  0
VERTEX
  5
58c
  8
Layer_1
  10
59.5961
  20
580.67499
  0
VERTEX
  5
58d
  8
Layer_1
  10
59.58683
  20
580.79266
  0
VERTEX
  5
58e
  8
Layer_1
  10
59.58371
  20
580.91071
  0
VERTEX
  5
58f
  8
Layer_1
  10
59.586838
  20
581.02881
  0
VERTEX
  5
590
  8
Layer_1
  10
59.596146
  20
581.14667
  0
VERTEX
  5
591
  8
Layer_1
  10
59.611664
  20
581.2641
  0
VERTEX
  5
592
  8
Layer_1
  10
59.633347
  20
581.38062
  0
VERTEX
  5
593
  8
Layer_1
  10
59.66111
  20
581.49561
  0
VERTEX
  5
594
  8
Layer_1
  10
59.694786
  20
581.60883
  0
VERTEX
  5
595
  8
Layer_1
  10
59.73436
  20
581.72003
  0
VERTEX
  5
596
  8
Layer_1
  10
59.779716
  20
581.8291
  0
VERTEX
  5
597
  8
Layer_1
  10
59.779716
  20
582.79541
  0
VERTEX
  5
598
  8
Layer_1
  10
59.804737
  20
583.55676
  0
VERTEX
  5
599
  8
Layer_1
  10
59.879372
  20
584.31244
  0
VERTEX
  5
59a
  8
Layer_1
  10
60.002987
  20
585.06
  0
VERTEX
  5
59b
  8
Layer_1
  10
60.174953
  20
585.79712
  0
VERTEX
  5
59c
  8
Layer_1
  10
60.394638
  20
586.52148
  0
VERTEX
  5
59d
  8
Layer_1
  10
60.661411
  20
587.23071
  0
VERTEX
  5
59e
  8
Layer_1
  10
60.97464
  20
587.92242
  0
VERTEX
  5
59f
  8
Layer_1
  10
61.333702
  20
588.5943
  0
VERTEX
  5
5a0
  8
Layer_1
  10
61.349571
  20
588.68738
  0
VERTEX
  5
5a1
  8
Layer_1
  10
61.369331
  20
588.77979
  0
VERTEX
  5
5a2
  8
Layer_1
  10
61.392967
  20
588.87134
  0
VERTEX
  5
5a3
  8
Layer_1
  10
61.420494
  20
588.96198
  0
VERTEX
  5
5a4
  8
Layer_1
  10
61.451836
  20
589.05145
  0
VERTEX
  5
5a5
  8
Layer_1
  10
61.486885
  20
589.13947
  0
VERTEX
  5
5a6
  8
Layer_1
  10
61.525536
  20
589.22577
  0
VERTEX
  5
5a7
  8
Layer_1
  10
61.567757
  20
589.3103
  0
VERTEX
  5
5a8
  8
Layer_1
  10
61.613457
  20
589.39294
  0
VERTEX
  5
5a9
  8
Layer_1
  10
61.66259
  20
589.47357
  0
VERTEX
  5
5aa
  8
Layer_1
  10
61.715065
  20
589.55219
  0
VERTEX
  5
5ab
  8
Layer_1
  10
61.770851
  20
589.62848
  0
VERTEX
  5
5ac
  8
Layer_1
  10
61.829872
  20
589.70251
  0
VERTEX
  5
5ad
  8
Layer_1
  10
61.892021
  20
589.77411
  0
VERTEX
  5
5ae
  8
Layer_1
  10
61.957161
  20
589.84302
  0
VERTEX
  5
5af
  8
Layer_1
  10
62.02507
  20
589.90906
  0
VERTEX
  5
5b0
  8
Layer_1
  10
62.095711
  20
589.97223
  0
VERTEX
  5
5b1
  8
Layer_1
  10
62.168945
  20
590.03235
  0
VERTEX
  5
5b2
  8
Layer_1
  10
62.24469
  20
590.08936
  0
VERTEX
  5
5b3
  8
Layer_1
  10
62.3228
  20
590.14319
  0
VERTEX
  5
5b4
  8
Layer_1
  10
62.40303
  20
590.1936
  0
VERTEX
  5
5b5
  8
Layer_1
  10
62.485298
  20
590.2406
  0
VERTEX
  5
5b6
  8
Layer_1
  10
63.109791
  20
590.92841
  0
VERTEX
  5
5b7
  8
Layer_1
  10
63.783981
  20
591.56116
  0
VERTEX
  5
5b8
  8
Layer_1
  10
64.504128
  20
592.13641
  0
VERTEX
  5
5b9
  8
Layer_1
  10
65.266487
  20
592.65198
  0
VERTEX
  5
5ba
  8
Layer_1
  10
66.067322
  20
593.10541
  0
VERTEX
  5
5bb
  8
Layer_1
  10
66.902893
  20
593.49451
  0
VERTEX
  5
5bc
  8
Layer_1
  10
67.769455
  20
593.81689
  0
VERTEX
  5
5bd
  8
Layer_1
  10
68.663269
  20
594.07025
  0
VERTEX
  5
5be
  8
Layer_1
  10
68.748062
  20
594.12543
  0
VERTEX
  5
5bf
  8
Layer_1
  10
68.83519
  20
594.17676
  0
VERTEX
  5
5c0
  8
Layer_1
  10
68.924469
  20
594.22412
  0
VERTEX
  5
5c1
  8
Layer_1
  10
69.015816
  20
594.2674
  0
VERTEX
  5
5c2
  8
Layer_1
  10
69.109016
  20
594.30658
  0
VERTEX
  5
5c3
  8
Layer_1
  10
69.203964
  20
594.34155
  0
VERTEX
  5
5c4
  8
Layer_1
  10
69.300217
  20
594.37219
  0
VERTEX
  5
5c5
  8
Layer_1
  10
69.397621
  20
594.39844
  0
VERTEX
  5
5c6
  8
Layer_1
  10
69.496017
  20
594.42029
  0
VERTEX
  5
5c7
  8
Layer_1
  10
69.595253
  20
594.43774
  0
VERTEX
  5
5c8
  8
Layer_1
  10
69.695168
  20
594.45068
  0
VERTEX
  5
5c9
  8
Layer_1
  10
69.795624
  20
594.45923
  0
VERTEX
  5
5ca
  8
Layer_1
  10
69.896454
  20
594.4632
  0
VERTEX
  5
5cb
  8
Layer_1
  10
69.99752
  20
594.46271
  0
VERTEX
  5
5cc
  8
Layer_1
  10
70.098549
  20
594.4577
  0
VERTEX
  5
5cd
  8
Layer_1
  10
70.199059
  20
594.44812
  0
VERTEX
  5
5ce
  8
Layer_1
  10
70.298943
  20
594.43408
  0
VERTEX
  5
5cf
  8
Layer_1
  10
70.397995
  20
594.41565
  0
VERTEX
  5
5d0
  8
Layer_1
  10
70.496124
  20
594.39282
  0
VERTEX
  5
5d1
  8
Layer_1
  10
70.59314
  20
594.3656
  0
VERTEX
  5
5d2
  8
Layer_1
  10
71.532104
  20
594.39105
  0
VERTEX
  5
5d3
  8
Layer_1
  10
72.465485
  20
594.34082
  0
VERTEX
  5
5d4
  8
Layer_1
  10
73.38887
  20
594.21613
  0
VERTEX
  5
5d5
  8
Layer_1
  10
74.297852
  20
594.01807
  0
VERTEX
  5
5d6
  8
Layer_1
  10
75.188042
  20
593.7478
  0
VERTEX
  5
5d7
  8
Layer_1
  10
76.055023
  20
593.40643
  0
VERTEX
  5
5d8
  8
Layer_1
  10
76.894409
  20
592.99518
  0
VERTEX
  5
5d9
  8
Layer_1
  10
77.70179
  20
592.51508
  0
VERTEX
  5
5da
  8
Layer_1
  10
77.81868
  20
592.48456
  0
VERTEX
  5
5db
  8
Layer_1
  10
77.933868
  20
592.44775
  0
VERTEX
  5
5dc
  8
Layer_1
  10
78.04715
  20
592.40479
  0
VERTEX
  5
5dd
  8
Layer_1
  10
78.157997
  20
592.35571
  0
VERTEX
  5
5de
  8
Layer_1
  10
78.265884
  20
592.3009
  0
VERTEX
  5
5df
  8
Layer_1
  10
78.370514
  20
592.24048
  0
VERTEX
  5
5e0
  8
Layer_1
  10
78.47171
  20
592.1745
  0
VERTEX
  5
5e1
  8
Layer_1
  10
78.56926
  20
592.10327
  0
VERTEX
  5
5e2
  8
Layer_1
  10
78.662903
  20
592.02679
  0
VERTEX
  5
5e3
  8
Layer_1
  10
78.752434
  20
591.94531
  0
VERTEX
  5
5e4
  8
Layer_1
  10
78.837608
  20
591.85901
  0
VERTEX
  5
5e5
  8
Layer_1
  10
78.91787
  20
591.76837
  0
VERTEX
  5
5e6
  8
Layer_1
  10
78.993065
  20
591.67371
  0
VERTEX
  5
5e7
  8
Layer_1
  10
79.062988
  20
591.57526
  0
VERTEX
  5
5e8
  8
Layer_1
  10
79.127548
  20
591.47314
  0
VERTEX
  5
5e9
  8
Layer_1
  10
79.186577
  20
591.36768
  0
VERTEX
  5
5ea
  8
Layer_1
  10
79.86087
  20
590.70093
  0
VERTEX
  5
5eb
  8
Layer_1
  10
80.47551
  20
589.98499
  0
VERTEX
  5
5ec
  8
Layer_1
  10
81.028198
  20
589.22394
  0
VERTEX
  5
5ed
  8
Layer_1
  10
81.516678
  20
588.42194
  0
VERTEX
  5
5ee
  8
Layer_1
  10
81.938675
  20
587.58307
  0
VERTEX
  5
5ef
  8
Layer_1
  10
82.291931
  20
586.71136
  0
VERTEX
  5
5f0
  8
Layer_1
  10
82.574158
  20
585.81097
  0
VERTEX
  5
5f1
  8
Layer_1
  10
82.783096
  20
584.88599
  0
VERTEX
  5
5f2
  8
Layer_1
  10
82.839119
  20
584.78235
  0
VERTEX
  5
5f3
  8
Layer_1
  10
82.889656
  20
584.6759
  0
VERTEX
  5
5f4
  8
Layer_1
  10
82.934547
  20
584.56689
  0
VERTEX
  5
5f5
  8
Layer_1
  10
82.973724
  20
584.45563
  0
VERTEX
  5
5f6
  8
Layer_1
  10
83.007042
  20
584.34222
  0
VERTEX
  5
5f7
  8
Layer_1
  10
83.034393
  20
584.22717
  0
VERTEX
  5
5f8
  8
Layer_1
  10
83.055626
  20
584.11102
  0
VERTEX
  5
5f9
  8
Layer_1
  10
83.070724
  20
583.99414
  0
VERTEX
  5
5fa
  8
Layer_1
  10
83.079674
  20
583.87665
  0
VERTEX
  5
5fb
  8
Layer_1
  10
83.082458
  20
583.75885
  0
VERTEX
  5
5fc
  8
Layer_1
  10
83.079071
  20
583.64099
  0
VERTEX
  5
5fd
  8
Layer_1
  10
83.069466
  20
583.52325
  0
VERTEX
  5
5fe
  8
Layer_1
  10
83.05368
  20
583.40607
  0
VERTEX
  5
5ff
  8
Layer_1
  10
83.031784
  20
583.28998
  0
VERTEX
  5
600
  8
Layer_1
  10
83.003876
  20
583.17542
  0
VERTEX
  5
601
  8
Layer_1
  10
82.970024
  20
583.0625
  0
VERTEX
  5
602
  8
Layer_1
  10
82.972321
  20
582.92896
  0
VERTEX
  5
603
  8
Layer_1
  10
82.973091
  20
576.88733
  0
VERTEX
  5
604
  8
Layer_1
  10
82.983215
  20
576.86139
  0
VERTEX
  5
605
  8
Layer_1
  10
86.210907
  20
576.86139
  0
VERTEX
  5
606
  8
Layer_1
  10
86.210907
  20
588.91718
  0
VERTEX
  5
607
  8
Layer_1
  10
86.171997
  20
589.73438
  0
VERTEX
  5
608
  8
Layer_1
  10
86.057587
  20
590.53064
  0
VERTEX
  5
609
  8
Layer_1
  10
85.871086
  20
591.30231
  0
VERTEX
  5
60a
  8
Layer_1
  10
85.615952
  20
592.04553
  0
VERTEX
  5
60b
  8
Layer_1
  10
85.295609
  20
592.75671
  0
VERTEX
  5
60c
  8
Layer_1
  10
84.913513
  20
593.43195
  0
VERTEX
  5
60d
  8
Layer_1
  10
84.473083
  20
594.0675
  0
VERTEX
  5
60e
  8
Layer_1
  10
83.977768
  20
594.65973
  0
VERTEX
  5
60f
  8
Layer_1
  10
83.430992
  20
595.20477
  0
VERTEX
  5
610
  8
Layer_1
  10
82.836205
  20
595.69891
  0
VERTEX
  5
611
  8
Layer_1
  10
82.196854
  20
596.13837
  0
VERTEX
  5
612
  8
Layer_1
  10
81.51635
  20
596.51947
  0
VERTEX
  5
613
  8
Layer_1
  10
80.798157
  20
596.83844
  0
VERTEX
  5
614
  8
Layer_1
  10
80.045685
  20
597.09149
  0
VERTEX
  5
615
  8
Layer_1
  10
79.262405
  20
597.27484
  0
VERTEX
  5
616
  8
Layer_1
  10
78.451729
  20
597.38483
  0
VERTEX
  5
617
  8
Layer_1
  10
61.841751
  20
598.83801
  0
VERTEX
  5
618
  8
Layer_1
  10
61.806015
  20
598.8399
  0
VERTEX
  5
619
  8
Layer_1
  10
61.734581
  20
598.83606
  0
VERTEX
  5
61a
  8
Layer_1
  10
61.664398
  20
598.82227
  0
VERTEX
  5
61b
  8
Layer_1
  10
61.596886
  20
598.79877
  0
VERTEX
  5
61c
  8
Layer_1
  10
61.533501
  20
598.76611
  0
VERTEX
  5
61d
  8
Layer_1
  10
61.475288
  20
598.72485
  0
VERTEX
  5
61e
  8
Layer_1
  10
61.42334
  20
598.67578
  0
VERTEX
  5
61f
  8
Layer_1
  10
61.378883
  20
598.62012
  0
VERTEX
  5
620
  8
Layer_1
  10
61.342598
  20
598.55859
  0
VERTEX
  5
621
  8
Layer_1
  10
61.3153
  20
598.49261
  0
VERTEX
  5
622
  8
Layer_1
  10
61.297569
  20
598.42358
  0
VERTEX
  5
623
  8
Layer_1
  10
61.289642
  20
598.3526
  0
VERTEX
  5
624
  8
Layer_1
  10
61.291786
  20
598.28125
  0
VERTEX
  5
625
  8
Layer_1
  10
61.303864
  20
598.211
  0
VERTEX
  5
626
  8
Layer_1
  10
61.339203
  20
598.09302
  0
VERTEX
  5
627
  8
Layer_1
  10
61.36248
  20
598.008
  0
VERTEX
  5
628
  8
Layer_1
  10
61.383423
  20
597.92181
  0
VERTEX
  5
629
  8
Layer_1
  10
61.402
  20
597.83472
  0
VERTEX
  5
62a
  8
Layer_1
  10
61.418228
  20
597.74713
  0
VERTEX
  5
62b
  8
Layer_1
  10
61.432114
  20
597.6593
  0
VERTEX
  5
62c
  8
Layer_1
  10
61.443611
  20
597.57172
  0
VERTEX
  5
62d
  8
Layer_1
  10
61.452736
  20
597.48468
  0
VERTEX
  5
62e
  8
Layer_1
  10
61.459473
  20
597.3985
  0
VERTEX
  5
62f
  8
Layer_1
  10
61.463814
  20
597.3136
  0
VERTEX
  5
630
  8
Layer_1
  10
61.465752
  20
597.23035
  0
VERTEX
  5
631
  8
Layer_1
  10
61.465218
  20
597.14807
  0
VERTEX
  5
632
  8
Layer_1
  10
61.46209
  20
597.06415
  0
VERTEX
  5
633
  8
Layer_1
  10
61.456398
  20
596.97888
  0
VERTEX
  5
634
  8
Layer_1
  10
61.448235
  20
596.89246
  0
VERTEX
  5
635
  8
Layer_1
  10
61.437683
  20
596.8053
  0
VERTEX
  5
636
  8
Layer_1
  10
61.424759
  20
596.71771
  0
VERTEX
  5
637
  8
Layer_1
  10
61.409576
  20
596.63007
  0
VERTEX
  5
638
  8
Layer_1
  10
61.392174
  20
596.54266
  0
VERTEX
  5
639
  8
Layer_1
  10
61.372612
  20
596.45587
  0
VERTEX
  5
63a
  8
Layer_1
  10
61.351006
  20
596.37006
  0
VERTEX
  5
63b
  8
Layer_1
  10
61.327393
  20
596.28552
  0
VERTEX
  5
63c
  8
Layer_1
  10
61.301826
  20
596.20258
  0
VERTEX
  5
63d
  8
Layer_1
  10
61.274399
  20
596.12158
  0
VERTEX
  5
63e
  8
Layer_1
  10
61.245178
  20
596.04297
  0
VERTEX
  5
63f
  8
Layer_1
  10
61.214142
  20
595.96674
  0
VERTEX
  5
640
  8
Layer_1
  10
61.18029
  20
595.89069
  0
VERTEX
  5
641
  8
Layer_1
  10
61.143463
  20
595.81415
  0
VERTEX
  5
642
  8
Layer_1
  10
61.103874
  20
595.73743
  0
VERTEX
  5
643
  8
Layer_1
  10
61.061699
  20
595.66077
  0
VERTEX
  5
644
  8
Layer_1
  10
61.017097
  20
595.58459
  0
VERTEX
  5
645
  8
Layer_1
  10
60.970314
  20
595.50909
  0
VERTEX
  5
646
  8
Layer_1
  10
60.921509
  20
595.43457
  0
VERTEX
  5
647
  8
Layer_1
  10
60.87088
  20
595.36133
  0
VERTEX
  5
648
  8
Layer_1
  10
60.818626
  20
595.28961
  0
VERTEX
  5
649
  8
Layer_1
  10
60.764946
  20
595.21979
  0
VERTEX
  5
64a
  8
Layer_1
  10
60.710022
  20
595.15204
  0
VERTEX
  5
64b
  8
Layer_1
  10
60.654045
  20
595.08673
  0
VERTEX
  5
64c
  8
Layer_1
  10
60.597206
  20
595.02411
  0
VERTEX
  5
64d
  8
Layer_1
  10
60.539711
  20
594.96454
  0
VERTEX
  5
64e
  8
Layer_1
  10
60.480522
  20
594.90698
  0
VERTEX
  5
64f
  8
Layer_1
  10
60.418304
  20
594.85004
  0
VERTEX
  5
650
  8
Layer_1
  10
60.35334
  20
594.79395
  0
VERTEX
  5
651
  8
Layer_1
  10
60.285904
  20
594.73889
  0
VERTEX
  5
652
  8
Layer_1
  10
60.216316
  20
594.68506
  0
VERTEX
  5
653
  8
Layer_1
  10
60.144859
  20
594.63257
  0
VERTEX
  5
654
  8
Layer_1
  10
60.071785
  20
594.58173
  0
VERTEX
  5
655
  8
Layer_1
  10
59.997398
  20
594.53271
  0
VERTEX
  5
656
  8
Layer_1
  10
59.922012
  20
594.4856
  0
VERTEX
  5
657
  8
Layer_1
  10
59.845879
  20
594.44073
  0
VERTEX
  5
658
  8
Layer_1
  10
59.76931
  20
594.39819
  0
VERTEX
  5
659
  8
Layer_1
  10
59.692589
  20
594.35828
  0
VERTEX
  5
65a
  8
Layer_1
  10
59.61599
  20
594.32104
  0
VERTEX
  5
65b
  8
Layer_1
  10
59.539825
  20
594.2868
  0
VERTEX
  5
65c
  8
Layer_1
  10
59.463837
  20
594.25537
  0
VERTEX
  5
65d
  8
Layer_1
  10
59.385635
  20
594.22546
  0
VERTEX
  5
65e
  8
Layer_1
  10
59.305115
  20
594.19714
  0
VERTEX
  5
65f
  8
Layer_1
  10
59.222633
  20
594.17053
  0
VERTEX
  5
660
  8
Layer_1
  10
59.138481
  20
594.14594
  0
VERTEX
  5
661
  8
Layer_1
  10
59.05294
  20
594.12347
  0
VERTEX
  5
662
  8
Layer_1
  10
59.05294
  20
590.85547
  0
VERTEX
  5
663
  8
Layer_1
  10
57.528938
  20
590.85547
  0
VERTEX
  5
664
  8
Layer_1
  10
57.528938
  20
594.12274
  0
VERTEX
  5
665
  8
Layer_1
  10
57.371681
  20
594.16589
  0
VERTEX
  5
666
  8
Layer_1
  10
57.220009
  20
594.21582
  0
VERTEX
  5
667
  8
Layer_1
  10
57.075806
  20
594.2713
  0
VERTEX
  5
668
  8
Layer_1
  10
56.935013
  20
594.33435
  0
VERTEX
  5
669
  8
Layer_1
  10
56.793144
  20
594.40717
  0
VERTEX
  5
66a
  8
Layer_1
  10
56.652031
  20
594.48865
  0
VERTEX
  5
66b
  8
Layer_1
  10
56.513489
  20
594.57751
  0
VERTEX
  5
66c
  8
Layer_1
  10
56.379318
  20
594.67261
  0
VERTEX
  5
66d
  8
Layer_1
  10
56.251366
  20
594.77264
  0
VERTEX
  5
66e
  8
Layer_1
  10
56.131447
  20
594.8764
  0
VERTEX
  5
66f
  8
Layer_1
  10
56.021164
  20
594.98297
  0
VERTEX
  5
670
  8
Layer_1
  10
55.915733
  20
595.09729
  0
VERTEX
  5
671
  8
Layer_1
  10
55.813316
  20
595.22076
  0
VERTEX
  5
672
  8
Layer_1
  10
55.715157
  20
595.3515
  0
VERTEX
  5
673
  8
Layer_1
  10
55.622513
  20
595.48767
  0
VERTEX
  5
674
  8
Layer_1
  10
55.536545
  20
595.6275
  0
VERTEX
  5
675
  8
Layer_1
  10
55.458473
  20
595.76917
  0
VERTEX
  5
676
  8
Layer_1
  10
55.389565
  20
595.91077
  0
VERTEX
  5
677
  8
Layer_1
  10
55.330498
  20
596.05176
  0
VERTEX
  5
678
  8
Layer_1
  10
55.278229
  20
596.19958
  0
VERTEX
  5
679
  8
Layer_1
  10
55.232323
  20
596.35413
  0
VERTEX
  5
67a
  8
Layer_1
  10
55.193275
  20
596.51337
  0
VERTEX
  5
67b
  8
Layer_1
  10
55.161453
  20
596.67499
  0
VERTEX
  5
67c
  8
Layer_1
  10
55.137306
  20
596.83698
  0
VERTEX
  5
67d
  8
Layer_1
  10
55.121284
  20
596.99707
  0
VERTEX
  5
67e
  8
Layer_1
  10
55.11377
  20
597.1532
  0
VERTEX
  5
67f
  8
Layer_1
  10
55.115181
  20
597.30615
  0
VERTEX
  5
680
  8
Layer_1
  10
55.125427
  20
597.46381
  0
VERTEX
  5
681
  8
Layer_1
  10
55.144051
  20
597.62469
  0
VERTEX
  5
682
  8
Layer_1
  10
55.170662
  20
597.7868
  0
VERTEX
  5
683
  8
Layer_1
  10
55.204796
  20
597.94794
  0
VERTEX
  5
684
  8
Layer_1
  10
55.246071
  20
598.1059
  0
VERTEX
  5
685
  8
Layer_1
  10
55.293999
  20
598.25861
  0
VERTEX
  5
686
  8
Layer_1
  10
55.348213
  20
598.40381
  0
VERTEX
  5
687
  8
Layer_1
  10
55.409691
  20
598.54474
  0
VERTEX
  5
688
  8
Layer_1
  10
55.495796
  20
598.71912
  0
VERTEX
  5
689
  8
Layer_1
  10
55.519974
  20
598.78644
  0
VERTEX
  5
68a
  8
Layer_1
  10
55.534439
  20
598.85645
  0
VERTEX
  5
68b
  8
Layer_1
  10
55.538918
  20
598.92786
  0
VERTEX
  5
68c
  8
Layer_1
  10
55.533379
  20
598.9989
  0
VERTEX
  5
68d
  8
Layer_1
  10
55.517914
  20
599.06854
  0
VERTEX
  5
68e
  8
Layer_1
  10
55.49279
  20
599.13544
  0
VERTEX
  5
68f
  8
Layer_1
  10
55.458633
  20
599.198
  0
VERTEX
  5
690
  8
Layer_1
  10
55.415962
  20
599.25531
  0
VERTEX
  5
691
  8
Layer_1
  10
55.365723
  20
599.30597
  0
VERTEX
  5
692
  8
Layer_1
  10
55.308952
  20
599.34906
  0
VERTEX
  5
693
  8
Layer_1
  10
55.246536
  20
599.38391
  0
VERTEX
  5
694
  8
Layer_1
  10
55.179977
  20
599.40955
  0
VERTEX
  5
695
  8
Layer_1
  10
55.110535
  20
599.42566
  0
VERTEX
  5
696
  8
Layer_1
  10
53.78907
  20
599.54254
  0
VERTEX
  5
697
  8
Layer_1
  10
53.78907
  20
584.30518
  0
VERTEX
  5
698
  8
Layer_1
  10
53.817921
  20
583.63989
  0
VERTEX
  5
699
  8
Layer_1
  10
53.903015
  20
582.98871
  0
VERTEX
  5
69a
  8
Layer_1
  10
54.042179
  20
582.35425
  0
VERTEX
  5
69b
  8
Layer_1
  10
54.233234
  20
581.7392
  0
VERTEX
  5
69c
  8
Layer_1
  10
54.473991
  20
581.1463
  0
VERTEX
  5
69d
  8
Layer_1
  10
54.762287
  20
580.57831
  0
VERTEX
  5
69e
  8
Layer_1
  10
55.095928
  20
580.03784
  0
VERTEX
  5
69f
  8
Layer_1
  10
55.472736
  20
579.52765
  0
VERTEX
  5
6a0
  8
Layer_1
  10
55.890533
  20
579.05048
  0
VERTEX
  5
6a1
  8
Layer_1
  10
56.347145
  20
578.60901
  0
VERTEX
  5
6a2
  8
Layer_1
  10
56.840378
  20
578.20593
  0
VERTEX
  5
6a3
  8
Layer_1
  10
57.368065
  20
577.84393
  0
VERTEX
  5
6a4
  8
Layer_1
  10
57.928024
  20
577.52582
  0
VERTEX
  5
6a5
  8
Layer_1
  10
58.518074
  20
577.25421
  0
VERTEX
  5
6a6
  8
Layer_1
  10
59.136032
  20
577.0318
  0
VERTEX
  5
6a7
  8
Layer_1
  10
59.779716
  20
576.86139
  0
VERTEX
  5
6a8
  8
Layer_1
  10
59.779716
  20
579.99237
  0
SEQEND
  0
POLYLINE
  5
6aa
  8
Layer_0
  62
1
  70
1
  66
1
  10
0
  20
0
  30
0
  0
VERTEX
  5
6aa
  8
Layer_0
  10
58.288391
  20
580.70538
  0
VERTEX
  5
6ab
  8
Layer_0
  10
58.268074
  20
580.50385
  0
VERTEX
  5
6ac
  8
Layer_0
  10
58.209805
  20
580.31616
  0
VERTEX
  5
6ad
  8
Layer_0
  10
58.117607
  20
580.1463
  0
VERTEX
  5
6ae
  8
Layer_0
  10
57.995499
  20
579.99829
  0
VERTEX
  5
6af
  8
Layer_0
  10
57.847496
  20
579.87616
  0
VERTEX
  5
6b0
  8
Layer_0
  10
57.677635
  20
579.784
  0
VERTEX
  5
6b1
  8
Layer_0
  10
57.489925
  20
579.72571
  0
VERTEX
  5
6b2
  8
Layer_0
  10
57.288391
  20
579.70538
  0
VERTEX
  5
6b3
  8
Layer_0
  10
57.086857
  20
579.72571
  0
VERTEX
  5
6b4
  8
Layer_0
  10
56.899147
  20
579.784
  0
VERTEX
  5
6b5
  8
Layer_0
  10
56.729286
  20
579.87616
  0
VERTEX
  5
6b6
  8
Layer_0
  10
56.581284
  20
579.99829
  0
VERTEX
  5
6b7
  8
Layer_0
  10
56.459175
  20
580.1463
  0
VERTEX
  5
6b8
  8
Layer_0
  10
56.366978
  20
580.31616
  0
VERTEX
  5
6b9
  8
Layer_0
  10
56.308708
  20
580.50385
  0
VERTEX
  5
6ba
  8
Layer_0
  10
56.288391
  20
580.70538
  0
VERTEX
  5
6bb
  8
Layer_0
  10
56.308708
  20
580.90692
  0
VERTEX
  5
6bc
  8
Layer_0
  10
56.366978
  20
581.0946
  0
VERTEX
  5
6bd
  8
Layer_0
  10
56.459175
  20
581.26447
  0
VERTEX
  5
6be
  8
Layer_0
  10
56.581284
  20
581.41248
  0
VERTEX
  5
6bf
  8
Layer_0
  10
56.729286
  20
581.53461
  0
VERTEX
  5
6c0
  8
Layer_0
  10
56.899147
  20
581.62677
  0
VERTEX
  5
6c1
  8
Layer_0
  10
57.086857
  20
581.68506
  0
VERTEX
  5
6c2
  8
Layer_0
  10
57.288391
  20
581.70538
  0
VERTEX
  5
6c3
  8
Layer_0
  10
57.489925
  20
581.68506
  0
VERTEX
  5
6c4
  8
Layer_0
  10
57.677635
  20
581.62677
  0
VERTEX
  5
6c5
  8
Layer_0
  10
57.847496
  20
581.53461
  0
VERTEX
  5
6c6
  8
Layer_0
  10
57.995499
  20
581.41248
  0
VERTEX
  5
6c7
  8
Layer_0
  10
58.117607
  20
581.26447
  0
VERTEX
  5
6c8
  8
Layer_0
  10
58.209805
  20
581.0946
  0
VERTEX
  5
6c9
  8
Layer_0
  10
58.268074
  20
580.90692
  0
VERTEX
  5
6ca
  8
Layer_0
  10
58.288391
  20
580.70538
  0
SEQEND
  0
ENDSEC
  0
EOF
