0
SECTION
2
HEADER
9
$INSUNITS
70
1
9
$ACADVER
1
AC1014
9
$HANDSEED
5
FFFF
0
ENDSEC
0
SECTION
2
TABLES
0
TABLE
2
VPORT
5
8
100
AcDbSymbolTable
0
ENDTAB
0
TABLE
2
LTYPE
5
5
100
AcDbSymbolTable
0
LTYPE
5
14
100
AcDbSymbolTableRecord
100
AcDbLinetypeTableRecord
2
BYBLOCK
70
0
0
LTYPE
5
15
100
AcDbSymbolTableRecord
100
AcDbLinetypeTableRecord
2
BYLAYER
70
0
0
ENDTAB
0
TABLE
2
LAYER
5
2
100
AcDbSymbolTable
70
2
0
LAYER
5
50
100
AcDbSymbolTableRecord
100
AcDbLayerTableRecord
2
0
70
0
6
CONTINUOUS
0
ENDTAB
0
TABLE
2
STYLE
5
3
100
AcDbSymbolTable
70
1
0
STYLE
5
11
100
AcDbSymbolTableRecord
100
AcDbTextStyleTableRecord
2
STANDARD
70
0
0
ENDTAB
0
TABLE
2
VIEW
5
6
100
AcDbSymbolTable
70
0
0
ENDTAB
0
TABLE
2
UCS
5
7
100
AcDbSymbolTable
70
0
0
ENDTAB
0
TABLE
2
APPID
5
9
100
AcDbSymbolTable
70
2
0
APPID
5
12
100
AcDbSymbolTableRecord
100
AcDbRegAppTableRecord
2
ACAD
70
0
0
ENDTAB
0
TABLE
2
DIMSTYLE
5
A
100
AcDbSymbolTable
70
1
0
ENDTAB
0
TABLE
2
BLOCK_RECORD
5
1
100
AcDbSymbolTable
70
1
0
BLOCK_RECORD
5
1F
100
AcDbSymbolTableRecord
100
AcDbBlockTableRecord
2
*MODEL_SPACE
0
BLOCK_RECORD
5
1B
100
AcDbSymbolTableRecord
100
AcDbBlockTableRecord
2
*PAPER_SPACE
0
ENDTAB
0
ENDSEC
0
SECTION
2
BLOCKS
0
BLOCK
5
20
100
AcDbEntity
100
AcDbBlockBegin
2
*MODEL_SPACE
0
ENDBLK
5
21
100
AcDbEntity
100
AcDbBlockEnd
0
BLOCK
5
1C
100
AcDbEntity
100
AcDbBlockBegin
2
*PAPER_SPACE
0
ENDBLK
5
1D
100
AcDbEntity
100
AcDbBlockEnd
0
ENDSEC
0
SECTION
2
ENTITIES
0
CIRCLE
5
100
100
AcDbEntity
8
0
100
AcDbCircle
10
-3.0560052680435628
20
11.391379703256355
30
0
40
0.12500000000000031
210
0
220
0
230
1
0
CIRCLE
5
101
100
AcDbEntity
8
0
100
AcDbCircle
10
12.633244149874498
20
11.391379703256355
30
0
40
0.12500000000000097
210
0
220
0
230
1
0
CIRCLE
5
102
100
AcDbEntity
8
0
100
AcDbCircle
10
4.7979050591731474
20
-0.18481975933220263
30
0
40
0.12500000000000031
210
0
220
0
230
1
0
LWPOLYLINE
5
103
100
AcDbEntity
8
0
100
AcDbPolyline
90
4
70
1
43
0.0
10
14.296430830023933
20
-0.58186765572346089
10
-4.7035691699760616
20
-0.58186765572345989
10
-4.7035691699760616
20
16.41813234427654
10
14.296430830023933
20
16.41813234427654
0
LWPOLYLINE
5
104
100
AcDbEntity
8
0
100
AcDbPolyline
90
4
70
1
43
0.0
10
5.5279981956559086
20
13.947190362903536
10
13.642102346222899
20
13.947190362903536
10
13.642102346222899
20
16.044675760801002
10
5.5279981956559086
20
16.044675760801002
0
LWPOLYLINE
5
105
100
AcDbEntity
8
0
100
AcDbPolyline
90
4
70
1
43
0.0
10
-4.0648634643919621
20
13.947190362903536
10
4.0492406861750272
20
13.947190362903536
10
4.0492406861750272
20
16.044675760801002
10
-4.0648634643919621
20
16.044675760801002
0
LWPOLYLINE
5
106
100
AcDbEntity
8
0
100
AcDbPolyline
90
8
70
1
43
0.0
10
-2.7799702591511268
20
6.8719491884605599
10
-2.7799702591511268
20
3.8678371267942873
10
-2.989216183530945
20
3.8678371267942873
10
-2.989216183530945
20
0.42565572811931218
10
-2.7799702591511268
20
0.42565572811931207
10
-2.7799702591511268
20
-0.29581975933220267
10
2.7829187174495504
20
-0.29581975933220211
10
2.7829187174495504
20
6.8719491884605599
0
LWPOLYLINE
5
107
100
AcDbEntity
8
0
100
AcDbPolyline
90
4
70
1
43
0.0
10
3.8411402087731519
20
9.0855690436091745
10
-3.8409464054000755
20
9.0855690436091745
10
-3.8409464054000755
20
7.334537307515494
10
3.8411402087731519
20
7.334537307515494
0
LWPOLYLINE
5
108
100
AcDbEntity
8
0
100
AcDbPolyline
90
4
70
1
43
0.0
10
13.434001868821024
20
9.0855690436091745
10
5.7519152546477965
20
9.0855690436091745
10
5.7519152546477965
20
7.334537307515494
10
13.434001868821024
20
7.334537307515494
0
LWPOLYLINE
5
109
100
AcDbEntity
8
0
100
AcDbPolyline
90
8
70
1
43
0.0
10
6.8128914008967438
20
6.8719491884605599
10
6.8128914008967438
20
3.8678371267942873
10
6.6036454765169257
20
3.8678371267942873
10
6.6036454765169257
20
0.42565572811931218
10
6.8128914008967438
20
0.42565572811931207
10
6.8128914008967438
20
-0.29581975933220267
10
12.375780377497422
20
-0.29581975933220211
10
12.375780377497422
20
6.8719491884605599
0
ENDSEC
0
SECTION
2
OBJECTS
0
DICTIONARY
5
C
100
AcDbDictionary
3
ACAD_GROUP
350
D
3
ACAD_MLINESTYLE
350
17
0
DICTIONARY
5
D
100
AcDbDictionary
0
DICTIONARY
5
1A
330
C
100
AcDbDictionary
0
DICTIONARY
5
17
100
AcDbDictionary
0
ENDSEC
0
EOF
