0
SECTION
2
HEADER
9
$INSUNITS
70
1
9
$ACADVER
1
AC1014
9
$HANDSEED
5
FFFF
0
ENDSEC
0
SECTION
2
TABLES
0
TABLE
2
VPORT
5
8
100
AcDbSymbolTable
0
ENDTAB
0
TABLE
2
LTYPE
5
5
100
AcDbSymbolTable
0
LTYPE
5
14
100
AcDbSymbolTableRecord
100
AcDbLinetypeTableRecord
2
BYBLOCK
70
0
0
LTYPE
5
15
100
AcDbSymbolTableRecord
100
AcDbLinetypeTableRecord
2
BYLAYER
70
0
0
ENDTAB
0
TABLE
2
LAYER
5
2
100
AcDbSymbolTable
70
2
0
LAYER
5
50
100
AcDbSymbolTableRecord
100
AcDbLayerTableRecord
2
0
70
0
6
CONTINUOUS
0
ENDTAB
0
TABLE
2
STYLE
5
3
100
AcDbSymbolTable
70
1
0
STYLE
5
11
100
AcDbSymbolTableRecord
100
AcDbTextStyleTableRecord
2
STANDARD
70
0
0
ENDTAB
0
TABLE
2
VIEW
5
6
100
AcDbSymbolTable
70
0
0
ENDTAB
0
TABLE
2
UCS
5
7
100
AcDbSymbolTable
70
0
0
ENDTAB
0
TABLE
2
APPID
5
9
100
AcDbSymbolTable
70
2
0
APPID
5
12
100
AcDbSymbolTableRecord
100
AcDbRegAppTableRecord
2
ACAD
70
0
0
ENDTAB
0
TABLE
2
DIMSTYLE
5
A
100
AcDbSymbolTable
70
1
0
ENDTAB
0
TABLE
2
BLOCK_RECORD
5
1
100
AcDbSymbolTable
70
1
0
BLOCK_RECORD
5
1F
100
AcDbSymbolTableRecord
100
AcDbBlockTableRecord
2
*MODEL_SPACE
0
BLOCK_RECORD
5
1B
100
AcDbSymbolTableRecord
100
AcDbBlockTableRecord
2
*PAPER_SPACE
0
ENDTAB
0
ENDSEC
0
SECTION
2
BLOCKS
0
BLOCK
5
20
100
AcDbEntity
100
AcDbBlockBegin
2
*MODEL_SPACE
0
ENDBLK
5
21
100
AcDbEntity
100
AcDbBlockEnd
0
BLOCK
5
1C
100
AcDbEntity
100
AcDbBlockBegin
2
*PAPER_SPACE
0
ENDBLK
5
1D
100
AcDbEntity
100
AcDbBlockEnd
0
ENDSEC
0
SECTION
2
ENTITIES
0
ARC
5
100
100
AcDbEntity
8
0
100
AcDbCircle
10
-3.5174149677437785
20
0.90943954031973662
30
-1.7483827159451278e-16
40
0.30000000000000016
210
5.4227287024427441e-17
220
-1.1869677880630117e-17
230
1
100
AcDbArc
50
180
51
257.65339192161548
0
LINE
5
101
100
AcDbEntity
8
0
100
AcDbLine
10
-3.5815625000000337
20
0.6163779527559059
30
-1.7483827159451283e-16
11
-3.5815625000000795
21
0.73964521266492
31
-1.7483826422561278e-16
0
SPLINE
5
102
100
AcDbEntity
8
0
100
AcDbSpline
70
0
71
3
72
12
73
8
74
0
42
0.000000001
43
0.0000000001
44
0.0000000001
40
-0.32236652493662948
40
-0.32236652493662948
40
-0.32236652493662948
40
-0.32236652493662948
40
-0.26360021461478789
40
-0.26360021461478789
40
-0.17574108017296372
40
-0.17574108017296372
40
-0.13255217375674233
40
-0.13255217375674233
40
-0.13255217375674233
40
-0.13255217375674233
10
-3.5815625000001092
20
0.81195650113739293
30
5.2451481478353848e-16
10
-3.5846972888466389
20
0.80494535686868929
30
5.2451481478353848e-16
10
-3.5869140000572322
20
0.79754137417692894
30
1.7483827159451283e-16
10
-3.5899838391092418
20
0.77854563678477529
30
1.7483827159451283e-16
10
-3.5895832996009305
20
0.76691307626126803
30
1.7483827159451283e-16
10
-3.5856770080843274
20
0.75016477808048376
30
1.7483827159451283e-16
10
-3.5838657428988907
20
0.74479473386465056
30
-1.7483827159451283e-16
10
-3.5815625000000821
20
0.73964521266492
30
5.2451481478353848e-16
0
LINE
5
103
100
AcDbEntity
8
0
100
AcDbLine
10
-3.5815625000001092
20
0.81195650113739293
30
5.2451481478353848e-16
11
-3.5815625000001026
21
0.84999999999990494
31
-1.7483825685674506e-16
0
ARC
5
104
100
AcDbEntity
8
0
100
AcDbCircle
10
-3.1250000000000226
20
0.84999999999999598
30
9.9028769427678988e-44
40
0.45656250000001841
210
-7.7631934923594866e-42
220
3.7865323450608645e-29
230
1
100
AcDbArc
50
149.99688853748046
51
180
0
SPLINE
5
105
100
AcDbEntity
8
0
100
AcDbSpline
70
0
71
3
72
15
73
11
74
0
42
0.000000001
43
0.0000000001
44
0.0000000001
40
1.3409364999379469
40
1.3409364999379469
40
1.3409364999379469
40
1.3409364999379469
40
1.3687144916040326
40
1.3687144916040326
40
1.418549775400771
40
1.418549775400771
40
1.418549775400771
40
1.5065129794720924
40
1.5065129794720924
40
1.5496868862489399
40
1.5496868862489399
40
1.5496868862489399
40
1.5496868862489399
10
-3.4750437973308519
20
1.1431188434005297
30
5.2451481478353848e-16
10
-3.4782415556966293
20
1.141379966259674
30
5.2451481478353848e-16
10
-3.4813316757367265
20
1.1394446192307954
30
1.7483827159451283e-16
10
-3.4896142705565212
20
1.1335164831376507
30
1.7483827159451283e-16
10
-3.4944952827619553
20
1.1291334744588484
30
-1.7483827159451283e-16
10
-3.4988496935202904
20
1.1242537677662312
30
-1.7483827159451283e-16
10
-3.5065355717367765
20
1.1156407008202982
30
1.7483827159451283e-16
10
-3.5124658793403412
20
1.1056089693842168
30
1.7483827159451283e-16
10
-3.5181894246228791
20
1.0893792614800832
30
1.7483827159451283e-16
10
-3.5195523074483397
20
1.0838803959220793
30
1.7483827159451283e-16
10
-3.5203823259584488
20
1.0783027216788192
30
1.7483827159451283e-16
0
ARC
5
106
100
AcDbEntity
8
0
100
AcDbCircle
10
-3.1250000000000226
20
0.84999999999999598
30
9.9028769427678988e-44
40
0.45656250000001836
210
-4.2560074844507288e-17
220
3.5638854362191932e-17
230
1
100
AcDbArc
50
103.53023470491138
51
140.05794736737391
0
SPLINE
5
107
100
AcDbEntity
8
0
100
AcDbSpline
70
0
71
3
72
14
73
10
74
0
42
0.000000001
43
0.0000000001
44
0.0000000001
40
1.1721769094536161
40
1.1721769094536161
40
1.1721769094536161
40
1.1721769094536161
40
1.2309969164232972
40
1.2309969164232972
40
1.3190885875552403
40
1.3190885875552403
40
1.3689434724647127
40
1.3689434724647127
40
1.3746191578315987
40
1.3746191578315987
40
1.3746191578315987
40
1.3746191578315987
10
-3.155837610802168
20
1.3055198768070004
30
1.7483827159451283e-16
10
-3.1631908299197544
20
1.3077611609907023
30
1.7483827159451283e-16
10
-3.1708200574013921
20
1.3090424799633826
30
0
10
-3.1900876069182327
20
1.3097345352617262
30
3.4967654318902565e-16
10
-3.2016121769205941
20
1.3078890657885014
30
1.7483827159451283e-16
10
-3.2185958772723611
20
1.3016212966794065
30
-1.7483827159451283e-16
10
-3.2244647270515805
20
1.2986842724127483
30
5.2451481478353848e-16
10
-3.2305822212636106
20
1.2947239786963141
30
0
10
-3.2312021639552242
20
1.2943114693286122
30
0
10
-3.2318166531020402
20
1.2938913369579685
30
0
0
ARC
5
108
100
AcDbEntity
8
0
100
AcDbCircle
10
-3.1250000000000226
20
0.84999999999999598
30
9.9028769427678988e-44
40
0.45656250000001813
210
4.6867386087572389e-19
220
-6.9230479863866957e-18
230
1
100
AcDbArc
50
56.944793626035448
51
93.872878606127884
0
SPLINE
5
109
100
AcDbEntity
8
0
100
AcDbSpline
70
0
71
3
72
12
73
8
74
0
42
0.000000001
43
0.0000000001
44
0.0000000001
40
0.98772303106139547
40
0.98772303106139547
40
0.98772303106139547
40
0.98772303106139547
40
1.0549935852637597
40
1.0549935852637597
40
1.1430295899201894
40
1.1430295899201894
40
1.1818816857613217
40
1.1818816857613217
40
1.1818816857613217
40
1.1818816857613217
10
-2.8175133069690772
20
1.1874925925337378
30
0
10
-2.8216023875218457
20
1.1952827993531374
30
0
10
-2.826836377523382
20
1.2024345018546052
30
0
10
-2.8411853816973238
20
1.2169092629354448
30
3.4967654318902565e-16
10
-2.8508446270688945
20
1.22344731512177
30
3.4967654318902565e-16
10
-2.866179292576474
20
1.2299396425900335
30
1.7483827159451283e-16
10
-2.8710262059569209
20
1.2315148486582499
30
0
10
-2.8759694139485354
20
1.2326657596612252
30
0
0
ARC
5
110
100
AcDbEntity
8
0
100
AcDbCircle
10
-3.1250000000000226
20
0.84999999999999598
30
9.9028769427678988e-44
40
0.45656250000001841
210
-4.1034036618359332e-17
220
3.7385769349081617e-17
230
1
100
AcDbArc
50
10.385891907947101
51
47.663609111036259
0
SPLINE
5
111
100
AcDbEntity
8
0
100
AcDbSpline
70
0
71
3
72
12
73
8
74
0
42
0.000000001
43
0.0000000001
44
0.0000000001
40
0.2226561158877246
40
0.2226561158877246
40
0.2226561158877246
40
0.2226561158877246
40
0.26365570990535242
40
0.26365570990535242
40
0.35148605017719808
40
0.35148605017719808
40
0.41206808980103288
40
0.41206808980103288
40
0.41206808980103288
40
0.41206808980103288
10
-2.6685586527519525
20
0.86051726811580265
30
0
10
-2.6668862215666564
20
0.86560453212647737
30
0
10
-2.6656750699580272
20
0.87084507089631202
30
-1.7483827159451283e-16
10
-2.6633863331793437
20
0.88759588620922447
30
-1.7483827159451283e-16
10
-2.66407157035386
20
0.89921093189003254
30
1.7483827159451283e-16
10
-2.6689556428428136
20
0.91806511887480446
30
0
10
-2.6719721028412664
20
0.92544237567905252
30
0
10
-2.6759178699002111
20
0.93230769606342323
30
1.7483827159451283e-16
0
ARC
5
112
100
AcDbEntity
8
0
100
AcDbCircle
10
-3.1250000000000226
20
0.84999999999999598
30
9.9028769427678988e-44
40
0.45656250000001841
210
3.9960688632185148e-20
220
-1.7342631523124857e-18
230
1
100
AcDbArc
50
0
51
1.3199690775048096
0
LINE
5
113
100
AcDbEntity
8
0
100
AcDbLine
10
-2.668437500000004
20
0.84999999999994602
30
-1.8244551903719486e-20
11
-2.6684375000000156
21
0.61740014815865008
31
-1.7483826422562025e-16
0
SPLINE
5
114
100
AcDbEntity
8
0
100
AcDbSpline
70
0
71
3
72
8
73
4
74
0
42
0.000000001
43
0.0000000001
44
0.0000000001
40
0.026109800147210895
40
0.026109800147210895
40
0.026109800147210895
40
0.026109800147210895
40
0.028900429301917621
40
0.028900429301917621
40
0.028900429301917621
40
0.028900429301917621
10
-2.6680400635919646
20
0.61638064461904851
30
0
10
-2.6681704575587966
20
0.61672133113118832
30
0
10
-2.6683029393758972
20
0.61706117194360333
30
0
10
-2.6684374999999894
20
0.61740014815865008
30
0
0
LINE
5
115
100
AcDbEntity
8
0
100
AcDbLine
10
-2.6680390333615702
20
0.6163779527559059
30
-1.7483827159451283e-16
11
-2.540964566928996
21
0.61637795275590568
31
-1.6391087961985577e-16
0
LINE
5
116
100
AcDbEntity
8
0
100
AcDbLine
10
-2.540964566928996
20
0.61637795275590568
30
-1.6391087961985577e-16
11
-2.5409645669289955
21
1.0910156324442342
31
1.748382715945129e-16
0
ARC
5
117
100
AcDbEntity
8
0
100
AcDbCircle
10
-2.875610236220334
20
1.0910156324442346
30
-1.7483827159451283e-16
40
0.33464566929133843
210
-1.0449157878825009e-15
220
1.6377735056491611e-30
230
1
100
AcDbArc
50
0
51
85.000000000000114
0
LINE
5
118
100
AcDbEntity
8
0
100
AcDbLine
10
-2.8464439443559608
20
1.4243878739316291
30
-1.7483827159451283e-16
11
-3.500380447085814
21
1.4815999045862809
31
-1.7483827159451283e-16
0
SPLINE
5
119
100
AcDbEntity
8
0
100
AcDbSpline
70
0
71
3
72
18
73
14
74
0
42
0.000000001
43
0.0000000001
44
0.0000000001
40
0
40
0
40
0
40
0
40
0.01983896342890085
40
0.01983896342890085
40
0.039675048732216014
40
0.039675048732216014
40
0.059515845337580579
40
0.059515845337580579
40
0.07936624661097523
40
0.07936624661097523
40
0.089836368969641173
40
0.089836368969641173
40
0.10030686692304869
40
0.10030686692304869
40
0.10030686692304869
40
0.10030686692304869
10
-3.5211737863908117
20
1.4555596356235505
30
-1.7483827159451283e-16
10
-3.5219705120764759
20
1.4580382725358543
30
-1.7483827159451283e-16
10
-3.5222754838999335
20
1.4606487645809112
30
8.7419135797256413e-16
10
-3.521867443315188
20
1.4658394350371158
30
8.7419135797256413e-16
10
-3.5211584904040234
20
1.4683698536035299
30
1.7483827159451283e-16
10
-3.5188103194287237
20
1.4730172510128932
30
8.7419135797256413e-16
10
-3.5171933854311064
20
1.4750896006109755
30
-5.2451481478353848e-16
10
-3.5132553908614206
20
1.4784990504734492
30
1.7483827159451283e-16
10
-3.5109716652750773
20
1.4798031816599344
30
1.7483827159451283e-16
10
-3.5071998752366409
20
1.4810708728482549
30
5.2451481478353848e-16
10
-3.5058557891083533
20
1.4813733396807902
30
-1.7483827159451283e-16
10
-3.5031269018551234
20
1.4816981706689183
30
5.2451481478353848e-16
10
-3.5017493193175766
20
1.4817196653883751
30
-1.7483827159451283e-16
10
-3.500380447085814
20
1.4815999045862804
30
-1.7483827159451283e-16
0
SPLINE
5
120
100
AcDbEntity
8
0
100
AcDbSpline
70
0
71
3
72
19
73
15
74
0
42
0.000000001
43
0.0000000001
44
0.0000000001
40
-1.0329924810588409
40
-1.0329924810588409
40
-1.0329924810588409
40
-1.0329924810588409
40
-1.0272259851819494
40
-1.0272259851819494
40
-1.0272259851819494
40
-0.94060513270280488
40
-0.94060513270280488
40
-0.82306996396277032
40
-0.82306996396277032
40
-0.7055083157788653
40
-0.7055083157788653
40
-0.58791584380303852
40
-0.58791584380303852
40
-0.5426162382103894
40
-0.5426162382103894
40
-0.5426162382103894
40
-0.5426162382103894
10
-3.5211737863908108
20
1.4555596356235503
30
1.7483827159451283e-16
10
-3.5209262717472525
20
1.4547896103276459
30
8.7419135797256413e-16
10
-3.5206861277234469
20
1.454016853636801
30
8.7419135797256413e-16
10
-3.5204534079381364
20
1.4532414659779564
30
1.7483827159451283e-16
10
-3.5169576304984647
20
1.4415940562780587
30
1.7483827159451283e-16
10
-3.515179324396112
20
1.428690400587814
30
1.7483827159451283e-16
10
-3.515179324396112
20
1.401898271818893
30
1.7483827159451283e-16
10
-3.5187914910766516
20
1.3837446790294774
30
-5.2451481478353848e-16
10
-3.5306008770952895
20
1.3552416727231973
30
1.7483827159451283e-16
10
-3.5408888630422291
20
1.3398497134413556
30
5.2451481478353848e-16
10
-3.5627131563374497
20
1.3180312058106518
30
-1.7483827159451283e-16
10
-3.5781122589815761
20
1.3077451734187691
30
1.7483827159451283e-16
10
-3.597862672635574
20
1.2995663243091158
30
-1.7483827159451283e-16
10
-3.6039117859981338
20
1.2975375918457077
30
5.2451481478353848e-16
10
-3.6101761040371065
20
1.2959871266326226
30
-1.7483827159451283e-16
0
LINE
5
121
100
AcDbEntity
8
0
100
AcDbLine
10
-3.6101761040371065
20
1.2959871266326226
30
-1.7483827159451226e-16
11
-3.6101761040371576
21
1.1673259812757766
31
1.7483827159451278e-16
0
LINE
5
122
100
AcDbEntity
8
0
100
AcDbLine
10
-3.6101761040371576
20
1.1673259812757766
30
1.7483827159451278e-16
11
-3.6701761040371577
21
1.1673259812757766
31
-1.7483827159451283e-16
0
LINE
5
123
100
AcDbEntity
8
0
100
AcDbLine
10
-3.6701761040371577
20
1.1673259812757766
30
-1.7483827159451283e-16
11
-3.6701761040371577
21
1.2959592409164833
31
-1.7483827159451278e-16
0
SPLINE
5
124
100
AcDbEntity
8
0
100
AcDbSpline
70
0
71
3
72
22
73
18
74
0
42
0.000000001
43
0.0000000001
44
0.0000000001
40
-0.39825552332111069
40
-0.39825552332111069
40
-0.39825552332111069
40
-0.39825552332111069
40
-0.35268522357106802
40
-0.35268522357106802
40
-0.23509643388126245
40
-0.23509643388126245
40
-0.11753664950025011
40
-0.11753664950025011
40
0
40
0
40
0
40
0.11753664950025008
40
0.11753664950025008
40
0.1401663919306512
40
0.1401663919306512
40
0.1401663919306512
40
0.14600362789509977
40
0.14600362789509977
40
0.14600362789509977
40
0.14600362789509977
10
-3.6701761040372043
20
1.2959592409164948
30
1.7483827159451283e-16
10
-3.676480416075631
20
1.2975134082178688
30
1.7483827159451283e-16
10
-3.6825691438896651
20
1.299552631652825
30
1.7483827159451283e-16
10
-3.7023518809626799
20
1.3077450115129421
30
-1.7483827159451283e-16
10
-3.7177503836647587
20
1.3180308980661981
30
1.7483827159451283e-16
10
-3.7395738466113633
20
1.3398492068130861
30
5.2451481478353848e-16
10
-3.7498613787105493
20
1.3552411164024978
30
-1.7483827159451283e-16
10
-3.7616703927011961
20
1.3837442224332979
30
-1.7483827159451283e-16
10
-3.7652824362050445
20
1.4018980774934053
30
-1.7483827159451283e-16
10
-3.7652824362050445
20
1.4173228346456692
30
-1.7483827159451283e-16
10
-3.7652824362050445
20
1.4327475917979331
30
-1.7483827159451283e-16
10
-3.7616703927011961
20
1.4509014468580406
30
-1.7483827159451283e-16
10
-3.7546297632199188
20
1.4678952287933795
30
-1.7483827159451283e-16
10
-3.7533547539578671
20
1.4706936011815874
30
1.7483827159451283e-16
10
-3.7519453494750716
20
1.4734943865600463
30
-1.7483827159451283e-16
10
-3.7515818001964738
20
1.4742168360174415
30
-1.7483827159451283e-16
10
-3.7512114112174175
20
1.4749354130446002
30
-1.7483827159451283e-16
10
-3.7508342525791476
20
1.4756500283350258
30
1.7483827159451283e-16
0
SPLINE
5
125
100
AcDbEntity
8
0
100
AcDbSpline
70
0
71
3
72
18
73
14
74
0
42
0.000000001
43
0.0000000001
44
0.0000000001
40
0
40
0
40
0
40
0
40
0.019858330825410567
40
0.019858330825410567
40
0.039713040948205339
40
0.039713040948205339
40
0.05956044467140028
40
0.05956044467140028
40
0.079401091152489195
40
0.079401091152489195
40
0.08985521443338304
40
0.08985521443338304
40
0.10030963586548763
40
0.10030963586548763
40
0.10030963586548763
40
0.10030963586548763
10
-3.7667865488816759
20
1.5049074183875524
30
1.7483827159451283e-16
10
-3.7641903856426695
20
1.5046802835354767
30
1.7483827159451283e-16
10
-3.7616633589296158
20
1.5039482393081873
30
5.2451481478353848e-16
10
-3.7570327069718008
20
1.5015568778786383
30
5.2451481478353848e-16
10
-3.7549732166391787
20
1.499920560176401
30
5.2451481478353848e-16
10
-3.7515982681310422
20
1.4959511718645129
30
5.2451481478353848e-16
10
-3.7503148083632771
20
1.4936563087138099
30
5.2451481478353848e-16
10
-3.7487003587042111
20
1.4887045049689662
30
-1.7483827159451283e-16
10
-3.7483845061881356
20
1.4860951000026592
30
-5.2451481478353848e-16
10
-3.7486795483768955
20
1.4821304303704834
30
-1.7483827159451283e-16
10
-3.7489219128298594
20
1.4807764151711218
30
-1.7483827159451283e-16
10
-3.7496800822482363
20
1.4781393780388929
30
5.2451481478353848e-16
10
-3.7501938814682396
20
1.4768633612431663
30
-1.7483827159451283e-16
10
-3.7508342525791476
20
1.4756500283350258
30
-1.7483827159451283e-16
0
LINE
5
126
100
AcDbEntity
8
0
100
AcDbLine
10
-3.7667865488816759
20
1.5049074183875524
30
1.7483827159451283e-16
11
-3.8174149677437779
21
1.5093368310902282
31
5.1905111879620991e-16
0
LINE
5
127
100
AcDbEntity
8
0
100
AcDbLine
10
-3.8174149677437779
20
1.5093368310902282
30
5.1905111879620991e-16
11
-3.8174149677437783
21
0.90943954031973606
31
-1.5857008548718454e-16
0
CIRCLE
5
128
100
AcDbEntity
8
0
100
AcDbCircle
10
-3.6796418124217625
20
0.86614174167002278
30
-1.7483827159451283e-16
40
0.039370078740157341
210
1.1102230246251565e-16
220
-0
230
1
0
CIRCLE
5
129
100
AcDbEntity
8
0
100
AcDbCircle
10
-3.6796418124217625
20
0.96456693852041642
30
-1.7483827159451283e-16
40
0.039370078740157341
210
1.1102230246251565e-16
220
-0
230
1
0
CIRCLE
5
130
100
AcDbEntity
8
0
100
AcDbCircle
10
-3.6796418124217625
20
0.76771654481962903
30
-1.7483827159451283e-16
40
0.039370078740157341
210
1.1102230246251565e-16
220
-0
230
1
0
CIRCLE
5
131
100
AcDbEntity
8
0
100
AcDbCircle
10
-3.6796418124217625
20
1.0629921353708101
30
-1.7483827159451283e-16
40
0.039370078740157341
210
1.1102230246251565e-16
220
-0
230
1
0
ENDSEC
0
SECTION
2
OBJECTS
0
DICTIONARY
5
C
100
AcDbDictionary
3
ACAD_GROUP
350
D
3
ACAD_MLINESTYLE
350
17
0
DICTIONARY
5
D
100
AcDbDictionary
0
DICTIONARY
5
1A
330
C
100
AcDbDictionary
0
DICTIONARY
5
17
100
AcDbDictionary
0
ENDSEC
0
EOF
