0
SECTION
2
HEADER
9
$INSUNITS
70
1
9
$ACADVER
1
AC1014
9
$HANDSEED
5
FFFF
0
ENDSEC
0
SECTION
2
TABLES
0
TABLE
2
VPORT
5
8
100
AcDbSymbolTable
0
ENDTAB
0
TABLE
2
LTYPE
5
5
100
AcDbSymbolTable
0
LTYPE
5
14
100
AcDbSymbolTableRecord
100
AcDbLinetypeTableRecord
2
BYBLOCK
70
0
0
LTYPE
5
15
100
AcDbSymbolTableRecord
100
AcDbLinetypeTableRecord
2
BYLAYER
70
0
0
ENDTAB
0
TABLE
2
LAYER
5
2
100
AcDbSymbolTable
70
2
0
LAYER
5
50
100
AcDbSymbolTableRecord
100
AcDbLayerTableRecord
2
0
70
0
6
CONTINUOUS
0
ENDTAB
0
TABLE
2
STYLE
5
3
100
AcDbSymbolTable
70
1
0
STYLE
5
11
100
AcDbSymbolTableRecord
100
AcDbTextStyleTableRecord
2
STANDARD
70
0
0
ENDTAB
0
TABLE
2
VIEW
5
6
100
AcDbSymbolTable
70
0
0
ENDTAB
0
TABLE
2
UCS
5
7
100
AcDbSymbolTable
70
0
0
ENDTAB
0
TABLE
2
APPID
5
9
100
AcDbSymbolTable
70
2
0
APPID
5
12
100
AcDbSymbolTableRecord
100
AcDbRegAppTableRecord
2
ACAD
70
0
0
ENDTAB
0
TABLE
2
DIMSTYLE
5
A
100
AcDbSymbolTable
70
1
0
ENDTAB
0
TABLE
2
BLOCK_RECORD
5
1
100
AcDbSymbolTable
70
1
0
BLOCK_RECORD
5
1F
100
AcDbSymbolTableRecord
100
AcDbBlockTableRecord
2
*MODEL_SPACE
0
BLOCK_RECORD
5
1B
100
AcDbSymbolTableRecord
100
AcDbBlockTableRecord
2
*PAPER_SPACE
0
ENDTAB
0
ENDSEC
0
SECTION
2
BLOCKS
0
BLOCK
5
20
100
AcDbEntity
100
AcDbBlockBegin
2
*MODEL_SPACE
0
ENDBLK
5
21
100
AcDbEntity
100
AcDbBlockEnd
0
BLOCK
5
1C
100
AcDbEntity
100
AcDbBlockBegin
2
*PAPER_SPACE
0
ENDBLK
5
1D
100
AcDbEntity
100
AcDbBlockEnd
0
ENDSEC
0
SECTION
2
ENTITIES
0
ARC
5
100
100
AcDbEntity
8
0
100
AcDbCircle
10
-3.5174149677437785
20
0.90943946135076215
30
1.748382715945128e-16
40
0.29999999999999943
210
-5.7194708571498589e-17
220
-1.6870734659929909e-18
230
1
100
AcDbArc
50
180
51
257.65332138770697
0
LINE
5
101
100
AcDbEntity
8
0
100
AcDbLine
10
-3.5815628607731411
20
0.61637795275590579
30
1.7067493525216848e-16
11
-3.5815628607731504
21
0.66373613772124573
31
1.7483827159451283e-16
0
SPLINE
5
102
100
AcDbEntity
8
0
100
AcDbSpline
70
0
71
3
72
12
73
8
74
0
42
0.000000001
43
0.0000000001
44
0.0000000001
40
-0.32241581597657393
40
-0.32241581597657393
40
-0.32241581597657393
40
-0.32241581597657393
40
-0.2636002748682873
40
-0.2636002748682873
40
-0.1757410906895357
40
-0.1757410906895357
40
-0.13245907068270421
40
-0.13245907068270421
40
-0.13245907068270421
40
-0.13245907068270421
10
-3.5815532037637885
20
0.73609837063115768
30
-1.7483827159451283e-16
10
-3.5846923527323256
20
0.72908209870918461
30
-1.7483827159451283e-16
10
-3.5869119535896292
20
0.72167215039220123
30
1.7483827159451283e-16
10
-3.5899833523673585
20
0.7026701137156639
30
1.7483827159451283e-16
10
-3.5895831354195593
20
0.69103753499745502
30
1.7483827159451283e-16
10
-3.5856745320912791
20
0.67427722156863157
30
1.7483827159451283e-16
10
-3.5838583796240089
20
0.6688958723381272
30
1.7483827159451283e-16
10
-3.5815481889445793
20
0.66373613772124596
30
-1.7483827159451283e-16
0
LINE
5
103
100
AcDbEntity
8
0
100
AcDbLine
10
-3.5815628607731651
20
0.73609837063115557
30
1.7483827159451283e-16
11
-3.5815628607731882
21
0.84999999999990494
31
1.7483827159451034e-16
0
ARC
5
104
100
AcDbEntity
8
0
100
AcDbCircle
10
-3.1250003607727166
20
0.84999999999999221
30
3.4967654318910656e-16
40
0.45656250000040899
210
-1.7720434197097362e-28
220
4.0853603302083795e-29
230
1
100
AcDbArc
50
177.49623424213451
51
180
0
ARC
5
105
100
AcDbEntity
8
0
100
AcDbCircle
10
-3.1249999999998801
20
0.84999999999999498
30
5.245148147835299e-16
40
0.4565624999999176
210
5.5458157735754666e-17
220
-2.4250054798933209e-18
230
1
100
AcDbArc
50
167.36770224974632
51
177.49623621996381
0
ARC
5
106
100
AcDbEntity
8
0
100
AcDbCircle
10
-3.1250003607727166
20
0.84999999999999221
30
3.4967654318910656e-16
40
0.45656250000039011
210
-5.720240818316605e-17
220
-1.4019284997627017e-18
230
1
100
AcDbArc
50
161.59434733925247
51
167.36769234844857
0
SPLINE
5
107
100
AcDbEntity
8
0
100
AcDbSpline
70
0
71
3
72
12
73
8
74
0
42
0.000000001
43
0.0000000001
44
0.0000000001
40
0.14086027244037261
40
0.14086027244037261
40
0.14086027244037261
40
0.14086027244037261
40
0.22033945794621834
40
0.22033945794621834
40
0.3082772369667669
40
0.3082772369667669
40
0.35080419868621071
40
0.35080419868621071
40
0.35080419868621071
40
0.35080419868621071
10
-3.526650529375758
20
1.0670736424335732
30
1.7483827159451283e-16
10
-3.5346295526036098
20
1.0603828682240575
30
1.7483827159451283e-16
10
-3.5413752153871556
20
1.0523327010949273
30
-1.7483827159451283e-16
10
-3.5523156036948857
20
1.0332798565031214
30
1.7483827159451283e-16
10
-3.5560524884753182
20
1.0222455302474183
30
-1.7483827159451283e-16
10
-3.5583006103137929
20
1.0052727783315027
30
1.7483827159451283e-16
10
-3.5585070823245517
20
0.99969666948681646
30
1.7483827159451283e-16
10
-3.5581917255441486
20
0.9941510557069918
30
1.7483827159451283e-16
0
ARC
5
108
100
AcDbEntity
8
0
100
AcDbCircle
10
-3.1250003607727166
20
0.84999999999999221
30
3.4967654318910656e-16
40
0.4565625000003431
210
9.7670557637834156e-17
220
-5.2786492730008297e-17
230
1
100
AcDbArc
50
145.65165208576136
51
151.61079562292019
0
ARC
5
109
100
AcDbEntity
8
0
100
AcDbCircle
10
-3.1249999999998801
20
0.84999999999999498
30
5.245148147835299e-16
40
0.45656249999995935
210
4.5831268316465746e-17
220
-3.1320644238671934e-17
230
1
100
AcDbArc
50
134.5781079295646
51
145.651677630807
0
ARC
5
110
100
AcDbEntity
8
0
100
AcDbCircle
10
-3.1250003607727166
20
0.84999999999999221
30
3.4967654318910656e-16
40
0.4565625000002827
210
-3.9540297359607053e-17
220
-3.8962197008537198e-17
230
1
100
AcDbArc
50
132.06799687745271
51
134.5780756805888
0
ARC
5
111
100
AcDbEntity
8
0
100
AcDbCircle
10
-3.1249999999998801
20
0.84999999999999498
30
5.245148147835299e-16
40
0.45656249999995574
210
-4.120869232405842e-17
220
-3.7193165877092875e-17
230
1
100
AcDbArc
50
120.99446078596172
51
132.06803048716756
0
ARC
5
112
100
AcDbEntity
8
0
100
AcDbCircle
10
-3.1250003607727166
20
0.84999999999999221
30
3.4967654318910656e-16
40
0.45656250000018767
210
7.6170850802009536e-17
220
-1.8999402888304757e-17
230
1
100
AcDbArc
50
115.1654909928335
51
120.99442197564159
0
SPLINE
5
113
100
AcDbEntity
8
0
100
AcDbSpline
70
0
71
3
72
14
73
10
74
0
42
0.000000001
43
0.0000000001
44
0.0000000001
40
0.16865833755622711
40
0.16865833755622711
40
0.16865833755622711
40
0.16865833755622711
40
0.175864269180635
40
0.175864269180635
40
0.26393900459518399
40
0.26393900459518399
40
0.35202062470014656
40
0.35202062470014656
40
0.37317326424204689
40
0.37317326424204689
40
0.37317326424204689
40
0.37317326424204689
10
-3.2463865033065282
20
1.2901350058346737
30
1.7483827159451283e-16
10
-3.2473263280177647
20
1.290227284725169
30
1.7483827159451283e-16
10
-3.2482682308651492
20
1.2903046252480677
30
6.9935308637805131e-16
10
-3.2607454422745343
20
1.2911285145371276
30
5.2451481478353848e-16
10
-3.2723181999960791
20
1.2896301156471879
30
-1.7483827159451283e-16
10
-3.2942374678119344
20
1.2822816275476632
30
1.7483827159451283e-16
10
-3.3043752550135643
20
1.2765011380571849
30
1.7483827159451283e-16
10
-3.3152174667413434
20
1.2671229310484022
30
1.7483827159451283e-16
10
-3.3172269001105628
20
1.2652124859389835
30
1.7483827159451283e-16
10
-3.3191405883690233
20
1.2632148060206165
30
-1.7483827159451283e-16
0
ARC
5
114
100
AcDbEntity
8
0
100
AcDbCircle
10
-3.1250003607727166
20
0.84999999999999221
30
3.4967654318910656e-16
40
0.45656250000008503
210
-6.0892582171326323e-17
220
1.1998055062714539e-17
230
1
100
AcDbArc
50
99.278391484604043
51
105.41848240442131
0
ARC
5
115
100
AcDbEntity
8
0
100
AcDbCircle
10
-3.1249999999998801
20
0.84999999999999498
30
5.245148147835299e-16
40
0.4565624999999579
210
2.2375489900232366e-18
220
-1.3696217322913826e-17
230
1
100
AcDbArc
50
88.204866465779332
51
99.278436167017418
0
ARC
5
116
100
AcDbEntity
8
0
100
AcDbCircle
10
-3.1250003607727166
20
0.84999999999999221
30
3.4967654318910656e-16
40
0.45656249999999271
210
1.3302761612445905e-29
220
1.7670425394354224e-28
230
1
100
AcDbArc
50
85.694743876387136
51
88.204821213233018
0
ARC
5
117
100
AcDbEntity
8
0
100
AcDbCircle
10
-3.1249999999998801
20
0.84999999999999498
30
5.245148147835299e-16
40
0.45656249999995252
210
1.1070903196222418e-16
220
-8.3343797648553844e-18
230
1
100
AcDbArc
50
74.621219322180849
51
85.694789023402933
0
ARC
5
118
100
AcDbEntity
8
0
100
AcDbCircle
10
-3.1250003607727166
20
0.84999999999999221
30
3.4967654318910656e-16
40
0.45656249999987913
210
6.4666499796064683e-29
220
1.6498363746869749e-28
230
1
100
AcDbArc
50
68.596953691028446
51
74.621175668545433
0
SPLINE
5
119
100
AcDbEntity
8
0
100
AcDbSpline
70
0
71
3
72
12
73
8
74
0
42
0.000000001
43
0.0000000001
44
0.0000000001
40
1.0251591797054875
40
1.0251591797054875
40
1.0251591797054875
40
1.0251591797054875
40
1.054951915034918
40
1.054951915034918
40
1.1429082556011472
40
1.1429082556011472
40
1.2212060652304217
40
1.2212060652304217
40
1.2212060652304217
40
1.2212060652304217
10
-2.8914183981062727
20
1.242305755858311
30
0
10
-2.8938732524088246
20
1.2453277055414278
30
0
10
-2.8965296602630874
20
1.2481910235587237
30
3.4967654318902565e-16
10
-2.9077661412234872
20
1.2587990227163957
30
3.4967654318902565e-16
10
-2.917626509094033
20
1.2650093691523376
30
0
10
-2.9379867546261487
20
1.2728523982888167
30
1.7483827159451283e-16
10
-2.9481357657764651
20
1.2748505862430368
30
1.7483827159451283e-16
10
-2.9583897488540836
20
1.275073645270848
30
0
0
ARC
5
120
100
AcDbEntity
8
0
100
AcDbCircle
10
-3.1250003607727166
20
0.84999999999999221
30
3.4967654318910656e-16
40
0.45656249999978543
210
-1.1469128953269215e-16
220
1.3289389457582499e-16
230
1
100
AcDbArc
50
52.905158590350467
51
59.230095420680243
0
ARC
5
121
100
AcDbEntity
8
0
100
AcDbCircle
10
-3.1249999999998801
20
0.84999999999999498
30
5.245148147835299e-16
40
0.45656249999996895
210
-3.3480755533481205e-17
220
-4.4277837796453629e-17
230
1
100
AcDbArc
50
41.831625001998042
51
52.90519470325286
0
ARC
5
122
100
AcDbEntity
8
0
100
AcDbCircle
10
-3.1250003607727166
20
0.84999999999999221
30
3.4967654318910656e-16
40
0.45656249999971849
210
-4.3390229655206225e-18
220
-7.8384620313710123e-17
230
1
100
AcDbArc
50
39.321518870291293
51
41.831594806288912
0
ARC
5
123
100
AcDbEntity
8
0
100
AcDbCircle
10
-3.1249999999998801
20
0.84999999999999498
30
5.245148147835299e-16
40
0.45656249999996518
210
-8.5887070317086411e-17
220
-7.0351707843029706e-17
230
1
100
AcDbArc
50
28.247977858395739
51
39.321547559636521
0
ARC
5
124
100
AcDbEntity
8
0
100
AcDbCircle
10
-3.1250003607727166
20
0.84999999999999221
30
3.4967654318910656e-16
40
0.45656249999965764
210
9.7800392179070476e-17
220
5.2545551036751131e-17
230
1
100
AcDbArc
50
22.009441288723096
51
28.247956430380803
0
SPLINE
5
125
100
AcDbEntity
8
0
100
AcDbSpline
70
0
71
3
72
12
73
8
74
0
42
0.000000001
43
0.0000000001
44
0.0000000001
40
0.83666462167473354
40
0.83666462167473354
40
0.83666462167473354
40
0.83666462167473354
40
0.87919556190719328
40
0.87919556190719328
40
0.96698031711936805
40
0.96698031711936805
40
1.0263572228688447
40
1.0263572228688447
40
1.0263572228688447
40
1.0263572228688447
10
-2.679994563324291
20
0.95217130086704505
30
0
10
-2.6793560274936392
20
0.95768962640325883
30
0
10
-2.6792369770418905
20
0.96326886781962617
30
1.7483827159451283e-16
10
-2.6804907691001771
20
0.98032458903406328
30
3.4967654318902565e-16
10
-2.6835696939786224
20
0.99153900284907692
30
0
10
-2.6921830657880812
20
1.0088246610015821
30
1.7483827159451283e-16
10
-2.6965556045896384
20
1.015296021004529
30
0
10
-2.7017016873707873
20
1.0211049087316109
30
0
0
ARC
5
126
100
AcDbEntity
8
0
100
AcDbCircle
10
-3.1250003607727166
20
0.84999999999999221
30
3.4967654318910656e-16
40
0.45656249999963089
210
1.1131239218292268e-16
220
1.1317949685927661e-17
230
1
100
AcDbArc
50
6.5319480890457928
51
12.930747458641148
0
ARC
5
127
100
AcDbEntity
8
0
100
AcDbCircle
10
-3.1249999999998801
20
0.84999999999999498
30
5.245148147835299e-16
40
0.45656250000010828
210
7.8934983868192931e-19
220
-6.8938505526147778e-18
230
1
100
AcDbArc
50
0
51
6.5319532393807203
0
LINE
5
128
100
AcDbEntity
8
0
100
AcDbLine
10
-2.6684374999997718
20
0.84999999999999598
30
5.2415442724780653e-16
11
-2.6684378607730923
21
0.69324366089410461
31
1.7483827159451283e-16
0
SPLINE
5
129
100
AcDbEntity
8
0
100
AcDbSpline
70
0
71
3
72
10
73
6
74
0
42
0.000000001
43
0.0000000001
44
0.0000000001
40
0.093109101090968371
40
0.093109101090968371
40
0.093109101090968371
40
0.093109101090968371
40
0.17566209589222176
40
0.17566209589222176
40
0.26352091743248685
40
0.26352091743248685
40
0.26352091743248685
40
0.26352091743248685
10
-2.6684378605196715
20
0.62792011911478385
30
0
10
-2.6644430362269009
20
0.6379777909357639
30
0
10
-2.66232464176545
20
0.64868883207230743
30
5.2451481478353848e-16
10
-2.6620535966537733
20
0.67105097609735975
30
1.7483827159451283e-16
10
-2.6641672312380913
20
0.68249692704339049
30
1.7483827159451283e-16
10
-2.6684133767546845
20
0.69321680360884719
30
0
0
LINE
5
130
100
AcDbEntity
8
0
100
AcDbLine
10
-2.6684378605196715
20
0.62792011911478385
30
0
11
-2.6684378607731003
21
0.6163779527559059
31
3.4967654318902555e-16
0
LINE
5
131
100
AcDbEntity
8
0
100
AcDbLine
10
-2.6684378607731003
20
0.6163779527559059
30
3.4967654318902555e-16
11
-2.5409645669289955
21
0.61637795275590568
31
3.6060393516368269e-16
0
LINE
5
132
100
AcDbEntity
8
0
100
AcDbLine
10
-2.5409645669289955
20
0.61637795275590568
30
3.6060393516368269e-16
11
-2.5409645669289955
21
1.0910156324442342
31
1.748382715945129e-16
0
ARC
5
133
100
AcDbEntity
8
0
100
AcDbCircle
10
-2.875610236220334
20
1.0910156324442339
30
3.496765431890256e-16
40
0.33464566929133877
210
5.2245789394124946e-16
220
-2.0743737013553819e-18
230
1
100
AcDbArc
50
0
51
85.000000000000114
0
LINE
5
134
100
AcDbEntity
8
0
100
AcDbLine
10
-2.8464439443559608
20
1.4243878739316289
30
3.5199861398364024e-16
11
-3.5003804440155664
21
1.4815999043176691
31
1.7483827159451283e-16
0
SPLINE
5
135
100
AcDbEntity
8
0
100
AcDbSpline
70
0
71
3
72
18
73
14
74
0
42
0.000000001
43
0.0000000001
44
0.0000000001
40
0
40
0
40
0
40
0
40
0.019838963417805014
40
0.019838963417805014
40
0.039675048704551671
40
0.039675048704551671
40
0.05951584530239766
40
0.05951584530239766
40
0.079366246586666842
40
0.079366246586666842
40
0.089836368924529231
40
0.089836368924529231
40
0.10030686685788077
40
0.10030686685788077
40
0.10030686685788077
40
0.10030686685788077
10
-3.5211737833494166
20
1.4555596353944869
30
1.7483827159451283e-16
10
-3.5219705090304716
20
1.4580382723067427
30
-1.7483827159451283e-16
10
-3.5222754808493666
20
1.4606487643507271
30
5.2451481478353848e-16
10
-3.5218674402558245
20
1.4658394348025718
30
1.7483827159451283e-16
10
-3.5211584873408119
20
1.4683698533654841
30
-1.7483827159451283e-16
10
-3.5188103163589513
20
1.4730172507679893
30
-1.7483827159451283e-16
10
-3.5171933823583617
20
1.4750896003624026
30
-1.7483827159451283e-16
10
-3.5132553877828188
20
1.4784990502188875
30
1.7483827159451283e-16
10
-3.5109716621930449
20
1.4798031814023958
30
-1.7483827159451283e-16
10
-3.5071998721538757
20
1.4810708725847783
30
-1.7483827159451283e-16
10
-3.5058557860278912
20
1.4813733394151993
30
1.7483827159451283e-16
10
-3.5031268987796813
20
1.4816981704006473
30
5.2451481478353848e-16
10
-3.5017493162447422
20
1.4817196651195372
30
1.7483827159451283e-16
10
-3.5003804440155664
20
1.4815999043176689
30
5.2451481478353848e-16
0
SPLINE
5
136
100
AcDbEntity
8
0
100
AcDbSpline
70
0
71
3
72
19
73
15
74
0
42
0.000000001
43
0.0000000001
44
0.0000000001
40
0.84821778529092839
40
0.84821778529092839
40
0.84821778529092839
40
0.84821778529092839
40
0.85398428125318526
40
0.85398428125318526
40
0.85398428125318526
40
0.9406051330741293
40
0.9406051330741293
40
1.0581403017830757
40
1.0581403017830757
40
1.1757019499865948
40
1.1757019499865948
40
1.2932944220410658
40
1.2932944220410658
40
1.3385949057382123
40
1.3385949057382123
40
1.3385949057382123
40
1.3385949057382123
10
-3.5211737833494166
20
1.4555596353944871
30
1.7483827159451283e-16
10
-3.5209262687032772
20
1.4547896100861104
30
1.7483827159451283e-16
10
-3.5206861246771295
20
1.4540168533827178
30
-1.7483827159451283e-16
10
-3.5204534048897185
20
1.4532414657112551
30
1.7483827159451283e-16
10
-3.5169576274968231
20
1.4415940560827445
30
1.7483827159451283e-16
10
-3.5151793214232865
20
1.4286904005014363
30
1.7483827159451283e-16
10
-3.5151793214232865
20
1.4018982718229729
30
1.7483827159451283e-16
10
-3.5187914881050668
20
1.3837446790387962
30
5.2451481478353848e-16
10
-3.5306008741281207
20
1.3552416727359751
30
1.7483827159451283e-16
10
-3.5408888600812869
20
1.3398497134545801
30
-1.7483827159451283e-16
10
-3.562713153391166
20
1.3180312058202996
30
-1.7483827159451283e-16
10
-3.5781122560485259
20
1.3077451734259309
30
5.2451481478353848e-16
10
-3.5978627761822586
20
1.2995662802258321
30
-1.7483827159451283e-16
10
-3.6039120179841881
20
1.2975375137487344
30
5.2451481478353848e-16
10
-3.6101764657500115
20
1.2959870363901396
30
-1.7483827159451283e-16
0
LINE
5
137
100
AcDbEntity
8
0
100
AcDbLine
10
-3.6101764657500119
20
1.2959870363901396
30
-1.748382715945131e-16
11
-3.6101764648102423
21
1.1673259812757766
31
-1.7483827159451283e-16
0
LINE
5
138
100
AcDbEntity
8
0
100
AcDbLine
10
-3.6101764648102423
20
1.1673259812757766
30
-1.7483827159451283e-16
11
-3.6701764648102428
21
1.1673259812757766
31
-1.7483827159451283e-16
0
LINE
5
139
100
AcDbEntity
8
0
100
AcDbLine
10
-3.6701764648102428
20
1.1673259812757766
30
-1.7483827159451283e-16
11
-3.6701764639294581
21
1.2959593301241097
31
-1.7483827159451283e-16
0
SPLINE
5
140
100
AcDbEntity
8
0
100
AcDbSpline
70
0
71
3
72
22
73
18
74
0
42
0.000000001
43
0.0000000001
44
0.0000000001
40
1.4829556157654409
40
1.4829556157654409
40
1.4829556157654409
40
1.4829556157654409
40
1.5285250425178125
40
1.5285250425178125
40
1.6461138322792055
40
1.6461138322792055
40
1.7636736166762594
40
1.7636736166762594
40
1.8812102661482584
40
1.8812102661482584
40
1.8812102661482584
40
1.9987469156202569
40
1.9987469156202569
40
2.0213766574585645
40
2.0213766574585645
40
2.0213766574585645
40
2.0272138935099289
40
2.0272138935099289
40
2.0272138935099289
40
2.0272138935099289
10
-3.6701764638800567
20
1.2959593303290686
30
1.7483827159451283e-16
10
-3.6764806469349138
20
1.2975134858012822
30
1.7483827159451283e-16
10
-3.6825692469184745
20
1.2995526754932636
30
1.7483827159451283e-16
10
-3.702351878152105
20
1.3077450115197942
30
-1.7483827159451283e-16
10
-3.7177503808662666
20
1.3180308980752562
30
1.7483827159451283e-16
10
-3.7395738438259372
20
1.33984920682534
30
1.7483827159451283e-16
10
-3.7498613759304802
20
1.35524111641421
30
1.7483827159451283e-16
10
-3.7616703899248303
20
1.3837442224417416
30
1.7483827159451283e-16
10
-3.7652824334296842
20
1.4018980774971128
30
1.7483827159451283e-16
10
-3.7652824334296842
20
1.4173228346456692
30
1.7483827159451283e-16
10
-3.7652824334296842
20
1.4327475917942254
30
1.7483827159451283e-16
10
-3.7616703899248303
20
1.4509014468495969
30
1.7483827159451283e-16
10
-3.7546297604721395
20
1.4678952287086589
30
5.2451481478353848e-16
10
-3.7533547512466727
20
1.4706936010219556
30
1.7483827159451283e-16
10
-3.7519453468072914
20
1.4734943863266439
30
-1.7483827159451283e-16
10
-3.7515817975249663
20
1.4742168357946701
30
1.7483827159451283e-16
10
-3.7512114085419905
20
1.4749354128323651
30
1.7483827159451283e-16
10
-3.7508342498996021
20
1.4756500281332248
30
1.7483827159451283e-16
0
SPLINE
5
141
100
AcDbEntity
8
0
100
AcDbSpline
70
0
71
3
72
18
73
14
74
0
42
0.000000001
43
0.0000000001
44
0.0000000001
40
0
40
0
40
0
40
0
40
0.019858330851449738
40
0.019858330851449738
40
0.039713040993338777
40
0.039713040993338777
40
0.05956044472162287
40
0.05956044472162287
40
0.079401091194869419
40
0.079401091194869419
40
0.089855214424342245
40
0.089855214424342245
40
0.10030963580559525
40
0.10030963580559525
40
0.10030963580559525
40
0.10030963580559525
10
-3.7667865462310983
20
1.5049074181556572
30
-1.7483827159451283e-16
10
-3.764190382988688
20
1.5046802833032835
30
5.2451481478353848e-16
10
-3.7616633562722281
20
1.5039482390750487
30
1.7483827159451283e-16
10
-3.7570327043092266
20
1.5015568776426824
30
1.7483827159451283e-16
10
-3.7549732139746106
20
1.4999205599388616
30
5.2451481478353848e-16
10
-3.751598265464902
20
1.495951171624238
30
1.7483827159451283e-16
10
-3.7503148056970579
20
1.4936563084729029
30
1.7483827159451283e-16
10
-3.7487003560391794
20
1.4887045047281804
30
1.7483827159451283e-16
10
-3.7483845035237864
20
1.486095099762998
30
1.7483827159451283e-16
10
-3.7486795457130051
20
1.4821304301387686
30
1.7483827159451283e-16
10
-3.7489219101645284
20
1.4807764149461087
30
1.7483827159451283e-16
10
-3.7496800795775451
20
1.4781393778263883
30
1.7483827159451283e-16
10
-3.7501938787936697
20
1.4768633610364037
30
1.7483827159451283e-16
10
-3.7508342498996021
20
1.475650028133225
30
1.7483827159451283e-16
0
LINE
5
142
100
AcDbEntity
8
0
100
AcDbLine
10
-3.7667865462310983
20
1.5049074181556572
30
-1.7483827159451283e-16
11
-3.8174149677437783
21
1.5093368310902282
31
1.6937457560718431e-16
0
LINE
5
143
100
AcDbEntity
8
0
100
AcDbLine
10
-3.8174149677437783
20
1.5093368310902282
30
1.6937457560718431e-16
11
-3.8174149677437779
21
0.90943946135076303
31
1.5767985902306327e-16
0
CIRCLE
5
144
100
AcDbEntity
8
0
100
AcDbCircle
10
-3.6796418124217625
20
1.0629921353708101
30
1.7483827159451283e-16
40
0.039370078740157341
210
1.1102230246251565e-16
220
-0
230
1
0
CIRCLE
5
145
100
AcDbEntity
8
0
100
AcDbCircle
10
-3.6796418124217625
20
0.96456693852041642
30
1.7483827159451283e-16
40
0.039370078740157341
210
1.1102230246251565e-16
220
-0
230
1
0
CIRCLE
5
146
100
AcDbEntity
8
0
100
AcDbCircle
10
-3.6796418124217625
20
0.86614174167002278
30
1.7483827159451283e-16
40
0.039370078740157341
210
1.1102230246251565e-16
220
-0
230
1
0
ENDSEC
0
SECTION
2
OBJECTS
0
DICTIONARY
5
C
100
AcDbDictionary
3
ACAD_GROUP
350
D
3
ACAD_MLINESTYLE
350
17
0
DICTIONARY
5
D
100
AcDbDictionary
0
DICTIONARY
5
1A
330
C
100
AcDbDictionary
0
DICTIONARY
5
17
100
AcDbDictionary
0
ENDSEC
0
EOF
