0
SECTION
2
HEADER
9
$INSUNITS
70
1
9
$ACADVER
1
AC1014
9
$HANDSEED
5
FFFF
0
ENDSEC
0
SECTION
2
TABLES
0
TABLE
2
VPORT
5
8
100
AcDbSymbolTable
0
ENDTAB
0
TABLE
2
LTYPE
5
5
100
AcDbSymbolTable
0
LTYPE
5
14
100
AcDbSymbolTableRecord
100
AcDbLinetypeTableRecord
2
BYBLOCK
70
0
0
LTYPE
5
15
100
AcDbSymbolTableRecord
100
AcDbLinetypeTableRecord
2
BYLAYER
70
0
0
ENDTAB
0
TABLE
2
LAYER
5
2
100
AcDbSymbolTable
70
2
0
LAYER
5
50
100
AcDbSymbolTableRecord
100
AcDbLayerTableRecord
2
0
70
0
6
CONTINUOUS
0
ENDTAB
0
TABLE
2
STYLE
5
3
100
AcDbSymbolTable
70
1
0
STYLE
5
11
100
AcDbSymbolTableRecord
100
AcDbTextStyleTableRecord
2
STANDARD
70
0
0
ENDTAB
0
TABLE
2
VIEW
5
6
100
AcDbSymbolTable
70
0
0
ENDTAB
0
TABLE
2
UCS
5
7
100
AcDbSymbolTable
70
0
0
ENDTAB
0
TABLE
2
APPID
5
9
100
AcDbSymbolTable
70
2
0
APPID
5
12
100
AcDbSymbolTableRecord
100
AcDbRegAppTableRecord
2
ACAD
70
0
0
ENDTAB
0
TABLE
2
DIMSTYLE
5
A
100
AcDbSymbolTable
70
1
0
ENDTAB
0
TABLE
2
BLOCK_RECORD
5
1
100
AcDbSymbolTable
70
1
0
BLOCK_RECORD
5
1F
100
AcDbSymbolTableRecord
100
AcDbBlockTableRecord
2
*MODEL_SPACE
0
BLOCK_RECORD
5
1B
100
AcDbSymbolTableRecord
100
AcDbBlockTableRecord
2
*PAPER_SPACE
0
ENDTAB
0
ENDSEC
0
SECTION
2
BLOCKS
0
BLOCK
5
20
100
AcDbEntity
100
AcDbBlockBegin
2
*MODEL_SPACE
0
ENDBLK
5
21
100
AcDbEntity
100
AcDbBlockEnd
0
BLOCK
5
1C
100
AcDbEntity
100
AcDbBlockBegin
2
*PAPER_SPACE
0
ENDBLK
5
1D
100
AcDbEntity
100
AcDbBlockEnd
0
ENDSEC
0
SECTION
2
ENTITIES
0
ARC
5
100
100
AcDbEntity
8
0
100
AcDbCircle
10
-3.5174149677437798
20
0.90943660913028646
30
2.1854783949314122e-17
40
0.29999999999999943
210
8.9041166238371636e-18
220
4.0670058484069324e-17
230
1
100
AcDbArc
50
180
51
257.6507740928065
0
LINE
5
101
100
AcDbEntity
8
0
100
AcDbLine
10
-3.5815758898384611
20
0.61637795275590135
30
3.4344792976347113e-17
11
-3.5815758898384855
21
0.63447546365484797
31
-3.2782175923971154e-16
0
LINE
5
102
100
AcDbEntity
8
0
100
AcDbLine
10
-3.5815624999999334
20
0.6344754636435318
30
2.1854783949314103e-17
11
-3.5815624999999285
21
0.76599173271951693
31
2.1854783949313792e-17
0
LINE
5
103
100
AcDbEntity
8
0
100
AcDbLine
10
-3.5815758898385113
20
0.76599173270820065
30
-3.2782175923971154e-16
11
-3.581575889838521
21
0.81555251849526977
31
-3.2782175923971095e-16
0
SPLINE
5
104
100
AcDbEntity
8
0
100
AcDbSpline
70
0
71
3
72
12
73
8
74
0
42
0.000000001
43
0.0000000001
44
0.0000000001
40
-0.33372229729881936
40
-0.33372229729881936
40
-0.33372229729881936
40
-0.33372229729881936
40
-0.2635995826113437
40
-0.2635995826113437
40
-0.17574128674599743
40
-0.17574128674599743
40
-0.13270594755873963
40
-0.13270594755873963
40
-0.13270594755873963
40
-0.13270594755873963
10
-3.5796557739656918
20
0.89182844679580053
30
-3.2782175923971154e-16
10
-3.5838140829006906
20
0.88365043478716854
30
2.1854783949314103e-17
10
-3.5866838583510696
20
0.87486303708432844
30
-6.7749830242873724e-16
10
-3.5899849494231479
20
0.85439510862768109
30
2.1854783949314103e-17
10
-3.5895807315524855
20
0.84276279376090635
30
2.1854783949314103e-17
10
-3.5856737515549226
20
0.82603546712017428
30
2.1854783949314103e-17
10
-3.5838690865006417
20
0.82068456099802034
30
-3.2782175923971154e-16
10
-3.5815758898385366
20
0.81555251849526977
30
-3.2782175923971154e-16
0
ARC
5
105
100
AcDbEntity
8
0
100
AcDbCircle
10
-3.1250133898383941
20
0.84999999999998854
30
-1.5298348764519304e-16
40
0.45656250000007259
210
-5.5277693944267232e-17
220
5.0857116733211391e-18
230
1
100
AcDbArc
50
167.56427223126857
51
174.74341667222924
0
ARC
5
106
100
AcDbEntity
8
0
100
AcDbCircle
10
-3.1249999999998308
20
0.84999999999985931
30
2.1854783949314196e-17
40
0.45656250000009579
210
-5.9768339953412286e-18
220
-2.7104417225740546e-17
230
1
100
AcDbArc
50
145.45474579714281
51
167.56463408337908
0
ARC
5
107
100
AcDbEntity
8
0
100
AcDbCircle
10
-3.1250133898383941
20
0.84999999999998854
30
-1.5298348764519304e-16
40
0.45656250000006315
210
-7.7201568227652649e-17
220
-1.4244075443157668e-17
230
1
100
AcDbArc
50
138.39049235492527
51
145.45379292435572
0
SPLINE
5
108
100
AcDbEntity
8
0
100
AcDbSpline
70
0
71
3
72
14
73
10
74
0
42
0.000000001
43
0.0000000001
44
0.0000000001
40
0.15416654326445281
40
0.15416654326445281
40
0.15416654326445281
40
0.15416654326445281
40
0.17602074227956394
40
0.17602074227956394
40
0.26406433476444285
40
0.26406433476444285
40
0.352048714525386
40
0.352048714525386
40
0.36172020460785703
40
0.36172020460785703
40
0.36172020460785703
40
0.36172020460785703
10
-3.4092887426253586
20
1.2072629846543406
30
-3.2782175923971154e-16
10
-3.4120198804112367
20
1.2064209282006992
30
3.7153132713833977e-16
10
-3.4147135060867164
20
1.2054459588349884
30
2.1854783949314103e-17
10
-3.4280206961455928
20
1.199884878513017
30
2.1854783949314103e-17
10
-3.4377098474007037
20
1.1933898186991849
30
3.7153132713833977e-16
10
-3.4540449657264856
20
1.1770554382836669
30
2.1854783949314103e-17
10
-3.4605369910976576
20
1.1673743074758369
30
2.1854783949314103e-17
10
-3.4654781660013683
20
1.1555496015150786
30
-3.2782175923971154e-16
10
-3.4659418380050404
20
1.1543692443002471
30
-3.2782175923971154e-16
10
-3.4663796505537063
20
1.1531804618565202
30
-3.2782175923971154e-16
0
ARC
5
109
100
AcDbEntity
8
0
100
AcDbCircle
10
-3.1250133898383941
20
0.84999999999998854
30
-1.5298348764519304e-16
40
0.45656250000005233
210
4.3437819729991421e-17
220
3.456361856236593e-17
230
1
100
AcDbArc
50
121.18995516234479
51
128.50938352642331
0
ARC
5
110
100
AcDbEntity
8
0
100
AcDbCircle
10
-3.1249999999998308
20
0.84999999999985931
30
2.1854783949314196e-17
40
0.45656250000009196
210
7.6235716452429476e-17
220
-1.8737432028532375e-17
230
1
100
AcDbArc
50
99.0815043333657
51
121.19139261958728
0
ARC
5
111
100
AcDbEntity
8
0
100
AcDbCircle
10
-3.1250133898383941
20
0.84999999999998854
30
-1.5298348764519304e-16
40
0.45656250000002768
210
-1.1182118789764848e-16
220
-3.8166183559998647e-18
230
1
100
AcDbArc
50
91.889366288572646
51
99.079845046890966
0
SPLINE
5
112
100
AcDbEntity
8
0
100
AcDbSpline
70
0
71
3
72
12
73
8
74
0
42
0.000000001
43
0.0000000001
44
0.0000000001
40
0.18349250652294125
40
0.18349250652294125
40
0.18349250652294125
40
0.18349250652294125
40
0.26364538052267428
40
0.26364538052267428
40
0.35175226853411878
40
0.35175226853411878
40
0.38394112400168889
40
0.38394112400168889
40
0.38394112400168889
40
0.38394112400168889
10
-3.0640383040700621
20
1.3024724912321046
30
-3.2782175923971154e-16
10
-3.07328766168001
20
1.3074486381152088
30
-5.0266003083422441e-16
10
-3.0833555480955472
20
1.3107475656918903
30
1.9669305554382694e-16
10
-3.1052240624479954
20
1.3138132887698899
30
-3.2782175923971154e-16
10
-3.1168800439586248
20
1.3131665896513502
30
2.1854783949314103e-17
10
-3.1321760566958381
20
1.3092578816416092
30
-1.5298348764519871e-16
10
-3.1361800673620248
20
1.3079234849025505
30
1.9669305554382694e-16
10
-3.1400661123669775
20
1.3063142907588239
30
2.1854783949314103e-17
0
ARC
5
113
100
AcDbEntity
8
0
100
AcDbCircle
10
-3.1250133898383941
20
0.84999999999998854
30
-1.5298348764519304e-16
40
0.45656250000001153
210
1.0817432109663962e-16
220
-2.85807783973422e-17
230
1
100
AcDbArc
50
74.81652947081821
51
82.325070846796734
0
ARC
5
114
100
AcDbEntity
8
0
100
AcDbCircle
10
-3.1249999999998308
20
0.84999999999985931
30
2.1854783949314196e-17
40
0.45656250000008564
210
-1.0714756936197997e-16
220
2.9074903678227082e-17
230
1
100
AcDbArc
50
65.018245733902489
51
74.818151155800464
0
ARC
5
115
100
AcDbEntity
8
0
100
AcDbCircle
10
-3.1250133898383941
20
0.84999999999998854
30
-1.5298348764519304e-16
40
0.45656250000000015
210
-5.0317033640460218e-17
220
2.3445341469978228e-17
230
1
100
AcDbArc
50
62.506677719357889
51
65.016722619469306
0
ARC
5
116
100
AcDbEntity
8
0
100
AcDbCircle
10
-3.1249999999998308
20
0.84999999999985931
30
2.1854783949314196e-17
40
0.45656250000008319
210
1.223550795948335e-31
220
1.6066216876552183e-31
230
1
100
AcDbArc
50
52.708281522631729
51
62.508168291524107
0
ARC
5
117
100
AcDbEntity
8
0
100
AcDbCircle
10
-3.1250133898383941
20
0.84999999999998854
30
-1.5298348764519304e-16
40
0.45656249999998555
210
3.3633761205141497e-17
220
4.4161725716018145e-17
230
1
100
AcDbArc
50
45.297314276346079
51
52.706944731545974
0
SPLINE
5
118
100
AcDbEntity
8
0
100
AcDbSpline
70
0
71
3
72
12
73
8
74
0
42
0.000000001
43
0.0000000001
44
0.0000000001
40
0.92663723556557853
40
0.92663723556557853
40
0.92663723556557853
40
0.92663723556557853
40
0.96704211631805692
40
0.96704211631805692
40
1.0548908495747109
40
1.0548908495747109
40
1.1191784190819982
40
1.1191784190819982
40
1.1191784190819982
40
1.1191784190819982
10
-2.7560647111253846
20
1.11893528753612
30
2.1854783949314103e-17
10
-2.7575438816372015
20
1.1240014678612695
30
2.1854783949314103e-17
10
-2.7594764355165737
20
1.1289371813846329
30
-1.5298348764519871e-16
10
-2.7669952983418722
20
1.1439956705212699
30
-1.5298348764519871e-16
10
-2.774109036604973
20
1.1532068823297765
30
-1.5298348764519871e-16
10
-2.7891336100239803
20
1.1663559294142443
30
-1.5298348764519871e-16
10
-2.7962307860773392
20
1.1709684272003791
30
-1.5298348764519871e-16
10
-2.8038545341994627
20
1.1745093309150103
30
-1.5298348764519871e-16
0
ARC
5
119
100
AcDbEntity
8
0
100
AcDbCircle
10
-3.1250133898383941
20
0.84999999999998854
30
-1.5298348764519304e-16
40
0.45656249999997461
210
4.4858624833665761e-17
220
3.2698496739970925e-17
230
1
100
AcDbArc
50
28.444090837166819
51
36.08917919407704
0
ARC
5
120
100
AcDbEntity
8
0
100
AcDbCircle
10
-3.1249999999998308
20
0.84999999999985931
30
2.1854783949314196e-17
40
0.45656250000007664
210
-1.2405990515029586e-16
220
-4.071791890320222e-18
230
1
100
AcDbArc
50
18.766794100157195
51
28.444891185827554
0
LINE
5
121
100
AcDbEntity
8
0
100
AcDbLine
10
-2.6927102476718514
20
0.99688392164730866
30
7.6082690381550774e-17
11
-2.6865115360079486
21
0.97786877048546417
31
-3.2782175923971154e-16
0
LINE
5
122
100
AcDbEntity
8
0
100
AcDbLine
10
-2.6865115360079486
20
0.97786877048546417
30
-3.2782175923971154e-16
11
-2.6866919662212037
21
0.97780995239572455
31
-5.0264935955299908e-16
0
ARC
5
123
100
AcDbEntity
8
0
100
AcDbCircle
10
-3.1249999999998308
20
0.84999999999985931
30
2.1854783949314196e-17
40
0.45656250000007531
210
1.0658336393793704e-16
220
3.1079545938640088e-17
230
1
100
AcDbArc
50
6.5282554048090091
51
16.256603642858515
0
ARC
5
124
100
AcDbEntity
8
0
100
AcDbCircle
10
-3.1250133898383941
20
0.84999999999998854
30
-1.5298348764519304e-16
40
0.4565624999999649
210
5.5940114828456274e-17
220
-5.8284870293445545e-19
230
1
100
AcDbArc
50
0
51
6.5280643669107423
0
LINE
5
125
100
AcDbEntity
8
0
100
AcDbLine
10
-2.6684508898384292
20
0.84999999999994569
30
-1.7852364632155816e-16
11
-2.6684508898384163
21
0.84507088793708229
31
-1.5298342869414142e-16
0
SPLINE
5
126
100
AcDbEntity
8
0
100
AcDbSpline
70
0
71
3
72
12
73
8
74
0
42
0.000000001
43
0.0000000001
44
0.0000000001
40
0.21048028064013541
40
0.21048028064013541
40
0.21048028064013541
40
0.21048028064013541
40
0.26365276220061507
40
0.26365276220061507
40
0.35148882634574713
40
0.35148882634574713
40
0.38124268954538887
40
0.38124268954538887
40
0.38124268954538887
40
0.38124268954538887
10
-2.6684508898384123
20
0.77964018336528451
30
2.1854783949314103e-17
10
-2.6658838758626286
20
0.78609485038150484
30
2.1854783949314103e-17
10
-2.6640798755763009
20
0.79284408494114089
30
-3.2782175923971154e-16
10
-2.6614461713180551
20
0.81116040500683961
30
-1.5298348764519871e-16
10
-2.6620499044291153
20
0.82278080013629418
30
2.1854783949314103e-17
10
-2.6658148166456299
20
0.83774611621859185
30
2.1854783949314103e-17
10
-2.6670146912567474
20
0.84145757837028035
30
-1.5298348764519871e-16
10
-2.6684508898384118
20
0.84507088793708229
30
-1.5298348764519871e-16
0
LINE
5
127
100
AcDbEntity
8
0
100
AcDbLine
10
-2.6684508898384123
20
0.77964018336528451
30
2.1854783949314103e-17
11
-2.66845088983843
21
0.72606100325624068
31
-1.5298348764519871e-16
0
LINE
5
128
100
AcDbEntity
8
0
100
AcDbLine
10
-2.6684374999997598
20
0.72606100325624068
30
2.1854783949314103e-17
11
-2.668437499999762
21
0.6163779527559059
31
2.1854783949314257e-17
0
LINE
5
129
100
AcDbEntity
8
0
100
AcDbLine
10
-2.668437499999762
20
0.6163779527559059
30
2.1854783949314257e-17
11
-2.540964566928996
21
0.61637795275590579
31
-1.5298348764519871e-16
0
LINE
5
130
100
AcDbEntity
8
0
100
AcDbLine
10
-2.540964566928996
20
0.61637795275590579
30
-1.5298348764519871e-16
11
-2.540964566928996
21
1.0910156324442342
31
2.1854783949314214e-17
0
ARC
5
131
100
AcDbEntity
8
0
100
AcDbCircle
10
-2.875610236220334
20
1.0910156324442344
30
-3.2782175923971149e-16
40
0.33464566929133804
210
-1.0449157878825021e-15
220
-4.8381156163371417e-18
230
1
100
AcDbArc
50
0
51
85.000000000000128
0
LINE
5
132
100
AcDbEntity
8
0
100
AcDbLine
10
-2.8464439443559608
20
1.4243878739316296
30
-3.2782175923971154e-16
11
-3.500380447085814
21
1.4815999045862811
31
-1.0927391974657052e-16
0
SPLINE
5
133
100
AcDbEntity
8
0
100
AcDbSpline
70
0
71
3
72
18
73
14
74
0
42
0.000000001
43
0.0000000001
44
0.0000000001
40
0
40
0
40
0
40
0
40
0.019838963428860094
40
0.019838963428860094
40
0.039675048732185955
40
0.039675048732185955
40
0.059515845337605205
40
0.059515845337605205
40
0.079366246611064062
40
0.079366246611064062
40
0.089836368969684985
40
0.089836368969684985
40
0.10030686692306061
40
0.10030686692306061
40
0.10030686692306061
40
0.10030686692306061
10
-3.5211737863908117
20
1.4555596356235505
30
-6.7749830242873724e-16
10
-3.5219705120764746
20
1.4580382725358492
30
2.1854783949314103e-17
10
-3.5222754838999322
20
1.460648764580901
30
2.1854783949314103e-17
10
-3.5218674433151911
20
1.4658394350371031
30
2.1854783949314103e-17
10
-3.5211584904040261
20
1.4683698536035197
30
-3.2782175923971154e-16
10
-3.5188103194287268
20
1.4730172510128907
30
-3.2782175923971154e-16
10
-3.517193385431105
20
1.4750896006109788
30
2.1854783949314103e-17
10
-3.5132553908614037
20
1.4784990504734616
30
2.1854783949314103e-17
10
-3.5109716652750507
20
1.4798031816599484
30
2.1854783949314103e-17
10
-3.5071998752366129
20
1.4810708728482622
30
2.1854783949314103e-17
10
-3.5058557891083302
20
1.4813733396807938
30
3.7153132713833977e-16
10
-3.5031269018551159
20
1.4816981706689183
30
2.1854783949314103e-17
10
-3.5017493193175766
20
1.4817196653883757
30
-3.2782175923971154e-16
10
-3.500380447085814
20
1.4815999045862809
30
2.1854783949314103e-17
0
SPLINE
5
134
100
AcDbEntity
8
0
100
AcDbSpline
70
0
71
3
72
19
73
15
74
0
42
0.000000001
43
0.0000000001
44
0.0000000001
40
0.84821778434677042
40
0.84821778434677042
40
0.84821778434677042
40
0.84821778434677042
40
0.85398428022365858
40
0.85398428022365858
40
0.85398428022365858
40
0.94060513270280566
40
0.94060513270280566
40
1.0581403014428412
40
1.0581403014428412
40
1.1757019496267456
40
1.1757019496267456
40
1.293294421602573
40
1.293294421602573
40
1.3386262728586253
40
1.3386262728586253
40
1.3386262728586253
40
1.3386262728586253
10
-3.5211737863908108
20
1.4555596356235503
30
2.1854783949314103e-17
10
-3.5209262717472534
20
1.4547896103276461
30
-6.7749830242873724e-16
10
-3.5206861277234487
20
1.4540168536368017
30
-3.2782175923971154e-16
10
-3.5204534079381373
20
1.4532414659779573
30
3.7153132713833977e-16
10
-3.51695763049847
20
1.4415940562780574
30
2.1854783949314103e-17
10
-3.5151793243961134
20
1.4286904005878145
30
-3.2782175923971154e-16
10
-3.5151793243961134
20
1.4018982718188928
30
-3.2782175923971154e-16
10
-3.5187914910766516
20
1.3837446790294772
30
-3.2782175923971154e-16
10
-3.5306008770952899
20
1.3552416727231971
30
3.7153132713833977e-16
10
-3.5408888630422295
20
1.3398497134413552
30
2.1854783949314103e-17
10
-3.562713156337451
20
1.3180312058106518
30
-3.2782175923971154e-16
10
-3.5781122589815775
20
1.3077451734187686
30
3.7153132713833977e-16
10
-3.5978665823726246
20
1.2995647052468549
30
2.1854783949314103e-17
10
-3.6039204125777258
20
1.2975347238717487
30
2.1854783949314103e-17
10
-3.6101894944655357
20
1.2959838131856847
30
-3.2782175923971154e-16
0
LINE
5
135
100
AcDbEntity
8
0
100
AcDbLine
10
-3.6101894944655357
20
1.2959838131856847
30
-3.2782175923971154e-16
11
-3.6101894938755841
21
1.1673259812757766
31
2.1854783949314103e-17
0
LINE
5
136
100
AcDbEntity
8
0
100
AcDbLine
10
-3.6101894938755841
20
1.1673259812757766
30
2.1854783949314103e-17
11
-3.6701894938755841
21
1.1673259812757766
31
2.7318479936642629e-17
0
LINE
5
137
100
AcDbEntity
8
0
100
AcDbLine
10
-3.6701894938755841
20
1.1673259812757766
30
2.7318479936642629e-17
11
-3.6701894938755841
21
1.2959625451560597
31
2.1854783949314103e-17
0
SPLINE
5
138
100
AcDbEntity
8
0
100
AcDbSpline
70
0
71
3
72
22
73
18
74
0
42
0.000000001
43
0.0000000001
44
0.0000000001
40
1.482986976090539
40
1.482986976090539
40
1.482986976090539
40
1.482986976090539
40
1.5285250418345453
40
1.5285250418345453
40
1.6461138315243486
40
1.6461138315243486
40
1.7636736159053596
40
1.7636736159053596
40
1.88121026540561
40
1.88121026540561
40
1.88121026540561
40
1.998746914905859
40
1.998746914905859
40
2.0213615769137392
40
2.0213615769137392
40
2.0213615769137392
40
2.0271921088241927
40
2.0271921088241927
40
2.0271921088241927
40
2.0271921088241927
10
-3.6701894944528104
20
1.2959625427648793
30
2.1854783949314103e-17
10
-3.6764890440140237
20
1.2975162727602603
30
-3.2782175923971154e-16
10
-3.6825730522031321
20
1.299554250154269
30
-3.2782175923971154e-16
10
-3.7023518809626821
20
1.3077450115129425
30
-3.2782175923971154e-16
10
-3.7177503836647601
20
1.3180308980661983
30
-3.2782175923971154e-16
10
-3.7395738466113637
20
1.3398492068130861
30
3.7153132713833977e-16
10
-3.7498613787105488
20
1.3552411164024978
30
3.7153132713833977e-16
10
-3.7616703927011961
20
1.3837442224332979
30
3.7153132713833977e-16
10
-3.7652824362050459
20
1.4018980774934053
30
-3.2782175923971154e-16
10
-3.7652824362050459
20
1.4173228346456692
30
-3.2782175923971154e-16
10
-3.7652824362050459
20
1.4327475917979329
30
-3.2782175923971154e-16
10
-3.7616703927011974
20
1.4509014468580403
30
-3.2782175923971154e-16
10
-3.754630520717249
20
1.4678934004420301
30
3.7153132713833977e-16
10
-3.7533554342126116
20
1.4706922493712442
30
-6.7749830242873724e-16
10
-3.7519453494750663
20
1.4734943865600443
30
-3.2782175923971154e-16
10
-3.7515818001964689
20
1.4742168360174395
30
2.1854783949314103e-17
10
-3.7512114112174175
20
1.4749354130446002
30
2.1854783949314103e-17
10
-3.7508342525791476
20
1.4756500283350258
30
2.1854783949314103e-17
0
SPLINE
5
139
100
AcDbEntity
8
0
100
AcDbSpline
70
0
71
3
72
18
73
14
74
0
42
0.000000001
43
0.0000000001
44
0.0000000001
40
0
40
0
40
0
40
0
40
0.019858330825518369
40
0.019858330825518369
40
0.039713040948713682
40
0.039713040948713682
40
0.059560444672382029
40
0.059560444672382029
40
0.079401091153748757
40
0.079401091153748757
40
0.089855214434052574
40
0.089855214434052574
40
0.10030963586548107
40
0.10030963586548107
40
0.10030963586548107
40
0.10030963586548107
10
-3.7667865488816759
20
1.5049074183875524
30
2.1854783949314103e-17
10
-3.7641903856426553
20
1.5046802835354753
30
-3.2782175923971154e-16
10
-3.7616633589295887
20
1.5039482393081791
30
2.1854783949314103e-17
10
-3.75703270697172
20
1.5015568778785904
30
2.1854783949314103e-17
10
-3.7549732166390641
20
1.4999205601763066
30
2.1854783949314103e-17
10
-3.7515982681308926
20
1.4959511718642968
30
3.7153132713833977e-16
10
-3.7503148083631297
20
1.4936563087135191
30
-3.2782175923971154e-16
10
-3.7487003587041285
20
1.4887045049685508
30
2.1854783949314103e-17
10
-3.7483845061881049
20
1.4860951000022002
30
-3.2782175923971154e-16
10
-3.7486795483769599
20
1.4821304303700735
30
-3.2782175923971154e-16
10
-3.7489219128299358
20
1.4807764151707938
30
3.7153132713833977e-16
10
-3.7496800822483012
20
1.4781393780387311
30
2.1854783949314103e-17
10
-3.7501938814682805
20
1.476863361243089
30
2.1854783949314103e-17
10
-3.7508342525791476
20
1.4756500283350258
30
2.1854783949314103e-17
0
LINE
5
140
100
AcDbEntity
8
0
100
AcDbLine
10
-3.7667865488816759
20
1.5049074183875524
30
2.1854783949314103e-17
11
-3.8174149677437792
21
1.5093368310902282
31
2.7318479936642629e-17
0
LINE
5
141
100
AcDbEntity
8
0
100
AcDbLine
10
-3.8174149677437792
20
1.5093368310902282
30
2.7318479936642629e-17
11
-3.8174149677437792
21
0.90943660913028712
31
2.4526018936465237e-17
0
CIRCLE
5
142
100
AcDbEntity
8
0
100
AcDbCircle
10
-3.6796418124217629
20
1.0629921353708101
30
3.7153132713833977e-16
40
0.039370078740157341
210
0
220
-0
230
1
0
ENDSEC
0
SECTION
2
OBJECTS
0
DICTIONARY
5
C
100
AcDbDictionary
3
ACAD_GROUP
350
D
3
ACAD_MLINESTYLE
350
17
0
DICTIONARY
5
D
100
AcDbDictionary
0
DICTIONARY
5
1A
330
C
100
AcDbDictionary
0
DICTIONARY
5
17
100
AcDbDictionary
0
ENDSEC
0
EOF
