0
SECTION
2
HEADER
9
$INSUNITS
70
1
9
$ACADVER
1
AC1014
9
$HANDSEED
5
FFFF
0
ENDSEC
0
SECTION
2
TABLES
0
TABLE
2
VPORT
5
8
100
AcDbSymbolTable
0
ENDTAB
0
TABLE
2
LTYPE
5
5
100
AcDbSymbolTable
0
LTYPE
5
14
100
AcDbSymbolTableRecord
100
AcDbLinetypeTableRecord
2
BYBLOCK
70
0
0
LTYPE
5
15
100
AcDbSymbolTableRecord
100
AcDbLinetypeTableRecord
2
BYLAYER
70
0
0
ENDTAB
0
TABLE
2
LAYER
5
2
100
AcDbSymbolTable
70
2
0
LAYER
5
50
100
AcDbSymbolTableRecord
100
AcDbLayerTableRecord
2
0
70
0
6
CONTINUOUS
0
ENDTAB
0
TABLE
2
STYLE
5
3
100
AcDbSymbolTable
70
1
0
STYLE
5
11
100
AcDbSymbolTableRecord
100
AcDbTextStyleTableRecord
2
STANDARD
70
0
0
ENDTAB
0
TABLE
2
VIEW
5
6
100
AcDbSymbolTable
70
0
0
ENDTAB
0
TABLE
2
UCS
5
7
100
AcDbSymbolTable
70
0
0
ENDTAB
0
TABLE
2
APPID
5
9
100
AcDbSymbolTable
70
2
0
APPID
5
12
100
AcDbSymbolTableRecord
100
AcDbRegAppTableRecord
2
ACAD
70
0
0
ENDTAB
0
TABLE
2
DIMSTYLE
5
A
100
AcDbSymbolTable
70
1
0
ENDTAB
0
TABLE
2
BLOCK_RECORD
5
1
100
AcDbSymbolTable
70
1
0
BLOCK_RECORD
5
1F
100
AcDbSymbolTableRecord
100
AcDbBlockTableRecord
2
*MODEL_SPACE
0
BLOCK_RECORD
5
1B
100
AcDbSymbolTableRecord
100
AcDbBlockTableRecord
2
*PAPER_SPACE
0
ENDTAB
0
ENDSEC
0
SECTION
2
BLOCKS
0
BLOCK
5
20
100
AcDbEntity
100
AcDbBlockBegin
2
*MODEL_SPACE
0
ENDBLK
5
21
100
AcDbEntity
100
AcDbBlockEnd
0
BLOCK
5
1C
100
AcDbEntity
100
AcDbBlockBegin
2
*PAPER_SPACE
0
ENDBLK
5
1D
100
AcDbEntity
100
AcDbBlockEnd
0
ENDSEC
0
SECTION
2
ENTITIES
0
ARC
5
100
100
AcDbEntity
8
0
100
AcDbCircle
10
0.72357553962049159
20
-1.7026269228644597
30
0
40
0.025000000000003905
210
0
220
0
230
1
100
AcDbArc
50
261.0000000000033
51
293.02432615014646
0
ARC
5
101
100
AcDbEntity
8
0
100
AcDbCircle
10
-1.6224991603970791e-13
20
3.4722880738670246e-13
30
0
40
1.8750000000003828
210
0
220
0
230
1
100
AcDbArc
50
293.02432615014862
51
296.77539158674597
0
ARC
5
102
100
AcDbEntity
8
0
100
AcDbCircle
10
0.83341415056093215
20
-1.6516418660365808
30
0
40
0.025000000000000588
210
-0
220
0
230
1
100
AcDbArc
50
-63.224608413249349
51
90
0
LINE
5
103
100
AcDbEntity
8
0
100
AcDbLine
10
0.83341415056093215
20
-1.6266418660365807
30
0
11
0.59919013227183515
21
-1.6266418660365811
31
0
0
SPLINE
5
104
100
AcDbEntity
8
0
100
AcDbSpline
70
4
71
5
72
16
73
10
74
0
42
0.000000001
43
0.0000000001
44
0.0000000001
40
0
40
0
40
0
40
0
40
0
40
0
40
0.20000000000000001
40
0.40000000000000002
40
0.60000000000000009
40
0.80000000000000004
40
1
40
1
40
1
40
1
40
1
40
1
41
1
41
1
41
1
41
1
41
1
41
1
41
1
41
1
41
1
41
1
10
-0.02500000000000013
20
-1.3374999999999995
30
0
10
-0.02500000000000013
20
-1.3680159975609267
30
0
10
-0.015706122529446868
20
-1.4235132598521583
30
0
10
0.026089334294720861
20
-1.4901698954614582
30
0
10
0.12818792330762313
20
-1.5504470516754838
30
0
10
0.29555845914183348
20
-1.5940889738848436
30
0
10
0.43175762024003528
20
-1.6134768007125095
30
0
10
0.52188576891151239
20
-1.6221786503396072
30
0
10
0.57464458798815043
20
-1.6255579508076623
30
0
10
0.59919013227183515
20
-1.6266418660365811
30
0
0
LINE
5
105
100
AcDbEntity
8
0
100
AcDbLine
10
-0.02500000000000013
20
-1.3374999999999995
30
0
11
-0.025000000000000151
21
-0.93749999999999978
31
0
0
ARC
5
106
100
AcDbEntity
8
0
100
AcDbCircle
10
0
20
-0.9375
30
0
40
0.024999999999999998
210
0
220
-0
230
1
100
AcDbArc
50
0
51
180
0
LINE
5
107
100
AcDbEntity
8
0
100
AcDbLine
10
0.024999999999999998
20
-0.93749999999999978
30
0
11
0.024999999999999866
21
-1.3374999999999995
31
0
0
SPLINE
5
108
100
AcDbEntity
8
0
100
AcDbSpline
70
4
71
5
72
16
73
10
74
0
42
0.000000001
43
0.0000000001
44
0.0000000001
40
0
40
0
40
0
40
0
40
0
40
0
40
0.20000000000000001
40
0.40000000000000002
40
0.60000000000000009
40
0.80000000000000004
40
1
40
1
40
1
40
1
40
1
40
1
41
1
41
1
41
1
41
1
41
1
41
1
41
1
41
1
41
1
41
1
10
0.024999999999999866
20
-1.3374999999999995
30
0
10
0.024582953312068015
20
-1.3657255072196515
30
0
10
0.032483428087028317
20
-1.4169061615087652
30
0
10
0.070512466476874244
20
-1.4778803057569465
30
0
10
0.16478914608392958
20
-1.5319609388288302
30
0
10
0.31991368331558773
20
-1.5694868327160452
30
0
10
0.44604250634932818
20
-1.5849264413362094
30
0
10
0.52921741000698719
20
-1.5911324508206131
30
0
10
0.5777169559824672
20
-1.5930608559922541
30
0
10
0.60022703776189146
20
-1.5934726076398789
30
0
0
LINE
5
109
100
AcDbEntity
8
0
100
AcDbLine
10
0.60022703776189135
20
-1.5934726076398786
30
0
11
0.98101665586439335
21
-1.5934726076398789
31
0
0
ARC
5
110
100
AcDbEntity
8
0
100
AcDbCircle
10
0.98101665586439268
20
-1.5684726076398754
30
0
40
0.02500000000000345
210
0
220
0
230
1
100
AcDbArc
50
270.00000000000153
51
302.02432615014499
0
ARC
5
111
100
AcDbEntity
8
0
100
AcDbCircle
10
-1.6224991603970791e-13
20
3.4722880738670246e-13
30
0
40
1.8750000000003804
210
0
220
0
230
1
100
AcDbArc
50
302.02432615014681
51
305.77539158674404
0
ARC
5
112
100
AcDbEntity
8
0
100
AcDbCircle
10
1.0815271511475149
20
-1.5009327171231692
30
0
40
0.024999999999999953
210
-0
220
0
230
1
100
AcDbArc
50
-54.22460841326096
51
98.999999999999844
0
LINE
5
113
100
AcDbEntity
8
0
100
AcDbLine
10
1.0776162895215091
20
-1.4762405086082906
30
0
11
0.84627595757002538
21
-1.5128812176089192
31
0
0
SPLINE
5
114
100
AcDbEntity
8
0
100
AcDbSpline
70
4
71
5
72
16
73
10
74
0
42
0.000000001
43
0.0000000001
44
0.0000000001
40
0
40
0
40
0
40
0
40
0
40
0
40
0.20000000000000001
40
0.40000000000000002
40
0.60000000000000009
40
0.80000000000000004
40
1
40
1
40
1
40
1
40
1
40
1
41
1
41
1
41
1
41
1
41
1
41
1
41
1
41
1
41
1
41
1
10
0.18453888847643016
20
-1.3249440171720022
30
0
10
0.18931264223004279
20
-1.3550843121645595
30
0
10
0.20717378118435423
20
-1.4084444283143036
30
0
10
0.25888206171235462
20
-1.4677421601995071
30
0
10
0.36915307235810058
20
-1.5113054664427363
30
0
10
0.54129009991485932
20
-1.5282275639333593
30
0
10
0.67884534764847082
20
-1.5260704515351973
30
0
10
0.76922513844198948
20
-1.520566018231005
30
0
10
0.82186304796848342
20
-1.5156504162642623
30
0
10
0.84627595757002538
20
-1.5128812176089192
30
0
0
LINE
5
115
100
AcDbEntity
8
0
100
AcDbLine
10
0.18453888847643016
20
-1.3249440171720022
30
0
11
0.12196510246033782
21
-0.92986868093394726
31
0
0
ARC
5
116
100
AcDbEntity
8
0
100
AcDbCircle
10
0.14665731097521639
20
-0.92595781930794141
30
0
40
0.024999999999999994
210
0
220
-0
230
1
100
AcDbArc
50
8.9999999999999023
51
189.00000000000011
0
LINE
5
117
100
AcDbEntity
8
0
100
AcDbLine
10
0.17134951949009483
20
-0.92204695768193567
30
0
11
0.23392330550618706
21
-1.3171222939199907
31
0
0
SPLINE
5
118
100
AcDbEntity
8
0
100
AcDbSpline
70
4
71
5
72
16
73
10
74
0
42
0.000000001
43
0.0000000001
44
0.0000000001
40
-1
40
-1
40
-1
40
-1
40
-1
40
-1
40
-0.80000000000000004
40
-0.60000000000000009
40
-0.40000000000000002
40
-0.20000000000000001
40
0
40
0
40
0
40
0
40
0
40
0
41
1
41
1
41
1
41
1
41
1
41
1
41
1
41
1
41
1
41
1
10
0.8421112818397839
20
-1.4799581200686751
30
0
10
0.81981392437167777
20
-1.4830727903682712
30
0
10
0.77160981925613181
20
-1.4887551275936663
30
0
10
0.68848810290961104
20
-1.4956369459427568
30
0
10
0.56149684807127209
20
-1.5001183194827052
30
0
10
0.40241180817194411
20
-1.4873212556163407
30
0
10
0.30083575603039497
20
-1.4486545668193362
30
0
10
0.25373646057194915
20
-1.3943801677441514
30
0
10
0.23792683547742838
20
-1.345065538783748
30
0
10
0.23392330550618706
20
-1.3171222939199907
30
0
0
LINE
5
119
100
AcDbEntity
8
0
100
AcDbLine
10
0.8421112818397839
20
-1.4799581200686751
30
0
11
1.2182127478592997
21
-1.4203894998679365
31
0
0
ARC
5
120
100
AcDbEntity
8
0
100
AcDbCircle
10
1.2143018862332937
20
-1.3956972913530574
30
0
40
0.025000000000000775
210
0
220
0
230
1
100
AcDbArc
50
279.00000000000023
51
311.02432615014828
0
ARC
5
121
100
AcDbEntity
8
0
100
AcDbCircle
10
-1.6224991603970791e-13
20
3.4722880738670246e-13
30
0
40
1.8750000000003681
210
0
220
0
230
1
100
AcDbArc
50
311.02432615014504
51
314.77539158674227
0
ARC
5
122
100
AcDbEntity
8
0
100
AcDbCircle
10
1.3030093638900182
20
-1.3132656234040887
30
0
40
0.025000000000000071
210
-0
220
0
230
1
100
AcDbArc
50
-45.22460841325892
51
107.99999999999937
0
LINE
5
123
100
AcDbEntity
8
0
100
AcDbLine
10
1.2952839390306448
20
-1.2894892104967097
30
0
11
1.0725236601639641
21
-1.361868412638829
31
0
0
SPLINE
5
124
100
AcDbEntity
8
0
100
AcDbSpline
70
4
71
5
72
16
73
10
74
0
42
0.000000001
43
0.0000000001
44
0.0000000001
40
0
40
0
40
0
40
0
40
0
40
0
40
0.20000000000000001
40
0.40000000000000002
40
0.60000000000000009
40
0.80000000000000004
40
1
40
1
40
1
40
1
40
1
40
1
41
1
41
1
41
1
41
1
41
1
41
1
41
1
41
1
41
1
41
1
10
0.38953381706911316
20
-1.2797635154041413
30
0
10
0.39896377891574408
20
-1.3087859537357081
30
0
10
0.42495237883503695
20
-1.3586950205922856
30
0
10
0.48530025359032636
20
-1.4091737417964898
30
0
10
0.60102844761831531
20
-1.4349505248908896
30
0
10
0.77369338198913407
20
-1.4247361194613355
30
0
10
0.90921764963925977
20
-1.4010871831036336
30
0
10
0.99762363215215488
20
-1.381512004284267
30
0
10
1.0488445121007566
20
-1.3684225383170958
30
0
10
1.0725236601639641
20
-1.361868412638829
30
0
0
LINE
5
125
100
AcDbEntity
8
0
100
AcDbLine
10
0.38953381706911316
20
-1.2797635154041413
30
0
11
0.26592701931913415
21
-0.89934090888608009
31
0
0
ARC
5
126
100
AcDbEntity
8
0
100
AcDbCircle
10
0.28970343222651318
20
-0.89161548402670632
30
0
40
0.024999999999999994
210
0
220
-0
230
1
100
AcDbArc
50
17.999999999999702
51
198.00000000000006
0
LINE
5
127
100
AcDbEntity
8
0
100
AcDbLine
10
0.31347984513389204
20
-0.88389005916733276
30
0
11
0.43708664288387089
21
-1.264312665685394
31
0
0
SPLINE
5
128
100
AcDbEntity
8
0
100
AcDbSpline
70
4
71
5
72
16
73
10
74
0
42
0.000000001
43
0.0000000001
44
0.0000000001
40
-1
40
-1
40
-1
40
-1
40
-1
40
-1
40
-0.80000000000000004
40
-0.60000000000000009
40
-0.40000000000000002
40
-0.20000000000000001
40
0
40
0
40
0
40
0
40
0
40
0
41
1
41
1
41
1
41
1
41
1
41
1
41
1
41
1
41
1
41
1
10
1.0632599513516694
20
-1.3300021518819796
30
0
10
1.0417243531364331
20
-1.3365665506090227
30
0
10
0.99500263392901889
20
-1.3497197122303688
30
0
10
0.91398083741524794
20
-1.3695199052057527
30
0
10
0.78925409692624204
20
-1.3938119146164347
30
0
10
0.63012575601454301
20
-1.4060587869543302
30
0
10
0.52375147085381479
20
-1.3837581446377702
30
0
10
0.4687416592945558
20
-1.3375199065672163
30
0
10
0.44541216931943917
20
-1.2912855927663986
30
0
10
0.43708664288387089
20
-1.264312665685394
30
0
0
LINE
5
129
100
AcDbEntity
8
0
100
AcDbLine
10
1.0632599513516694
20
-1.3300021518819796
30
0
11
1.4254123989855967
21
-1.2123316886067608
31
0
0
ARC
5
130
100
AcDbEntity
8
0
100
AcDbCircle
10
1.4176869741262235
20
-1.1885552756993827
30
0
40
0.024999999999999092
210
0
220
0
230
1
100
AcDbArc
50
287.99999999999949
51
320.02432615014953
0
ARC
5
131
100
AcDbEntity
8
0
100
AcDbCircle
10
-1.6224991603970791e-13
20
3.4722880738670246e-13
30
0
40
1.8750000000003471
210
0
220
0
230
1
100
AcDbArc
50
320.02432615014328
51
323.77539158674051
0
ARC
5
132
100
AcDbEntity
8
0
100
AcDbCircle
10
1.492407161653402
20
-1.0932615715580769
30
0
40
0.024999999999999876
210
0
220
0
230
1
100
AcDbArc
50
-36.224608413261464
51
117
0
LINE
5
133
100
AcDbEntity
8
0
100
AcDbLine
10
1.4810573991599134
20
-1.0709864084533678
30
0
11
1.2723622707427127
21
-1.1773218875674392
31
0
0
SPLINE
5
134
100
AcDbEntity
8
0
100
AcDbSpline
70
4
71
5
72
16
73
10
74
0
42
0.000000001
43
0.0000000001
44
0.0000000001
40
0
40
0
40
0
40
0
40
0
40
0
40
0.20000000000000001
40
0.40000000000000002
40
0.60000000000000009
40
0.80000000000000004
40
1
40
1
40
1
40
1
40
1
40
1
41
1
41
1
41
1
41
1
41
1
41
1
41
1
41
1
41
1
41
1
10
0.58493713029693428
20
-1.2030709885954305
30
0
10
0.59879110327967044
20
-1.2302609415143331
30
0
10
0.6322672385827135
20
-1.2754900322130385
30
0
10
0.69976874260570321
20
-1.3159067890909251
30
0
10
0.81810450779911026
20
-1.3232623390884732
30
0
10
0.98704576525771626
20
-1.286162943300085
30
0
10
1.1172019955755526
20
-1.24160449828229
30
0
10
1.2014573211157222
20
-1.208440579816576
30
0
10
1.2499999434297429
20
-1.1874995559425348
30
0
10
1.2723622707427127
20
-1.1773218875674392
30
0
0
LINE
5
135
100
AcDbEntity
8
0
100
AcDbLine
10
0.58493713029693428
20
-1.2030709885954305
30
0
11
0.40334093040111568
21
-0.84666837892008351
31
0
0
ARC
5
136
100
AcDbEntity
8
0
100
AcDbCircle
10
0.42561609350582497
20
-0.83531861642659466
30
0
40
0.024999999999999981
210
0
220
-0
230
1
100
AcDbArc
50
26.999999999999869
51
207.00000000000023
0
LINE
5
137
100
AcDbEntity
8
0
100
AcDbLine
10
0.44789125661053419
20
-0.82396885393310604
30
0
11
0.62948745650635263
21
-1.180371463608453
31
0
0
SPLINE
5
138
100
AcDbEntity
8
0
100
AcDbSpline
70
4
71
5
72
16
73
10
74
0
42
0.000000001
43
0.0000000001
44
0.0000000001
40
-1
40
-1
40
-1
40
-1
40
-1
40
-1
40
-0.80000000000000004
40
-0.60000000000000009
40
-0.40000000000000002
40
-0.20000000000000001
40
0
40
0
40
0
40
0
40
0
40
0
41
1
41
1
41
1
41
1
41
1
41
1
41
1
41
1
41
1
41
1
10
1.2582276321038104
20
-1.1472971166918746
30
0
10
1.237984071042056
20
-1.1571496065637141
30
0
10
1.1938951815301557
20
-1.1774497180890529
30
0
10
1.1169683303752302
20
-1.2096807392266036
30
0
10
0.99757729053071575
20
-1.2531852346157708
30
0
10
0.84232391647657723
20
-1.2901744845159284
30
0
10
0.73377068623333885
20
-1.2847890045052353
30
0
10
0.67220488270095313
20
-1.2477254663165236
30
0
10
0.64192997731456625
20
-1.2057099099239579
30
0
10
0.62948745650635263
20
-1.180371463608453
30
0
0
LINE
5
139
100
AcDbEntity
8
0
100
AcDbLine
10
1.2582276321038104
20
-1.1472971166918746
30
0
11
1.5975136661763363
21
-0.97442224767388896
31
0
0
ARC
5
140
100
AcDbEntity
8
0
100
AcDbCircle
10
1.5861639036828452
20
-0.95214708456917674
30
0
40
0.025000000000003818
210
0
220
0
230
1
100
AcDbArc
50
297.00000000000176
51
329.02432615014618
0
ARC
5
141
100
AcDbEntity
8
0
100
AcDbCircle
10
-1.6224991603970791e-13
20
3.4722880738670246e-13
30
0
40
1.8750000000003175
210
0
220
0
230
1
100
AcDbArc
50
329.02432615014169
51
332.77539158673909
0
ARC
5
142
100
AcDbEntity
8
0
100
AcDbCircle
10
1.6450569420814776
20
-0.8463377914931709
30
0
40
0.024999999999999561
210
0
220
0
230
1
100
AcDbArc
50
-27.224608413248337
51
125.99999999999964
0
LINE
5
143
100
AcDbEntity
8
0
100
AcDbLine
10
1.6303623107741658
20
-0.82611236663379706
30
0
11
1.4408710994874983
21
-0.96378579031680978
31
0
0
SPLINE
5
144
100
AcDbEntity
8
0
100
AcDbSpline
70
4
71
5
72
16
73
10
74
0
42
0.000000001
43
0.0000000001
44
0.0000000001
40
0
40
0
40
0
40
0
40
0
40
0
40
0.20000000000000001
40
0.40000000000000002
40
0.60000000000000009
40
0.80000000000000004
40
1
40
1
40
1
40
1
40
1
40
1
41
1
41
1
41
1
41
1
41
1
41
1
41
1
41
1
41
1
41
1
10
0.76593735008180874
20
-1.0967548612838036
30
0
10
0.783874203407115
20
-1.1214428219108983
30
0
10
0.82401358054182394
20
-1.160878246131984
30
0
10
0.89700660277881983
20
-1.1902378439936934
30
0
10
1.0150361198646947
20
-1.1789910428417794
30
0
10
1.1760938059685691
20
-1.115920166944703
30
0
10
1.2976771205999282
20
-1.0515493900641535
30
0
10
1.3757071434251797
20
-1.0056133376894532
30
0
10
1.4203762276395211
20
-0.97733639341559442
30
0
10
1.4408710994874983
20
-0.96378579031680978
30
0
0
LINE
5
145
100
AcDbEntity
8
0
100
AcDbLine
10
0.76593735008180874
20
-1.0967548612838036
30
0
11
0.53082324916481971
21
-0.77314806353382504
31
0
0
ARC
5
146
100
AcDbEntity
8
0
100
AcDbCircle
10
0.55104867402419344
20
-0.75845343222651307
30
0
40
0.025000000000000015
210
0
220
-0
230
1
100
AcDbArc
50
35.99999999999978
51
216.00000000000017
0
LINE
5
147
100
AcDbEntity
8
0
100
AcDbLine
10
0.57127409888356717
20
-0.74375880091920132
30
0
11
0.8063881998005562
21
-1.0673655986691801
31
0
0
SPLINE
5
148
100
AcDbEntity
8
0
100
AcDbSpline
70
4
71
5
72
16
73
10
74
0
42
0.000000001
43
0.0000000001
44
0.0000000001
40
-1
40
-1
40
-1
40
-1
40
-1
40
-1
40
-0.80000000000000004
40
-0.60000000000000009
40
-0.40000000000000002
40
-0.20000000000000001
40
0
40
0
40
0
40
0
40
0
40
0
41
1
41
1
41
1
41
1
41
1
41
1
41
1
41
1
41
1
41
1
10
1.4222135727354548
20
-0.93634181882798762
30
0
10
1.4037605124850496
20
-0.9492397988454403
30
0
10
1.3633900674510822
20
-0.97618700415681003
30
0
10
1.2924523560360175
20
-1.0200552187474949
30
0
10
1.1813368204731107
20
-1.0817009750555238
30
0
10
1.0337812666021529
20
-1.1425218044251193
30
0
10
0.92572203207250914
20
-1.1541840951115392
30
0
10
0.85911619097515157
20
-1.1272078841217068
30
0
10
0.82264133882475765
20
-1.0904456475774151
30
0
10
0.8063881998005562
20
-1.0673655986691801
30
0
0
LINE
5
149
100
AcDbEntity
8
0
100
AcDbLine
10
1.4222135727354548
20
-0.93634181882798762
30
0
11
1.7302788450619246
21
-0.71251929708125405
31
0
0
ARC
5
150
100
AcDbEntity
8
0
100
AcDbCircle
10
1.7155842137546129
20
-0.69229387222188088
30
0
40
0.024999999999999609
210
0
220
0
230
1
100
AcDbArc
50
306.00000000000051
51
338.02432615014868
0
ARC
5
151
100
AcDbEntity
8
0
100
AcDbCircle
10
-1.6224991603970791e-13
20
3.4722880738670246e-13
30
0
40
1.87500000000028
210
0
220
0
230
1
100
AcDbArc
50
338.02432615014021
51
341.77539158673773
0
ARC
5
152
100
AcDbEntity
8
0
100
AcDbCircle
10
1.7571999609645308
20
-0.57857436616760893
30
0
40
0.025000000000000234
210
0
220
0
230
1
100
AcDbArc
50
-18.224608413256632
51
135.00000000000111
0
LINE
5
153
100
AcDbEntity
8
0
100
AcDbLine
10
1.7395222914348669
20
-0.56089669663794572
30
0
11
1.5739008997858852
21
-0.7265180882869271
31
0
0
SPLINE
5
154
100
AcDbEntity
8
0
100
AcDbSpline
70
4
71
5
72
16
73
10
74
0
42
0.000000001
43
0.0000000001
44
0.0000000001
40
0
40
0
40
0
40
0
40
0
40
0
40
0.20000000000000001
40
0.40000000000000002
40
0.60000000000000009
40
0.80000000000000004
40
1
40
1
40
1
40
1
40
1
40
1
41
1
41
1
41
1
41
1
41
1
41
1
41
1
41
1
41
1
41
1
10
0.92807765030734324
20
-0.96343298936667077
30
0
10
0.94965571911734703
20
-0.98501105817667456
30
0
10
0.99546997340371046
20
-1.0176817848971478
30
0
10
1.0721571833972856
20
-1.0352612930044061
30
0
10
1.1869741739474655
20
-1.0056890742733828
30
0
10
1.3361825139449159
20
-0.91819973255244069
30
0
10
1.4461991281716866
20
-0.83560164597029618
30
0
10
1.5160824901532637
20
-0.77802455774909174
30
0
10
1.5557781351663771
20
-0.74310796528923539
30
0
10
1.5739008997858852
20
-0.7265180882869271
30
0
0
LINE
5
155
100
AcDbEntity
8
0
100
AcDbLine
10
0.92807765030734324
20
-0.96343298936667077
30
0
11
0.64523493783272434
21
-0.68059027689205198
31
0
0
ARC
5
156
100
AcDbEntity
8
0
100
AcDbCircle
10
0.66291260736238822
20
-0.66291260736238822
30
0
40
0.024999999999999967
210
0
220
-0
230
1
100
AcDbArc
50
45.000000000000185
51
224.99999999999977
0
LINE
5
157
100
AcDbEntity
8
0
100
AcDbLine
10
0.68059027689205187
20
-0.64523493783272445
30
0
11
0.96343298936667054
21
-0.92807765030734346
31
0
0
SPLINE
5
158
100
AcDbEntity
8
0
100
AcDbSpline
70
4
71
5
72
16
73
10
74
0
42
0.000000001
43
0.0000000001
44
0.0000000001
40
-1
40
-1
40
-1
40
-1
40
-1
40
-1
40
-0.80000000000000004
40
-0.60000000000000009
40
-0.40000000000000002
40
-0.20000000000000001
40
0
40
0
40
0
40
0
40
0
40
0
41
1
41
1
41
1
41
1
41
1
41
1
41
1
41
1
41
1
41
1
10
1.5511798951501166
20
-0.70233067784422176
30
0
10
1.5349717112966217
20
-0.71795655693331617
30
0
10
1.4993137650791484
20
-0.75088732640330436
30
0
10
1.4361119152877502
20
-0.80531255341364294
30
0
10
1.3360079172633299
20
-0.88358164752969426
30
0
10
1.1997834910206628
20
-0.96673644569688832
30
0
10
1.094879029186772
20
-0.99515934277879825
30
0
10
1.0248732073843729
20
-0.97893470283132633
30
0
10
0.98309654038300842
20
-0.94833099440589708
30
0
10
0.96343298936667054
20
-0.92807765030734346
30
0
0
LINE
5
159
100
AcDbEntity
8
0
100
AcDbLine
10
1.5511798951501166
20
-0.70233067784422176
30
0
11
1.820438816315832
21
-0.43307175667850711
31
0
0
ARC
5
160
100
AcDbEntity
8
0
100
AcDbCircle
10
1.8027611467861673
20
-0.41539408714884263
30
0
40
0.025000000000001261
210
0
220
0
230
1
100
AcDbArc
50
315.00000000000045
51
347.02432615014771
0
ARC
5
161
100
AcDbEntity
8
0
100
AcDbCircle
10
-1.6224991603970791e-13
20
3.4722880738670246e-13
30
0
40
1.8750000000002356
210
0
220
0
230
1
100
AcDbArc
50
347.02432615013902
51
350.77539158673653
0
ARC
5
162
100
AcDbEntity
8
0
100
AcDbCircle
10
1.8260748849963189
20
-0.29656451976876791
30
0
40
0.025000000000000189
210
0
220
0
230
1
100
AcDbArc
50
-9.2246084132615191
51
143.99999999999937
0
LINE
5
163
100
AcDbEntity
8
0
100
AcDbLine
10
1.8058494601369453
20
-0.28186988846145578
30
0
11
1.6681760364539315
21
-0.47136109974812379
31
0
0
SPLINE
5
164
100
AcDbEntity
8
0
100
AcDbSpline
70
4
71
5
72
16
73
10
74
0
42
0.000000001
43
0.0000000001
44
0.0000000001
40
0
40
0
40
0
40
0
40
0
40
0
40
0.20000000000000001
40
0.40000000000000002
40
0.60000000000000009
40
0.80000000000000004
40
1
40
1
40
1
40
1
40
1
40
1
41
1
41
1
41
1
41
1
41
1
41
1
41
1
41
1
41
1
41
1
10
1.0673655986691799
20
-0.80638819980055643
30
0
10
1.0920535592962746
20
-0.82432505312586257
30
0
10
1.1424145917449691
20
-0.84942662062593954
30
0
10
1.2209076958748237
20
-0.85479317314610304
30
0
10
1.3296849845262182
20
-0.80762370300569586
30
0
10
1.4633699738924173
20
-0.69787017341453561
30
0
10
1.5591109135481276
20
-0.59907861614978153
30
0
10
1.6191268543844626
20
-0.53127823108147942
30
0
10
1.6528716216738328
20
-0.49058175282351391
30
0
10
1.6681760364539315
20
-0.47136109974812379
30
0
0
LINE
5
165
100
AcDbEntity
8
0
100
AcDbLine
10
1.0673655986691799
20
-0.80638819980055643
30
0
11
0.74375880091920121
21
-0.57127409888356728
31
0
0
ARC
5
166
100
AcDbEntity
8
0
100
AcDbCircle
10
0.75845343222651307
20
-0.55104867402419344
30
0
40
0.025000000000000015
210
0
220
-0
230
1
100
AcDbArc
50
54
51
234.00000000000014
0
LINE
5
167
100
AcDbEntity
8
0
100
AcDbLine
10
0.77314806353382493
20
-0.53082324916481971
30
0
11
1.0967548612838036
21
-0.76593735008180908
31
0
0
SPLINE
5
168
100
AcDbEntity
8
0
100
AcDbSpline
70
4
71
5
72
16
73
10
74
0
42
0.000000001
43
0.0000000001
44
0.0000000001
40
-1
40
-1
40
-1
40
-1
40
-1
40
-1
40
-0.80000000000000004
40
-0.60000000000000009
40
-0.40000000000000002
40
-0.20000000000000001
40
0
40
0
40
0
40
0
40
0
40
0
41
1
41
1
41
1
41
1
41
1
41
1
41
1
41
1
41
1
41
1
10
1.6419510204752619
20
-0.45102582467004776
30
0
10
1.6283868122970284
20
-0.46899484182829093
30
0
10
1.5983193818738624
20
-0.50709831062158817
30
0
10
1.5444096330029085
20
-0.57074042033561367
30
0
10
1.4577820651744577
20
-0.66370560740231954
30
0
10
1.3362430640371268
20
-0.76714682726128314
30
0
10
1.2370764709072872
20
-0.81163046468233924
30
0
10
1.1653944440686235
20
-0.80655690025922688
30
0
10
1.1193446424066709
20
-0.78286528482197981
30
0
10
1.0967548612838036
20
-0.76593735008180908
30
0
0
LINE
5
169
100
AcDbEntity
8
0
100
AcDbLine
10
1.6419510204752619
20
-0.45102582467004776
30
0
11
1.8657735422219959
21
-0.14296055234357702
31
0
0
ARC
5
170
100
AcDbEntity
8
0
100
AcDbCircle
10
1.8455481173626185
20
-0.12826592103626366
30
0
40
0.025000000000003953
210
0
220
0
230
1
100
AcDbArc
50
324.0000000000021
51
356.02432615014584
0
ARC
5
171
100
AcDbEntity
8
0
100
AcDbCircle
10
-1.6224991603970791e-13
20
3.4722880738670246e-13
30
0
40
1.8750000000001856
210
0
220
0
230
1
100
AcDbArc
50
356.02432615013799
51
359.77539158673545
0
ARC
5
172
100
AcDbEntity
8
0
100
AcDbCircle
10
1.8499857849644112
20
-0.0072522706520100977
30
0
40
0.025000000000000178
210
0
220
0
230
1
100
AcDbArc
50
-0.22460841324350392
51
153.00000000000014
0
LINE
5
173
100
AcDbEntity
8
0
100
AcDbLine
10
1.8277106218597017
20
0.0040974918414786879
30
0
11
1.7213751427456305
21
-0.20459763657572017
31
0
0
SPLINE
5
174
100
AcDbEntity
8
0
100
AcDbSpline
70
4
71
5
72
16
73
10
74
0
42
0.000000001
43
0.0000000001
44
0.0000000001
40
0
40
0
40
0
40
0
40
0
40
0
40
0.20000000000000001
40
0.40000000000000002
40
0.60000000000000009
40
0.80000000000000004
40
1
40
1
40
1
40
1
40
1
40
1
41
1
41
1
41
1
41
1
41
1
41
1
41
1
41
1
41
1
41
1
10
1.180371463608453
20
-0.62948745650635307
30
0
10
1.2075614165273554
20
-0.64334142948908923
30
0
10
1.2612291713808101
20
-0.66025575386959179
30
0
10
1.3395954089195898
20
-0.65327720846904802
30
0
10
1.4396545378144783
20
-0.58967195582060961
30
0
10
1.5545244084361878
20
-0.46035673450884679
30
0
10
1.6336322138405521
20
-0.34780428257172225
30
0
10
1.6823029418867663
20
-0.27145007115328146
30
0
10
1.7092659232892675
20
-0.22597578945578564
30
0
10
1.7213751427456305
20
-0.20459763657572017
30
0
0
LINE
5
175
100
AcDbEntity
8
0
100
AcDbLine
10
1.180371463608453
20
-0.62948745650635307
30
0
11
0.82396885393310593
21
-0.44789125661053436
31
0
0
ARC
5
176
100
AcDbEntity
8
0
100
AcDbCircle
10
0.83531861642659466
20
-0.42561609350582508
30
0
40
0.024999999999999981
210
0
220
-0
230
1
100
AcDbArc
50
63.000000000000128
51
242.99999999999994
0
LINE
5
177
100
AcDbEntity
8
0
100
AcDbLine
10
0.84666837892008329
20
-0.40334093040111585
30
0
11
1.2030709885954303
21
-0.58493713029693473
31
0
0
SPLINE
5
178
100
AcDbEntity
8
0
100
AcDbSpline
70
4
71
5
72
16
73
10
74
0
42
0.000000001
43
0.0000000001
44
0.0000000001
40
-1
40
-1
40
-1
40
-1
40
-1
40
-1
40
-0.80000000000000004
40
-0.60000000000000009
40
-0.40000000000000002
40
-0.20000000000000001
40
0
40
0
40
0
40
0
40
0
40
0
41
1
41
1
41
1
41
1
41
1
41
1
41
1
41
1
41
1
41
1
10
1.6922918623532923
20
-0.18861521882360438
30
0
10
1.6817056256726945
20
-0.20848491721281132
30
0
10
1.6579690709689343
20
-0.25082285146956412
30
0
10
1.6146788599518267
20
-0.32211476393006444
30
0
10
1.5436607805396965
20
-0.42748693250807579
30
0
10
1.4397998980805213
20
-0.54866750792415475
30
0
10
1.3488129842926435
20
-0.60811655089832195
30
0
10
1.2772198018174907
20
-0.61431898999386148
30
0
10
1.2280307644423971
20
-0.59812283374482511
30
0
10
1.2030709885954303
20
-0.58493713029693473
30
0
0
LINE
5
179
100
AcDbEntity
8
0
100
AcDbLine
10
1.6922918623532923
20
-0.18861521882360438
30
0
11
1.8651667313712785
21
0.15067081524892142
31
0
0
ARC
5
180
100
AcDbEntity
8
0
100
AcDbCircle
10
1.8428915682665652
20
0.16202057774241066
30
0
40
0.025000000000004095
210
0
220
0
230
1
100
AcDbArc
50
-26.999999999996845
51
5.0243261501459369
0
ARC
5
181
100
AcDbEntity
8
0
100
AcDbCircle
10
-1.6224991603970791e-13
20
3.4722880738670246e-13
30
0
40
1.875000000000131
210
0
220
-0
230
1
100
AcDbArc
50
5.0243261501372212
51
8.7753915867349619
0
ARC
5
182
100
AcDbEntity
8
0
100
AcDbCircle
10
1.8283438951558668
20
0.28223855343710941
30
0
40
0.025000000000000314
210
0
220
-0
230
1
100
AcDbArc
50
8.7753915867469257
51
162.0000000000002
0
LINE
5
183
100
AcDbEntity
8
0
100
AcDbLine
10
1.8045674822484883
20
0.2899639782964829
30
0
11
1.7321882801063686
21
0.067203699429803587
31
0
0
SPLINE
5
184
100
AcDbEntity
8
0
100
AcDbSpline
70
4
71
5
72
16
73
10
74
0
42
0.000000001
43
0.0000000001
44
0.0000000001
40
0
40
0
40
0
40
0
40
0
40
0
40
0.20000000000000001
40
0.40000000000000002
40
0.60000000000000009
40
0.80000000000000004
40
1
40
1
40
1
40
1
40
1
40
1
41
1
41
1
41
1
41
1
41
1
41
1
41
1
41
1
41
1
41
1
10
1.2643126656853938
20
-0.43708664288387111
30
0
10
1.2933351040169607
20
-0.44651660473050209
30
0
10
1.348988103037617
20
-0.45482719918975817
30
0
10
1.4252978371344855
20
-0.43567539081673257
30
0
10
1.5141750184422658
20
-0.35720052807419861
30
0
10
1.6074012928735355
20
-0.21150778496314296
30
0
10
1.6679280673137449
20
-0.087965853260511928
30
0
10
1.7040551477164552
20
-0.0049379095821537365
30
0
10
1.7235724251449522
20
0.044194447818991706
30
0
10
1.7321882801063686
20
0.067203699429803587
30
0
0
LINE
5
185
100
AcDbEntity
8
0
100
AcDbLine
10
1.2643126656853938
20
-0.43708664288387111
30
0
11
0.88389005916733254
21
-0.31347984513389221
31
0
0
ARC
5
186
100
AcDbEntity
8
0
100
AcDbCircle
10
0.89161548402670632
20
-0.28970343222651324
30
0
40
0.024999999999999994
210
0
220
-0
230
1
100
AcDbArc
50
72.000000000000355
51
251.99999999999991
0
LINE
5
187
100
AcDbEntity
8
0
100
AcDbLine
10
0.89934090888607987
20
-0.26592701931913432
30
0
11
1.2797635154041411
21
-0.38953381706911344
31
0
0
SPLINE
5
188
100
AcDbEntity
8
0
100
AcDbSpline
70
4
71
5
72
16
73
10
74
0
42
0.000000001
43
0.0000000001
44
0.0000000001
40
-1
40
-1
40
-1
40
-1
40
-1
40
-1
40
-0.80000000000000004
40
-0.60000000000000009
40
-0.40000000000000002
40
-0.20000000000000001
40
0
40
0
40
0
40
0
40
0
40
0
41
1
41
1
41
1
41
1
41
1
41
1
41
1
41
1
41
1
41
1
10
1.7009628621854951
20
0.078439719688298673
30
0
10
1.6936152652833145
20
0.05715859798621839
30
0
10
1.6767940590528754
20
0.01162869871895934
30
0
10
1.6451893345568285
20
-0.065557572998946004
30
0
10
1.5915294443716379
20
-0.18074211058769432
30
0
10
1.5079040802112704
20
-0.31667817361887268
30
0
10
1.4273372455510658
20
-0.38962878940806522
30
0
10
1.3575957691961129
20
-0.40695450738700922
30
0
10
1.3064786934571084
20
-0.39865261344499558
30
0
10
1.2797635154041411
20
-0.38953381706911344
30
0
0
LINE
5
189
100
AcDbEntity
8
0
100
AcDbLine
10
1.7009628621854951
20
0.078439719688298673
30
0
11
1.818633325460715
21
0.44059216732222611
31
0
0
ARC
5
190
100
AcDbEntity
8
0
100
AcDbCircle
10
1.7948569125533294
20
0.44831759218160022
30
0
40
0.02500000000000651
210
0
220
0
230
1
100
AcDbArc
50
-17.999999999996131
51
14.024326150144649
0
ARC
5
191
100
AcDbEntity
8
0
100
AcDbCircle
10
-1.6224991603970791e-13
20
3.4722880738670246e-13
30
0
40
1.8750000000000731
210
0
220
-0
230
1
100
AcDbArc
50
14.024326150136748
51
17.775391586734379
0
ARC
5
192
100
AcDbEntity
8
0
100
AcDbCircle
10
1.7616821107230851
20
0.56477972764455209
30
0
40
0.025000000000000314
210
0
220
-0
230
1
100
AcDbArc
50
17.775391586724794
51
170.99999999999989
0
LINE
5
193
100
AcDbEntity
8
0
100
AcDbLine
10
1.7369899022082065
20
0.56869058927055793
30
0
11
1.7003491932075789
21
0.33735025731907448
31
0
0
SPLINE
5
194
100
AcDbEntity
8
0
100
AcDbSpline
70
4
71
5
72
16
73
10
74
0
42
0.000000001
43
0.0000000001
44
0.0000000001
40
0
40
0
40
0
40
0
40
0
40
0
40
0.20000000000000001
40
0.40000000000000002
40
0.60000000000000009
40
0.80000000000000004
40
1
40
1
40
1
40
1
40
1
40
1
41
1
41
1
41
1
41
1
41
1
41
1
41
1
41
1
41
1
41
1
10
1.3171222939199907
20
-0.2339233055061874
30
0
10
1.347262588912548
20
-0.23869705925980003
30
0
10
1.4035304705628029
20
-0.2381992893809409
30
0
10
1.4759047023068079
20
-0.20734579911878537
30
0
10
1.5514114848572287
20
-0.11593363784601453
30
0
10
1.6206986228212947
20
0.042549188202447144
30
0
10
1.6611539962337833
20
0.17403858729990146
30
0
10
1.683847860374569
20
0.26169583971086896
30
0
10
1.6954388536846428
20
0.31327647111550228
30
0
10
1.7003491932075789
20
0.33735025731907448
30
0
0
LINE
5
195
100
AcDbEntity
8
0
100
AcDbLine
10
1.3171222939199907
20
-0.2339233055061874
30
0
11
0.92204695768193567
21
-0.17134951949009503
31
0
0
ARC
5
196
100
AcDbEntity
8
0
100
AcDbCircle
10
0.92595781930794141
20
-0.14665731097521645
30
0
40
0.024999999999999994
210
0
220
-0
230
1
100
AcDbArc
50
80.999999999999829
51
261.00000000000017
0
LINE
5
197
100
AcDbEntity
8
0
100
AcDbLine
10
0.92986868093394726
20
-0.12196510246033801
30
0
11
1.3249440171720022
21
-0.18453888847643052
31
0
0
SPLINE
5
198
100
AcDbEntity
8
0
100
AcDbSpline
70
4
71
5
72
16
73
10
74
0
42
0.000000001
43
0.0000000001
44
0.0000000001
40
-1
40
-1
40
-1
40
-1
40
-1
40
-1
40
-0.80000000000000004
40
-0.60000000000000009
40
-0.40000000000000002
40
-0.20000000000000001
40
0
40
0
40
0
40
0
40
0
40
0
41
1
41
1
41
1
41
1
41
1
41
1
41
1
41
1
41
1
41
1
10
1.6677505111786031
20
0.34356321197497142
30
0
10
1.6638224762758469
20
0.3213946788043166
30
0
10
1.6543308124425056
20
0.27379391175158369
30
0
10
1.6351897876746788
20
0.19261386295251726
30
0
10
1.6002093712997529
20
0.070453181944030371
30
0
10
1.5388786594404926
20
-0.076891171684491846
30
0
10
1.4707157267632904
20
-0.16154707401876664
30
0
10
1.4045432231350858
20
-0.18956945420371224
30
0
10
1.3527567810847128
20
-0.18936624274998004
30
0
10
1.3249440171720022
20
-0.18453888847643052
30
0
0
LINE
5
199
100
AcDbEntity
8
0
100
AcDbLine
10
1.6677505111786031
20
0.34356321197497142
30
0
11
1.7273191313793417
21
0.71966467799448652
31
0
0
ARC
5
200
100
AcDbEntity
8
0
100
AcDbCircle
10
1.7026269228644602
20
0.72357553962049137
30
0
40
0.025000000000002857
210
-0
220
0
230
1
100
AcDbArc
50
-8.9999999999967937
51
23.024326150146496
0
ARC
5
201
100
AcDbEntity
8
0
100
AcDbCircle
10
-1.6224991603970791e-13
20
3.4722880738670246e-13
30
0
40
1.8750000000000135
210
0
220
-0
230
1
100
AcDbArc
50
23.024326150136478
51
26.775391586734425
0
ARC
5
202
100
AcDbEntity
8
0
100
AcDbCircle
10
1.6516418660365813
20
0.83341415056093127
30
0
40
0.025000000000000338
210
0
220
-0
230
1
100
AcDbArc
50
26.775391586737008
51
180
0
LINE
5
203
100
AcDbEntity
8
0
100
AcDbLine
10
1.6266418660365807
20
0.8334141505609316
30
0
11
1.6266418660365811
21
0.59919013227183504
31
0
0
SPLINE
5
204
100
AcDbEntity
8
0
100
AcDbSpline
70
4
71
5
72
16
73
10
74
0
42
0.000000001
43
0.0000000001
44
0.0000000001
40
0
40
0
40
0
40
0
40
0
40
0
40
0.20000000000000001
40
0.40000000000000002
40
0.60000000000000009
40
0.80000000000000004
40
1
40
1
40
1
40
1
40
1
40
1
41
1
41
1
41
1
41
1
41
1
41
1
41
1
41
1
41
1
41
1
10
1.3374999999999995
20
-0.025000000000000213
30
0
10
1.3680159975609267
20
-0.025000000000000213
30
0
10
1.4235132598521583
20
-0.015706122529446954
30
0
10
1.4901698954614582
20
0.026089334294720771
30
0
10
1.5504470516754838
20
0.12818792330762302
30
0
10
1.5940889738848436
20
0.29555845914183337
30
0
10
1.6134768007125095
20
0.43175762024003522
30
0
10
1.6221786503396072
20
0.52188576891151239
30
0
10
1.6255579508076623
20
0.57464458798815032
30
0
10
1.6266418660365811
20
0.59919013227183504
30
0
0
LINE
5
205
100
AcDbEntity
8
0
100
AcDbLine
10
1.3374999999999995
20
-0.025000000000000213
30
0
11
0.93749999999999978
21
-0.025000000000000213
31
0
0
ARC
5
206
100
AcDbEntity
8
0
100
AcDbCircle
10
0.93749999999999978
20
-5.7405318710032175e-17
30
0
40
0.024999999999999998
210
-0
220
0
230
1
100
AcDbArc
50
90
51
270
0
LINE
5
207
100
AcDbEntity
8
0
100
AcDbLine
10
0.93749999999999978
20
0.024999999999999939
30
0
11
1.3374999999999995
21
0.024999999999999786
31
0
0
SPLINE
5
208
100
AcDbEntity
8
0
100
AcDbSpline
70
4
71
5
72
16
73
10
74
0
42
0.000000001
43
0.0000000001
44
0.0000000001
40
-1
40
-1
40
-1
40
-1
40
-1
40
-1
40
-0.80000000000000004
40
-0.60000000000000009
40
-0.40000000000000002
40
-0.20000000000000001
40
0
40
0
40
0
40
0
40
0
40
0
41
1
41
1
41
1
41
1
41
1
41
1
41
1
41
1
41
1
41
1
10
1.5934726076398789
20
0.60022703776189135
30
0
10
1.5930608559922541
20
0.57771695598246708
30
0
10
1.5911324508206131
20
0.52921741000698708
30
0
10
1.5849264413362094
20
0.44604250634932807
30
0
10
1.5694868327160452
20
0.31991368331558767
30
0
10
1.5319609388288302
20
0.1647891460839295
30
0
10
1.4778803057569465
20
0.070512466476874147
30
0
10
1.4169061615087652
20
0.032483428087028227
30
0
10
1.3657255072196515
20
0.024582953312067932
30
0
10
1.3374999999999995
20
0.024999999999999786
30
0
0
LINE
5
209
100
AcDbEntity
8
0
100
AcDbLine
10
1.5934726076398789
20
0.60022703776189135
30
0
11
1.5934726076398789
21
0.98101665586439346
31
0
0
ARC
5
210
100
AcDbEntity
8
0
100
AcDbCircle
10
1.5684726076398754
20
0.98101665586439279
30
0
40
0.02500000000000345
210
0
220
-0
230
1
100
AcDbArc
50
0
51
32.024326150145171
0
ARC
5
211
100
AcDbEntity
8
0
100
AcDbCircle
10
-1.6224991603970791e-13
20
3.4722880738670246e-13
30
0
40
1.8749999999999534
210
0
220
-0
230
1
100
AcDbArc
50
32.024326150136616
51
35.775391586734692
0
ARC
5
212
100
AcDbEntity
8
0
100
AcDbCircle
10
1.5009327171231694
20
1.0815271511475149
30
0
40
0.024999999999999915
210
0
220
-0
230
1
100
AcDbArc
50
35.775391586739367
51
189.00000000000045
0
LINE
5
213
100
AcDbEntity
8
0
100
AcDbLine
10
1.476240508608291
20
1.0776162895215089
30
0
11
1.5128812176089192
21
0.84627595757002538
31
0
0
SPLINE
5
214
100
AcDbEntity
8
0
100
AcDbSpline
70
4
71
5
72
16
73
10
74
0
42
0.000000001
43
0.0000000001
44
0.0000000001
40
0
40
0
40
0
40
0
40
0
40
0
40
0.20000000000000001
40
0.40000000000000002
40
0.60000000000000009
40
0.80000000000000004
40
1
40
1
40
1
40
1
40
1
40
1
41
1
41
1
41
1
41
1
41
1
41
1
41
1
41
1
41
1
41
1
10
1.3249440171720022
20
0.18453888847643007
30
0
10
1.3550843121645595
20
0.18931264223004271
30
0
10
1.4084444283143036
20
0.20717378118435414
30
0
10
1.4677421601995071
20
0.25888206171235456
30
0
10
1.5113054664427363
20
0.36915307235810046
30
0
10
1.5282275639333596
20
0.54129009991485932
30
0
10
1.5260704515351973
20
0.67884534764847082
30
0
10
1.520566018231005
20
0.76922513844198925
30
0
10
1.5156504162642626
20
0.82186304796848342
30
0
10
1.5128812176089192
20
0.84627595757002538
30
0
0
LINE
5
215
100
AcDbEntity
8
0
100
AcDbLine
10
1.3249440171720022
20
0.18453888847643007
30
0
11
0.92986868093394726
21
0.12196510246033777
31
0
0
ARC
5
216
100
AcDbEntity
8
0
100
AcDbCircle
10
0.92595781930794141
20
0.14665731097521637
30
0
40
0.024999999999999994
210
0
220
0
230
1
100
AcDbArc
50
98.999999999999915
51
279.00000000000011
0
LINE
5
217
100
AcDbEntity
8
0
100
AcDbLine
10
0.92204695768193567
20
0.1713495194900948
30
0
11
1.3171222939199907
21
0.23392330550618695
31
0
0
SPLINE
5
218
100
AcDbEntity
8
0
100
AcDbSpline
70
4
71
5
72
16
73
10
74
0
42
0.000000001
43
0.0000000001
44
0.0000000001
40
-1
40
-1
40
-1
40
-1
40
-1
40
-1
40
-0.80000000000000004
40
-0.60000000000000009
40
-0.40000000000000002
40
-0.20000000000000001
40
0
40
0
40
0
40
0
40
0
40
0
41
1
41
1
41
1
41
1
41
1
41
1
41
1
41
1
41
1
41
1
10
1.4799581200686751
20
0.84211128183978368
30
0
10
1.4830727903682714
20
0.81981392437167755
30
0
10
1.4887551275936663
20
0.77160981925613181
30
0
10
1.495636945942757
20
0.68848810290961082
30
0
10
1.5001183194827052
20
0.56149684807127209
30
0
10
1.4873212556163407
20
0.402411808171944
30
0
10
1.4486545668193362
20
0.30083575603039486
30
0
10
1.3943801677441514
20
0.25373646057194904
30
0
10
1.345065538783748
20
0.23792683547742827
30
0
10
1.3171222939199907
20
0.23392330550618695
30
0
0
LINE
5
219
100
AcDbEntity
8
0
100
AcDbLine
10
1.4799581200686751
20
0.84211128183978368
30
0
11
1.4203894998679365
21
1.2182127478592997
31
0
0
ARC
5
220
100
AcDbEntity
8
0
100
AcDbCircle
10
1.3956972913530574
20
1.2143018862332937
30
0
40
0.025000000000000775
210
0
220
-0
230
1
100
AcDbArc
50
9.0000000000001457
51
41.024326150148248
0
ARC
5
221
100
AcDbEntity
8
0
100
AcDbCircle
10
-1.6224991603970791e-13
20
3.4722880738670246e-13
30
0
40
1.8749999999998943
210
0
220
-0
230
1
100
AcDbArc
50
41.024326150136972
51
44.775391586735168
0
ARC
5
222
100
AcDbEntity
8
0
100
AcDbCircle
10
1.3132656234040889
20
1.3030093638900175
30
0
40
0.025000000000000314
210
0
220
-0
230
1
100
AcDbArc
50
44.775391586742501
51
198.00000000000003
0
LINE
5
223
100
AcDbEntity
8
0
100
AcDbLine
10
1.2894892104967102
20
1.2952839390306439
30
0
11
1.3618684126388292
21
1.0725236601639638
31
0
0
SPLINE
5
224
100
AcDbEntity
8
0
100
AcDbSpline
70
4
71
5
72
16
73
10
74
0
42
0.000000001
43
0.0000000001
44
0.0000000001
40
0
40
0
40
0
40
0
40
0
40
0
40
0.20000000000000001
40
0.40000000000000002
40
0.60000000000000009
40
0.80000000000000004
40
1
40
1
40
1
40
1
40
1
40
1
41
1
41
1
41
1
41
1
41
1
41
1
41
1
41
1
41
1
41
1
10
1.2797635154041413
20
0.389533817069113
30
0
10
1.3087859537357081
20
0.39896377891574392
30
0
10
1.3586950205922856
20
0.42495237883503678
30
0
10
1.4091737417964898
20
0.48530025359032619
30
0
10
1.4349505248908898
20
0.60102844761831509
30
0
10
1.4247361194613355
20
0.77369338198913395
30
0
10
1.4010871831036336
20
0.90921764963925944
30
0
10
1.381512004284267
20
0.99762363215215466
30
0
10
1.3684225383170958
20
1.0488445121007566
30
0
10
1.3618684126388292
20
1.0725236601639638
30
0
0
LINE
5
225
100
AcDbEntity
8
0
100
AcDbLine
10
1.2797635154041413
20
0.389533817069113
30
0
11
0.89934090888608009
21
0.26592701931913409
31
0
0
ARC
5
226
100
AcDbEntity
8
0
100
AcDbCircle
10
0.89161548402670632
20
0.28970343222651307
30
0
40
0.024999999999999994
210
0
220
0
230
1
100
AcDbArc
50
107.99999999999969
51
288.00000000000011
0
LINE
5
227
100
AcDbEntity
8
0
100
AcDbLine
10
0.88389005916733276
20
0.31347984513389193
30
0
11
1.264312665685394
21
0.43708664288387067
31
0
0
SPLINE
5
228
100
AcDbEntity
8
0
100
AcDbSpline
70
4
71
5
72
16
73
10
74
0
42
0.000000001
43
0.0000000001
44
0.0000000001
40
-1
40
-1
40
-1
40
-1
40
-1
40
-1
40
-0.80000000000000004
40
-0.60000000000000009
40
-0.40000000000000002
40
-0.20000000000000001
40
0
40
0
40
0
40
0
40
0
40
0
41
1
41
1
41
1
41
1
41
1
41
1
41
1
41
1
41
1
41
1
10
1.3300021518819798
20
1.0632599513516692
30
0
10
1.336566550609023
20
1.0417243531364331
30
0
10
1.3497197122303688
20
0.99500263392901878
30
0
10
1.3695199052057527
20
0.91398083741524783
30
0
10
1.3938119146164347
20
0.78925409692624193
30
0
10
1.4060587869543302
20
0.6301257560145429
30
0
10
1.3837581446377702
20
0.52375147085381468
30
0
10
1.3375199065672163
20
0.46874165929455563
30
0
10
1.2912855927663986
20
0.445412169319439
30
0
10
1.264312665685394
20
0.43708664288387067
30
0
0
LINE
5
229
100
AcDbEntity
8
0
100
AcDbLine
10
1.3300021518819798
20
1.0632599513516692
30
0
11
1.2123316886067608
21
1.4254123989855967
31
0
0
ARC
5
230
100
AcDbEntity
8
0
100
AcDbCircle
10
1.1885552756993827
20
1.4176869741262235
30
0
40
0.024999999999999092
210
0
220
-0
230
1
100
AcDbArc
50
17.999999999999513
51
50.02432615014952
0
ARC
5
231
100
AcDbEntity
8
0
100
AcDbCircle
10
-1.6224991603970791e-13
20
3.4722880738670246e-13
30
0
40
1.8749999999998379
210
0
220
-0
230
1
100
AcDbArc
50
50.024326150137618
51
53.775391586735893
0
ARC
5
232
100
AcDbEntity
8
0
100
AcDbCircle
10
1.0932615715580776
20
1.4924071616534016
30
0
40
0.024999999999999748
210
0
220
-0
230
1
100
AcDbArc
50
53.775391586740383
51
206.99999999999997
0
LINE
5
233
100
AcDbEntity
8
0
100
AcDbLine
10
1.0709864084533685
20
1.481057399159913
30
0
11
1.1773218875674392
21
1.2723622707427127
31
0
0
SPLINE
5
234
100
AcDbEntity
8
0
100
AcDbSpline
70
4
71
5
72
16
73
10
74
0
42
0.000000001
43
0.0000000001
44
0.0000000001
40
0
40
0
40
0
40
0
40
0
40
0
40
0.20000000000000001
40
0.40000000000000002
40
0.60000000000000009
40
0.80000000000000004
40
1
40
1
40
1
40
1
40
1
40
1
41
1
41
1
41
1
41
1
41
1
41
1
41
1
41
1
41
1
41
1
10
1.2030709885954305
20
0.58493713029693428
30
0
10
1.2302609415143331
20
0.59879110327967044
30
0
10
1.2754900322130385
20
0.6322672385827135
30
0
10
1.3159067890909251
20
0.69976874260570321
30
0
10
1.3232623390884732
20
0.81810450779911026
30
0
10
1.286162943300085
20
0.98704576525771626
30
0
10
1.24160449828229
20
1.1172019955755526
30
0
10
1.208440579816576
20
1.2014573211157222
30
0
10
1.1874995559425348
20
1.2499999434297429
30
0
10
1.1773218875674392
20
1.2723622707427127
30
0
0
LINE
5
235
100
AcDbEntity
8
0
100
AcDbLine
10
1.2030709885954305
20
0.58493713029693428
30
0
11
0.84666837892008351
21
0.40334093040111568
31
0
0
ARC
5
236
100
AcDbEntity
8
0
100
AcDbCircle
10
0.83531861642659466
20
0.42561609350582497
30
0
40
0.024999999999999981
210
0
220
0
230
1
100
AcDbArc
50
116.99999999999987
51
297.00000000000028
0
LINE
5
237
100
AcDbEntity
8
0
100
AcDbLine
10
0.82396885393310604
20
0.44789125661053419
30
0
11
1.180371463608453
21
0.62948745650635263
31
0
0
SPLINE
5
238
100
AcDbEntity
8
0
100
AcDbSpline
70
4
71
5
72
16
73
10
74
0
42
0.000000001
43
0.0000000001
44
0.0000000001
40
-1
40
-1
40
-1
40
-1
40
-1
40
-1
40
-0.80000000000000004
40
-0.60000000000000009
40
-0.40000000000000002
40
-0.20000000000000001
40
0
40
0
40
0
40
0
40
0
40
0
41
1
41
1
41
1
41
1
41
1
41
1
41
1
41
1
41
1
41
1
10
1.1472971166918746
20
1.2582276321038104
30
0
10
1.1571496065637141
20
1.237984071042056
30
0
10
1.1774497180890529
20
1.1938951815301557
30
0
10
1.2096807392266036
20
1.1169683303752302
30
0
10
1.2531852346157708
20
0.99757729053071575
30
0
10
1.2901744845159284
20
0.84232391647657723
30
0
10
1.2847890045052353
20
0.73377068623333885
30
0
10
1.2477254663165236
20
0.67220488270095313
30
0
10
1.2057099099239579
20
0.64192997731456625
30
0
10
1.180371463608453
20
0.62948745650635263
30
0
0
LINE
5
239
100
AcDbEntity
8
0
100
AcDbLine
10
1.1472971166918746
20
1.2582276321038104
30
0
11
0.97442224767388852
21
1.5975136661763374
31
0
0
ARC
5
240
100
AcDbEntity
8
0
100
AcDbCircle
10
0.9521470845691794
20
1.5861639036828481
30
0
40
0.025000000000000223
210
0
220
-0
230
1
100
AcDbArc
50
27.000000000001343
51
59.024326150148617
0
ARC
5
241
100
AcDbEntity
8
0
100
AcDbCircle
10
-1.6224991603970791e-13
20
3.4722880738670246e-13
30
0
40
1.8749999999997853
210
0
220
-0
230
1
100
AcDbArc
50
59.024326150138528
51
62.775391586736895
0
ARC
5
242
100
AcDbEntity
8
0
100
AcDbCircle
10
0.8463377914931709
20
1.6450569420814776
30
0
40
0.024999999999999464
210
0
220
-0
230
1
100
AcDbArc
50
62.775391586739829
51
216.00000000000074
0
LINE
5
243
100
AcDbEntity
8
0
100
AcDbLine
10
0.82611236663379728
20
1.6303623107741654
30
0
11
0.96378579031680989
21
1.4408710994874985
31
0
0
SPLINE
5
244
100
AcDbEntity
8
0
100
AcDbSpline
70
4
71
5
72
16
73
10
74
0
42
0.000000001
43
0.0000000001
44
0.0000000001
40
0
40
0
40
0
40
0
40
0
40
0
40
0.20000000000000001
40
0.40000000000000002
40
0.60000000000000009
40
0.80000000000000004
40
1
40
1
40
1
40
1
40
1
40
1
41
1
41
1
41
1
41
1
41
1
41
1
41
1
41
1
41
1
41
1
10
1.0967548612838038
20
0.76593735008180874
30
0
10
1.1214428219108985
20
0.783874203407115
30
0
10
1.1608782461319842
20
0.82401358054182394
30
0
10
1.1902378439936934
20
0.89700660277881983
30
0
10
1.1789910428417796
20
1.0150361198646949
30
0
10
1.1159201669447032
20
1.1760938059685693
30
0
10
1.0515493900641537
20
1.2976771205999282
30
0
10
1.0056133376894534
20
1.37570714342518
30
0
10
0.97733639341559442
20
1.4203762276395211
30
0
10
0.96378579031680989
20
1.4408710994874985
30
0
0
LINE
5
245
100
AcDbEntity
8
0
100
AcDbLine
10
1.0967548612838038
20
0.76593735008180874
30
0
11
0.77314806353382504
21
0.53082324916481971
31
0
0
ARC
5
246
100
AcDbEntity
8
0
100
AcDbCircle
10
0.75845343222651318
20
0.55104867402419344
30
0
40
0.025000000000000015
210
0
220
0
230
1
100
AcDbArc
50
126
51
306
0
LINE
5
247
100
AcDbEntity
8
0
100
AcDbLine
10
0.74375880091920132
20
0.57127409888356717
30
0
11
1.0673655986691803
21
0.8063881998005562
31
0
0
SPLINE
5
248
100
AcDbEntity
8
0
100
AcDbSpline
70
4
71
5
72
16
73
10
74
0
42
0.000000001
43
0.0000000001
44
0.0000000001
40
-1
40
-1
40
-1
40
-1
40
-1
40
-1
40
-0.80000000000000004
40
-0.60000000000000009
40
-0.40000000000000002
40
-0.20000000000000001
40
0
40
0
40
0
40
0
40
0
40
0
41
1
41
1
41
1
41
1
41
1
41
1
41
1
41
1
41
1
41
1
10
0.93634181882798773
20
1.4222135727354548
30
0
10
0.94923979884544052
20
1.4037605124850498
30
0
10
0.97618700415681015
20
1.3633900674510822
30
0
10
1.0200552187474949
20
1.2924523560360177
30
0
10
1.0817009750555238
20
1.1813368204731107
30
0
10
1.1425218044251193
20
1.0337812666021529
30
0
10
1.1541840951115392
20
0.92572203207250936
30
0
10
1.127207884121707
20
0.85911619097515157
30
0
10
1.0904456475774151
20
0.82264133882475765
30
0
10
1.0673655986691803
20
0.8063881998005562
30
0
0
LINE
5
249
100
AcDbEntity
8
0
100
AcDbLine
10
0.93634181882798773
20
1.4222135727354548
30
0
11
0.71251929708125494
21
1.7302788450619244
31
0
0
ARC
5
250
100
AcDbEntity
8
0
100
AcDbCircle
10
0.69229387222188232
20
1.7155842137546138
30
0
40
0.024999999999998496
210
0
220
-0
230
1
100
AcDbArc
50
35.999999999999218
51
68.024326150148681
0
ARC
5
251
100
AcDbEntity
8
0
100
AcDbCircle
10
-1.6224991603970791e-13
20
3.4722880738670246e-13
30
0
40
1.8749999999997387
210
0
220
-0
230
1
100
AcDbArc
50
68.024326150139643
51
71.775391586738223
0
ARC
5
252
100
AcDbEntity
8
0
100
AcDbCircle
10
0.5785743661676086
20
1.7571999609645308
30
0
40
0.025000000000000095
210
0
220
-0
230
1
100
AcDbArc
50
71.775391586744334
51
225
0
LINE
5
253
100
AcDbEntity
8
0
100
AcDbLine
10
0.56089669663794495
20
1.7395222914348671
30
0
11
0.72651808828692721
21
1.5739008997858852
31
0
0
SPLINE
5
254
100
AcDbEntity
8
0
100
AcDbSpline
70
4
71
5
72
16
73
10
74
0
42
0.000000001
43
0.0000000001
44
0.0000000001
40
0
40
0
40
0
40
0
40
0
40
0
40
0.20000000000000001
40
0.40000000000000002
40
0.60000000000000009
40
0.80000000000000004
40
1
40
1
40
1
40
1
40
1
40
1
41
1
41
1
41
1
41
1
41
1
41
1
41
1
41
1
41
1
41
1
10
0.96343298936667077
20
0.92807765030734313
30
0
10
0.98501105817667456
20
0.94965571911734681
30
0
10
1.0176817848971478
20
0.99546997340371035
30
0
10
1.0352612930044061
20
1.0721571833972854
30
0
10
1.0056890742733828
20
1.1869741739474653
30
0
10
0.91819973255244069
20
1.3361825139449157
30
0
10
0.83560164597029629
20
1.4461991281716864
30
0
10
0.77802455774909185
20
1.5160824901532635
30
0
10
0.74310796528923551
20
1.5557781351663771
30
0
10
0.72651808828692721
20
1.5739008997858852
30
0
0
LINE
5
255
100
AcDbEntity
8
0
100
AcDbLine
10
0.96343298936667077
20
0.92807765030734313
30
0
11
0.68059027689205198
21
0.64523493783272423
31
0
0
ARC
5
256
100
AcDbEntity
8
0
100
AcDbCircle
10
0.66291260736238822
20
0.66291260736238811
30
0
40
0.024999999999999967
210
0
220
0
230
1
100
AcDbArc
50
135.0000000000002
51
314.99999999999983
0
LINE
5
257
100
AcDbEntity
8
0
100
AcDbLine
10
0.64523493783272445
20
0.68059027689205176
30
0
11
0.92807765030734346
21
0.96343298936667043
31
0
0
SPLINE
5
258
100
AcDbEntity
8
0
100
AcDbSpline
70
4
71
5
72
16
73
10
74
0
42
0.000000001
43
0.0000000001
44
0.0000000001
40
-1
40
-1
40
-1
40
-1
40
-1
40
-1
40
-0.80000000000000004
40
-0.60000000000000009
40
-0.40000000000000002
40
-0.20000000000000001
40
0
40
0
40
0
40
0
40
0
40
0
41
1
41
1
41
1
41
1
41
1
41
1
41
1
41
1
41
1
41
1
10
0.70233067784422187
20
1.5511798951501163
30
0
10
0.71795655693331628
20
1.5349717112966217
30
0
10
0.75088732640330436
20
1.4993137650791482
30
0
10
0.80531255341364294
20
1.43611191528775
30
0
10
0.88358164752969426
20
1.3360079172633297
30
0
10
0.96673644569688832
20
1.1997834910206626
30
0
10
0.99515934277879825
20
1.0948790291867718
30
0
10
0.97893470283132633
20
1.0248732073843727
30
0
10
0.94833099440589708
20
0.98309654038300831
30
0
10
0.92807765030734346
20
0.96343298936667043
30
0
0
LINE
5
259
100
AcDbEntity
8
0
100
AcDbLine
10
0.70233067784422187
20
1.5511798951501163
30
0
11
0.43307175667850739
21
1.8204388163158309
31
0
0
ARC
5
260
100
AcDbEntity
8
0
100
AcDbCircle
10
0.41539408714884374
20
1.8027611467861677
30
0
40
0.024999999999999654
210
0
220
-0
230
1
100
AcDbArc
50
44.999999999999275
51
77.024326150147544
0
ARC
5
261
100
AcDbEntity
8
0
100
AcDbCircle
10
-1.6224991603970791e-13
20
3.4722880738670246e-13
30
0
40
1.8749999999996978
210
0
220
-0
230
1
100
AcDbArc
50
77.024326150141007
51
80.775391586739602
0
ARC
5
262
100
AcDbEntity
8
0
100
AcDbCircle
10
0.29656451976876891
20
1.8260748849963186
30
0
40
0.024999999999999894
210
0
220
-0
230
1
100
AcDbArc
50
80.7753915867426
51
233.99999999999997
0
LINE
5
263
100
AcDbEntity
8
0
100
AcDbLine
10
0.28186988846145711
20
1.805849460136945
30
0
11
0.47136109974812407
21
1.6681760364539315
31
0
0
SPLINE
5
264
100
AcDbEntity
8
0
100
AcDbSpline
70
4
71
5
72
16
73
10
74
0
42
0.000000001
43
0.0000000001
44
0.0000000001
40
0
40
0
40
0
40
0
40
0
40
0
40
0.20000000000000001
40
0.40000000000000002
40
0.60000000000000009
40
0.80000000000000004
40
1
40
1
40
1
40
1
40
1
40
1
41
1
41
1
41
1
41
1
41
1
41
1
41
1
41
1
41
1
41
1
10
0.80638819980055643
20
1.0673655986691797
30
0
10
0.82432505312586257
20
1.0920535592962743
30
0
10
0.84942662062593977
20
1.1424145917449688
30
0
10
0.85479317314610326
20
1.2209076958748235
30
0
10
0.80762370300569608
20
1.329684984526218
30
0
10
0.69787017341453583
20
1.4633699738924171
30
0
10
0.59907861614978175
20
1.5591109135481274
30
0
10
0.53127823108147954
20
1.6191268543844624
30
0
10
0.49058175282351413
20
1.6528716216738328
30
0
10
0.47136109974812407
20
1.6681760364539315
30
0
0
LINE
5
265
100
AcDbEntity
8
0
100
AcDbLine
10
0.80638819980055643
20
1.0673655986691797
30
0
11
0.57127409888356739
21
0.74375880091920099
31
0
0
ARC
5
266
100
AcDbEntity
8
0
100
AcDbCircle
10
0.55104867402419355
20
0.75845343222651296
30
0
40
0.025000000000000015
210
0
220
0
230
1
100
AcDbArc
50
144.00000000000023
51
323.99999999999994
0
LINE
5
267
100
AcDbEntity
8
0
100
AcDbLine
10
0.53082324916481982
20
0.7731480635338247
30
0
11
0.76593735008180919
21
1.0967548612838034
31
0
0
SPLINE
5
268
100
AcDbEntity
8
0
100
AcDbSpline
70
4
71
5
72
16
73
10
74
0
42
0.000000001
43
0.0000000001
44
0.0000000001
40
-1
40
-1
40
-1
40
-1
40
-1
40
-1
40
-0.80000000000000004
40
-0.60000000000000009
40
-0.40000000000000002
40
-0.20000000000000001
40
0
40
0
40
0
40
0
40
0
40
0
41
1
41
1
41
1
41
1
41
1
41
1
41
1
41
1
41
1
41
1
10
0.45102582467004798
20
1.6419510204752619
30
0
10
0.4689948418282911
20
1.6283868122970284
30
0
10
0.50709831062158828
20
1.5983193818738624
30
0
10
0.5707404203356139
20
1.5444096330029085
30
0
10
0.66370560740231976
20
1.4577820651744577
30
0
10
0.76714682726128325
20
1.3362430640371268
30
0
10
0.81163046468233924
20
1.2370764709072872
30
0
10
0.80655690025922699
20
1.1653944440686232
30
0
10
0.78286528482197992
20
1.1193446424066709
30
0
10
0.76593735008180919
20
1.0967548612838034
30
0
0
LINE
5
269
100
AcDbEntity
8
0
100
AcDbLine
10
0.45102582467004798
20
1.6419510204752619
30
0
11
0.14296055234357849
21
1.8657735422219948
31
0
0
ARC
5
270
100
AcDbEntity
8
0
100
AcDbCircle
10
0.12826592103626838
20
1.8455481173626258
30
0
40
0.024999999999995273
210
0
220
-0
230
1
100
AcDbArc
50
53.999999999996824
51
86.024326150151097
0
ARC
5
271
100
AcDbEntity
8
0
100
AcDbCircle
10
-1.6224991603970791e-13
20
3.4722880738670246e-13
30
0
40
1.8749999999996645
210
0
220
-0
230
1
100
AcDbArc
50
86.024326150142514
51
89.77539158674135
0
ARC
5
272
100
AcDbEntity
8
0
100
AcDbCircle
10
0.0072522706520089615
20
1.8499857849644112
30
0
40
0.025000000000000185
210
0
220
-0
230
1
100
AcDbArc
50
89.77539158675404
51
242.99999999999974
0
LINE
5
273
100
AcDbEntity
8
0
100
AcDbLine
10
-0.0040974918414798858
20
1.8277106218597019
30
0
11
0.20459763657572028
21
1.7213751427456305
31
0
0
SPLINE
5
274
100
AcDbEntity
8
0
100
AcDbSpline
70
4
71
5
72
16
73
10
74
0
42
0.000000001
43
0.0000000001
44
0.0000000001
40
0
40
0
40
0
40
0
40
0
40
0
40
0.20000000000000001
40
0.40000000000000002
40
0.60000000000000009
40
0.80000000000000004
40
1
40
1
40
1
40
1
40
1
40
1
41
1
41
1
41
1
41
1
41
1
41
1
41
1
41
1
41
1
41
1
10
0.62948745650635307
20
1.1803714636084528
30
0
10
0.64334142948908923
20
1.2075614165273552
30
0
10
0.66025575386959179
20
1.2612291713808099
30
0
10
0.65327720846904802
20
1.3395954089195896
30
0
10
0.58967195582060961
20
1.4396545378144781
30
0
10
0.46035673450884679
20
1.5545244084361876
30
0
10
0.3478042825717223
20
1.6336322138405521
30
0
10
0.27145007115328151
20
1.6823029418867663
30
0
10
0.22597578945578572
20
1.7092659232892673
30
0
10
0.20459763657572028
20
1.7213751427456305
30
0
0
LINE
5
275
100
AcDbEntity
8
0
100
AcDbLine
10
0.62948745650635307
20
1.1803714636084528
30
0
11
0.44789125661053436
21
0.82396885393310593
31
0
0
ARC
5
276
100
AcDbEntity
8
0
100
AcDbCircle
10
0.42561609350582508
20
0.83531861642659466
30
0
40
0.024999999999999981
210
0
220
0
230
1
100
AcDbArc
50
153.00000000000014
51
332.99999999999994
0
LINE
5
277
100
AcDbEntity
8
0
100
AcDbLine
10
0.40334093040111585
20
0.84666837892008329
30
0
11
0.58493713029693473
21
1.20307098859543
31
0
0
SPLINE
5
278
100
AcDbEntity
8
0
100
AcDbSpline
70
4
71
5
72
16
73
10
74
0
42
0.000000001
43
0.0000000001
44
0.0000000001
40
-1
40
-1
40
-1
40
-1
40
-1
40
-1
40
-0.80000000000000004
40
-0.60000000000000009
40
-0.40000000000000002
40
-0.20000000000000001
40
0
40
0
40
0
40
0
40
0
40
0
41
1
41
1
41
1
41
1
41
1
41
1
41
1
41
1
41
1
41
1
10
0.18861521882360449
20
1.6922918623532923
30
0
10
0.2084849172128114
20
1.6817056256726941
30
0
10
0.25082285146956418
20
1.6579690709689341
30
0
10
0.32211476393006455
20
1.6146788599518263
30
0
10
0.42748693250807579
20
1.5436607805396962
30
0
10
0.54866750792415475
20
1.4397998980805211
30
0
10
0.60811655089832195
20
1.3488129842926433
30
0
10
0.61431898999386148
20
1.2772198018174907
30
0
10
0.59812283374482511
20
1.2280307644423971
30
0
10
0.58493713029693473
20
1.20307098859543
30
0
0
LINE
5
279
100
AcDbEntity
8
0
100
AcDbLine
10
0.18861521882360449
20
1.6922918623532923
30
0
11
-0.15067081524892154
21
1.8651667313712783
31
0
0
ARC
5
280
100
AcDbEntity
8
0
100
AcDbCircle
10
-0.16202057774241113
20
1.8428915682665636
30
0
40
0.025000000000005178
210
0
220
-0
230
1
100
AcDbArc
50
63.000000000003801
51
95.024326150145484
0
ARC
5
281
100
AcDbEntity
8
0
100
AcDbCircle
10
-1.6224991603970791e-13
20
3.4722880738670246e-13
30
0
40
1.8749999999996394
210
0
220
0
230
1
100
AcDbArc
50
95.024326150144219
51
98.775391586743027
0
ARC
5
282
100
AcDbEntity
8
0
100
AcDbCircle
10
-0.28223855343711035
20
1.8283438951558668
30
0
40
0.025000000000000442
210
0
220
0
230
1
100
AcDbArc
50
98.775391586748711
51
252.00000000000031
0
LINE
5
283
100
AcDbEntity
8
0
100
AcDbLine
10
-0.28996397829648379
20
1.8045674822484883
30
0
11
-0.067203699429803587
21
1.7321882801063682
31
0
0
SPLINE
5
284
100
AcDbEntity
8
0
100
AcDbSpline
70
4
71
5
72
16
73
10
74
0
42
0.000000001
43
0.0000000001
44
0.0000000001
40
0
40
0
40
0
40
0
40
0
40
0
40
0.20000000000000001
40
0.40000000000000002
40
0.60000000000000009
40
0.80000000000000004
40
1
40
1
40
1
40
1
40
1
40
1
41
1
41
1
41
1
41
1
41
1
41
1
41
1
41
1
41
1
41
1
10
0.43708664288387111
20
1.2643126656853936
30
0
10
0.44651660473050209
20
1.2933351040169605
30
0
10
0.45482719918975817
20
1.348988103037617
30
0
10
0.43567539081673257
20
1.4252978371344853
30
0
10
0.35720052807419861
20
1.5141750184422655
30
0
10
0.21150778496314296
20
1.6074012928735355
30
0
10
0.087965853260512011
20
1.6679280673137449
30
0
10
0.0049379095821537365
20
1.7040551477164552
30
0
10
-0.044194447818991622
20
1.7235724251449522
30
0
10
-0.067203699429803587
20
1.7321882801063682
30
0
0
LINE
5
285
100
AcDbEntity
8
0
100
AcDbLine
10
0.43708664288387111
20
1.2643126656853936
30
0
11
0.31347984513389221
21
0.88389005916733243
31
0
0
ARC
5
286
100
AcDbEntity
8
0
100
AcDbCircle
10
0.28970343222651324
20
0.8916154840267061
30
0
40
0.024999999999999994
210
0
220
0
230
1
100
AcDbArc
50
162.00000000000011
51
342.00000000000017
0
LINE
5
287
100
AcDbEntity
8
0
100
AcDbLine
10
0.26592701931913432
20
0.89934090888607976
30
0
11
0.38953381706911344
21
1.2797635154041409
31
0
0
SPLINE
5
288
100
AcDbEntity
8
0
100
AcDbSpline
70
4
71
5
72
16
73
10
74
0
42
0.000000001
43
0.0000000001
44
0.0000000001
40
-1
40
-1
40
-1
40
-1
40
-1
40
-1
40
-0.80000000000000004
40
-0.60000000000000009
40
-0.40000000000000002
40
-0.20000000000000001
40
0
40
0
40
0
40
0
40
0
40
0
41
1
41
1
41
1
41
1
41
1
41
1
41
1
41
1
41
1
41
1
10
-0.078439719688298673
20
1.7009628621854951
30
0
10
-0.05715859798621839
20
1.6936152652833141
30
0
10
-0.011628698718959253
20
1.6767940590528754
30
0
10
0.065557572998946087
20
1.6451893345568285
30
0
10
0.18074211058769438
20
1.5915294443716379
30
0
10
0.31667817361887268
20
1.5079040802112702
30
0
10
0.38962878940806522
20
1.4273372455510658
30
0
10
0.40695450738700922
20
1.3575957691961127
30
0
10
0.39865261344499558
20
1.3064786934571082
30
0
10
0.38953381706911344
20
1.2797635154041409
30
0
0
LINE
5
289
100
AcDbEntity
8
0
100
AcDbLine
10
-0.078439719688298673
20
1.7009628621854951
30
0
11
-0.44059216732222611
21
1.8186333254607143
31
0
0
ARC
5
290
100
AcDbEntity
8
0
100
AcDbCircle
10
-0.44831759218159994
20
1.7948569125533305
30
0
40
0.025000000000004772
210
0
220
-0
230
1
100
AcDbArc
50
72.000000000003254
51
104.02432615014516
0
ARC
5
291
100
AcDbEntity
8
0
100
AcDbCircle
10
-1.6224991603970791e-13
20
3.4722880738670246e-13
30
0
40
1.8749999999996241
210
0
220
0
230
1
100
AcDbArc
50
104.024326150146
51
107.77539158674462
0
ARC
5
292
100
AcDbEntity
8
0
100
AcDbCircle
10
-0.56477972764455098
20
1.7616821107230856
30
0
40
0.025000000000000348
210
0
220
0
230
1
100
AcDbArc
50
107.77539158673542
51
260.99999999999943
0
LINE
5
293
100
AcDbEntity
8
0
100
AcDbLine
10
-0.56869058927055705
20
1.7369899022082069
30
0
11
-0.33735025731907431
21
1.7003491932075789
31
0
0
SPLINE
5
294
100
AcDbEntity
8
0
100
AcDbSpline
70
4
71
5
72
16
73
10
74
0
42
0.000000001
43
0.0000000001
44
0.0000000001
40
0
40
0
40
0
40
0
40
0
40
0
40
0.20000000000000001
40
0.40000000000000002
40
0.60000000000000009
40
0.80000000000000004
40
1
40
1
40
1
40
1
40
1
40
1
41
1
41
1
41
1
41
1
41
1
41
1
41
1
41
1
41
1
41
1
10
0.23392330550618748
20
1.3171222939199907
30
0
10
0.23869705925980012
20
1.347262588912548
30
0
10
0.23819928938094098
20
1.4035304705628029
30
0
10
0.20734579911878551
20
1.4759047023068079
30
0
10
0.11593363784601467
20
1.5514114848572287
30
0
10
-0.042549188202447012
20
1.6206986228212947
30
0
10
-0.17403858729990132
20
1.6611539962337833
30
0
10
-0.26169583971086879
20
1.683847860374569
30
0
10
-0.31327647111550211
20
1.6954388536846428
30
0
10
-0.33735025731907431
20
1.7003491932075789
30
0
0
LINE
5
295
100
AcDbEntity
8
0
100
AcDbLine
10
0.23392330550618748
20
1.3171222939199907
30
0
11
0.17134951949009514
21
0.92204695768193567
31
0
0
ARC
5
296
100
AcDbEntity
8
0
100
AcDbCircle
10
0.14665731097521653
20
0.92595781930794141
30
0
40
0.024999999999999994
210
0
220
0
230
1
100
AcDbArc
50
170.99999999999983
51
351.00000000000017
0
LINE
5
297
100
AcDbEntity
8
0
100
AcDbLine
10
0.12196510246033809
20
0.92986868093394726
30
0
11
0.1845388884764306
21
1.3249440171720022
31
0
0
SPLINE
5
298
100
AcDbEntity
8
0
100
AcDbSpline
70
4
71
5
72
16
73
10
74
0
42
0.000000001
43
0.0000000001
44
0.0000000001
40
-1
40
-1
40
-1
40
-1
40
-1
40
-1
40
-0.80000000000000004
40
-0.60000000000000009
40
-0.40000000000000002
40
-0.20000000000000001
40
0
40
0
40
0
40
0
40
0
40
0
41
1
41
1
41
1
41
1
41
1
41
1
41
1
41
1
41
1
41
1
10
-0.34356321197497131
20
1.6677505111786031
30
0
10
-0.32139467880431649
20
1.6638224762758473
30
0
10
-0.27379391175158357
20
1.6543308124425056
30
0
10
-0.19261386295251715
20
1.6351897876746788
30
0
10
-0.070453181944030246
20
1.6002093712997529
30
0
10
0.076891171684491944
20
1.5388786594404926
30
0
10
0.16154707401876678
20
1.4707157267632904
30
0
10
0.18956945420371238
20
1.4045432231350858
30
0
10
0.18936624274998012
20
1.3527567810847128
30
0
10
0.1845388884764306
20
1.3249440171720022
30
0
0
LINE
5
299
100
AcDbEntity
8
0
100
AcDbLine
10
-0.34356321197497131
20
1.6677505111786031
30
0
11
-0.71966467799448752
21
1.7273191313793417
31
0
0
ARC
5
300
100
AcDbEntity
8
0
100
AcDbCircle
10
-0.72357553962049348
20
1.7026269228644613
30
0
40
0.025000000000001986
210
0
220
-0
230
1
100
AcDbArc
50
81.000000000000298
51
113.02432615014621
0
ARC
5
301
100
AcDbEntity
8
0
100
AcDbCircle
10
-1.6224991603970791e-13
20
3.4722880738670246e-13
30
0
40
1.8749999999996168
210
0
220
0
230
1
100
AcDbArc
50
113.02432615014783
51
116.77539158674655
0
ARC
5
302
100
AcDbEntity
8
0
100
AcDbCircle
10
-0.83341415056093127
20
1.6516418660365813
30
0
40
0.025000000000000494
210
0
220
0
230
1
100
AcDbArc
50
116.77539158674135
51
269.9999999999992
0
LINE
5
303
100
AcDbEntity
8
0
100
AcDbLine
10
-0.8334141505609316
20
1.6266418660365807
30
0
11
-0.59919013227183504
21
1.6266418660365811
31
0
0
SPLINE
5
304
100
AcDbEntity
8
0
100
AcDbSpline
70
4
71
5
72
16
73
10
74
0
42
0.000000001
43
0.0000000001
44
0.0000000001
40
0
40
0
40
0
40
0
40
0
40
0
40
0.20000000000000001
40
0.40000000000000002
40
0.60000000000000009
40
0.80000000000000004
40
1
40
1
40
1
40
1
40
1
40
1
41
1
41
1
41
1
41
1
41
1
41
1
41
1
41
1
41
1
41
1
10
0.025000000000000293
20
1.3374999999999995
30
0
10
0.0250000000000003
20
1.3680159975609267
30
0
10
0.015706122529447045
20
1.4235132598521583
30
0
10
-0.026089334294720681
20
1.4901698954614582
30
0
10
-0.12818792330762294
20
1.5504470516754838
30
0
10
-0.29555845914183326
20
1.5940889738848436
30
0
10
-0.43175762024003511
20
1.6134768007125095
30
0
10
-0.52188576891151228
20
1.6221786503396072
30
0
10
-0.57464458798815021
20
1.6255579508076623
30
0
10
-0.59919013227183504
20
1.6266418660365811
30
0
0
LINE
5
305
100
AcDbEntity
8
0
100
AcDbLine
10
0.025000000000000293
20
1.3374999999999995
30
0
11
0.025000000000000265
21
0.93749999999999978
31
0
0
ARC
5
306
100
AcDbEntity
8
0
100
AcDbCircle
10
1.1481063742006435e-16
20
0.93749999999999978
30
0
40
0.024999999999999998
210
0
220
0
230
1
100
AcDbArc
50
-180
51
0
0
LINE
5
307
100
AcDbEntity
8
0
100
AcDbLine
10
-0.024999999999999883
20
0.93749999999999978
30
0
11
-0.024999999999999703
21
1.3374999999999995
31
0
0
SPLINE
5
308
100
AcDbEntity
8
0
100
AcDbSpline
70
4
71
5
72
16
73
10
74
0
42
0.000000001
43
0.0000000001
44
0.0000000001
40
-1
40
-1
40
-1
40
-1
40
-1
40
-1
40
-0.80000000000000004
40
-0.60000000000000009
40
-0.40000000000000002
40
-0.20000000000000001
40
0
40
0
40
0
40
0
40
0
40
0
41
1
41
1
41
1
41
1
41
1
41
1
41
1
41
1
41
1
41
1
10
-0.60022703776189124
20
1.5934726076398789
30
0
10
-0.57771695598246697
20
1.5930608559922541
30
0
10
-0.52921741000698697
20
1.5911324508206131
30
0
10
-0.44604250634932802
20
1.5849264413362094
30
0
10
-0.31991368331558756
20
1.5694868327160452
30
0
10
-0.16478914608392939
20
1.5319609388288302
30
0
10
-0.07051246647687405
20
1.4778803057569465
30
0
10
-0.032483428087028143
20
1.4169061615087652
30
0
10
-0.024582953312067848
20
1.3657255072196515
30
0
10
-0.024999999999999703
20
1.3374999999999995
30
0
0
LINE
5
309
100
AcDbEntity
8
0
100
AcDbLine
10
-0.60022703776189124
20
1.5934726076398789
30
0
11
-0.98101665586439302
21
1.5934726076398789
31
0
0
ARC
5
310
100
AcDbEntity
8
0
100
AcDbCircle
10
-0.98101665586439279
20
1.5684726076398783
30
0
40
0.025000000000000654
210
0
220
0
230
1
100
AcDbArc
50
90.000000000000512
51
122.02432615014698
0
ARC
5
311
100
AcDbEntity
8
0
100
AcDbCircle
10
-1.6224991603970791e-13
20
3.4722880738670246e-13
30
0
40
1.8749999999996192
210
0
220
0
230
1
100
AcDbArc
50
122.02432615014966
51
125.77539158674827
0
ARC
5
312
100
AcDbEntity
8
0
100
AcDbCircle
10
-1.0815271511475151
20
1.5009327171231688
30
0
40
0.025000000000000452
210
0
220
0
230
1
100
AcDbArc
50
125.77539158673014
51
278.99999999999994
0
LINE
5
313
100
AcDbEntity
8
0
100
AcDbLine
10
-1.0776162895215093
20
1.4762405086082904
30
0
11
-0.84627595757002527
21
1.5128812176089192
31
0
0
SPLINE
5
314
100
AcDbEntity
8
0
100
AcDbSpline
70
4
71
5
72
16
73
10
74
0
42
0.000000001
43
0.0000000001
44
0.0000000001
40
0
40
0
40
0
40
0
40
0
40
0
40
0.20000000000000001
40
0.40000000000000002
40
0.60000000000000009
40
0.80000000000000004
40
1
40
1
40
1
40
1
40
1
40
1
41
1
41
1
41
1
41
1
41
1
41
1
41
1
41
1
41
1
41
1
10
-0.18453888847642999
20
1.3249440171720022
30
0
10
-0.1893126422300426
20
1.3550843121645595
30
0
10
-0.20717378118435401
20
1.4084444283143036
30
0
10
-0.25888206171235439
20
1.4677421601995071
30
0
10
-0.36915307235810035
20
1.5113054664427363
30
0
10
-0.5412900999148591
20
1.5282275639333596
30
0
10
-0.6788453476484706
20
1.5260704515351973
30
0
10
-0.76922513844198914
20
1.520566018231005
30
0
10
-0.82186304796848331
20
1.5156504162642626
30
0
10
-0.84627595757002527
20
1.5128812176089192
30
0
0
LINE
5
315
100
AcDbEntity
8
0
100
AcDbLine
10
-0.18453888847642999
20
1.3249440171720022
30
0
11
-0.12196510246033768
21
0.92986868093394726
31
0
0
ARC
5
316
100
AcDbEntity
8
0
100
AcDbCircle
10
-0.14665731097521628
20
0.92595781930794141
30
0
40
0.024999999999999994
210
0
220
0
230
1
100
AcDbArc
50
-171.00000000000011
51
9.0000000000001066
0
LINE
5
317
100
AcDbEntity
8
0
100
AcDbLine
10
-0.17134951949009472
20
0.92204695768193567
30
0
11
-0.23392330550618687
21
1.3171222939199907
31
0
0
SPLINE
5
318
100
AcDbEntity
8
0
100
AcDbSpline
70
4
71
5
72
16
73
10
74
0
42
0.000000001
43
0.0000000001
44
0.0000000001
40
-1
40
-1
40
-1
40
-1
40
-1
40
-1
40
-0.80000000000000004
40
-0.60000000000000009
40
-0.40000000000000002
40
-0.20000000000000001
40
0
40
0
40
0
40
0
40
0
40
0
41
1
41
1
41
1
41
1
41
1
41
1
41
1
41
1
41
1
41
1
10
-0.84211128183978357
20
1.4799581200686751
30
0
10
-0.81981392437167755
20
1.4830727903682714
30
0
10
-0.7716098192561317
20
1.4887551275936663
30
0
10
-0.68848810290961071
20
1.495636945942757
30
0
10
-0.56149684807127187
20
1.5001183194827052
30
0
10
-0.40241180817194383
20
1.4873212556163407
30
0
10
-0.30083575603039475
20
1.4486545668193362
30
0
10
-0.25373646057194899
20
1.3943801677441514
30
0
10
-0.23792683547742816
20
1.345065538783748
30
0
10
-0.23392330550618687
20
1.3171222939199907
30
0
0
LINE
5
319
100
AcDbEntity
8
0
100
AcDbLine
10
-0.84211128183978357
20
1.4799581200686751
30
0
11
-1.2182127478592997
21
1.4203894998679365
31
0
0
ARC
5
320
100
AcDbEntity
8
0
100
AcDbCircle
10
-1.2143018862332937
20
1.3956972913530574
30
0
40
0.025000000000000775
210
0
220
0
230
1
100
AcDbArc
50
99.000000000000213
51
131.02432615014826
0
ARC
5
321
100
AcDbEntity
8
0
100
AcDbCircle
10
-1.6224991603970791e-13
20
3.4722880738670246e-13
30
0
40
1.8749999999996314
210
0
220
0
230
1
100
AcDbArc
50
131.02432615015147
51
134.77539158675026
0
ARC
5
322
100
AcDbEntity
8
0
100
AcDbCircle
10
-1.3030093638900184
20
1.3132656234040883
30
0
40
0.02500000000000055
210
0
220
0
230
1
100
AcDbArc
50
134.77539158674719
51
287.99999999999937
0
LINE
5
323
100
AcDbEntity
8
0
100
AcDbLine
10
-1.295283939030645
20
1.2894892104967093
30
0
11
-1.0725236601639636
21
1.3618684126388292
31
0
0
SPLINE
5
324
100
AcDbEntity
8
0
100
AcDbSpline
70
4
71
5
72
16
73
10
74
0
42
0.000000001
43
0.0000000001
44
0.0000000001
40
0
40
0
40
0
40
0
40
0
40
0
40
0.20000000000000001
40
0.40000000000000002
40
0.60000000000000009
40
0.80000000000000004
40
1
40
1
40
1
40
1
40
1
40
1
41
1
41
1
41
1
41
1
41
1
41
1
41
1
41
1
41
1
41
1
10
-0.38953381706911289
20
1.2797635154041413
30
0
10
-0.39896377891574381
20
1.3087859537357081
30
0
10
-0.42495237883503667
20
1.3586950205922856
30
0
10
-0.48530025359032608
20
1.4091737417964898
30
0
10
-0.60102844761831498
20
1.4349505248908898
30
0
10
-0.77369338198913384
20
1.4247361194613355
30
0
10
-0.90921764963925944
20
1.4010871831036336
30
0
10
-0.99762363215215444
20
1.3815120042842672
30
0
10
-1.0488445121007564
20
1.3684225383170958
30
0
10
-1.0725236601639636
20
1.3618684126388292
30
0
0
LINE
5
325
100
AcDbEntity
8
0
100
AcDbLine
10
-0.38953381706911289
20
1.2797635154041413
30
0
11
-0.26592701931913398
21
0.89934090888608009
31
0
0
ARC
5
326
100
AcDbEntity
8
0
100
AcDbCircle
10
-0.28970343222651301
20
0.89161548402670632
30
0
40
0.024999999999999994
210
0
220
0
230
1
100
AcDbArc
50
-162.00000000000031
51
18.000000000000053
0
LINE
5
327
100
AcDbEntity
8
0
100
AcDbLine
10
-0.31347984513389188
20
0.88389005916733276
30
0
11
-0.43708664288387061
21
1.264312665685394
31
0
0
SPLINE
5
328
100
AcDbEntity
8
0
100
AcDbSpline
70
4
71
5
72
16
73
10
74
0
42
0.000000001
43
0.0000000001
44
0.0000000001
40
-1
40
-1
40
-1
40
-1
40
-1
40
-1
40
-0.80000000000000004
40
-0.60000000000000009
40
-0.40000000000000002
40
-0.20000000000000001
40
0
40
0
40
0
40
0
40
0
40
0
41
1
41
1
41
1
41
1
41
1
41
1
41
1
41
1
41
1
41
1
10
-1.0632599513516692
20
1.3300021518819798
30
0
10
-1.0417243531364331
20
1.336566550609023
30
0
10
-0.99500263392901855
20
1.3497197122303688
30
0
10
-0.9139808374152476
20
1.369519905205753
30
0
10
-0.78925409692624171
20
1.3938119146164347
30
0
10
-0.63012575601454279
20
1.4060587869543302
30
0
10
-0.52375147085381446
20
1.3837581446377702
30
0
10
-0.46874165929455558
20
1.3375199065672163
30
0
10
-0.44541216931943889
20
1.2912855927663986
30
0
10
-0.43708664288387061
20
1.264312665685394
30
0
0
LINE
5
329
100
AcDbEntity
8
0
100
AcDbLine
10
-1.0632599513516692
20
1.3300021518819798
30
0
11
-1.4254123989855971
21
1.2123316886067605
31
0
0
ARC
5
330
100
AcDbEntity
8
0
100
AcDbCircle
10
-1.4176869741262255
20
1.1885552756993847
30
0
40
0.024999999999996445
210
0
220
0
230
1
100
AcDbArc
50
107.99999999999771
51
140.02432615015121
0
ARC
5
331
100
AcDbEntity
8
0
100
AcDbCircle
10
-1.6224991603970791e-13
20
3.4722880738670246e-13
30
0
40
1.8749999999996523
210
0
220
0
230
1
100
AcDbArc
50
140.02432615015323
51
143.77539158675194
0
ARC
5
332
100
AcDbEntity
8
0
100
AcDbCircle
10
-1.4924071616534018
20
1.0932615715580773
30
0
40
0.024999999999999797
210
0
220
0
230
1
100
AcDbArc
50
143.77539158675097
51
297
0
LINE
5
333
100
AcDbEntity
8
0
100
AcDbLine
10
-1.4810573991599132
20
1.0709864084533682
30
0
11
-1.2723622707427125
21
1.1773218875674394
31
0
0
SPLINE
5
334
100
AcDbEntity
8
0
100
AcDbSpline
70
4
71
5
72
16
73
10
74
0
42
0.000000001
43
0.0000000001
44
0.0000000001
40
0
40
0
40
0
40
0
40
0
40
0
40
0.20000000000000001
40
0.40000000000000002
40
0.60000000000000009
40
0.80000000000000004
40
1
40
1
40
1
40
1
40
1
40
1
41
1
41
1
41
1
41
1
41
1
41
1
41
1
41
1
41
1
41
1
10
-0.58493713029693417
20
1.2030709885954305
30
0
10
-0.59879110327967022
20
1.2302609415143331
30
0
10
-0.63226723858271339
20
1.2754900322130385
30
0
10
-0.69976874260570299
20
1.3159067890909251
30
0
10
-0.81810450779911004
20
1.3232623390884732
30
0
10
-0.98704576525771603
20
1.286162943300085
30
0
10
-1.1172019955755523
20
1.24160449828229
30
0
10
-1.2014573211157222
20
1.2084405798165763
30
0
10
-1.2499999434297426
20
1.1874995559425348
30
0
10
-1.2723622707427125
20
1.1773218875674394
30
0
0
LINE
5
335
100
AcDbEntity
8
0
100
AcDbLine
10
-0.58493713029693417
20
1.2030709885954305
30
0
11
-0.40334093040111557
21
0.84666837892008351
31
0
0
ARC
5
336
100
AcDbEntity
8
0
100
AcDbCircle
10
-0.42561609350582491
20
0.83531861642659466
30
0
40
0.024999999999999981
210
0
220
0
230
1
100
AcDbArc
50
-153.00000000000009
51
27.000000000000206
0
LINE
5
337
100
AcDbEntity
8
0
100
AcDbLine
10
-0.44789125661053408
20
0.82396885393310604
30
0
11
-0.62948745650635263
21
1.180371463608453
31
0
0
SPLINE
5
338
100
AcDbEntity
8
0
100
AcDbSpline
70
4
71
5
72
16
73
10
74
0
42
0.000000001
43
0.0000000001
44
0.0000000001
40
-1
40
-1
40
-1
40
-1
40
-1
40
-1
40
-0.80000000000000004
40
-0.60000000000000009
40
-0.40000000000000002
40
-0.20000000000000001
40
0
40
0
40
0
40
0
40
0
40
0
41
1
41
1
41
1
41
1
41
1
41
1
41
1
41
1
41
1
41
1
10
-1.2582276321038104
20
1.1472971166918746
30
0
10
-1.2379840710420558
20
1.1571496065637144
30
0
10
-1.1938951815301557
20
1.1774497180890531
30
0
10
-1.1169683303752298
20
1.2096807392266038
30
0
10
-0.99757729053071553
20
1.2531852346157708
30
0
10
-0.84232391647657701
20
1.2901744845159284
30
0
10
-0.73377068623333863
20
1.2847890045052353
30
0
10
-0.67220488270095302
20
1.2477254663165236
30
0
10
-0.64192997731456602
20
1.2057099099239579
30
0
10
-0.62948745650635263
20
1.180371463608453
30
0
0
LINE
5
339
100
AcDbEntity
8
0
100
AcDbLine
10
-1.2582276321038104
20
1.1472971166918746
30
0
11
-1.5975136661763363
21
0.97442224767388896
31
0
0
ARC
5
340
100
AcDbEntity
8
0
100
AcDbCircle
10
-1.5861639036828465
20
0.95214708456917851
30
0
40
0.025000000000001625
210
0
220
0
230
1
100
AcDbArc
50
117.00000000000087
51
149.02432615014828
0
ARC
5
341
100
AcDbEntity
8
0
100
AcDbCircle
10
-1.6224991603970791e-13
20
3.4722880738670246e-13
30
0
40
1.8749999999996818
210
0
220
0
230
1
100
AcDbArc
50
149.02432615015479
51
152.77539158675333
0
ARC
5
342
100
AcDbEntity
8
0
100
AcDbCircle
10
-1.6450569420814776
20
0.84633779149317123
30
0
40
0.024999999999999932
210
0
220
0
230
1
100
AcDbArc
50
152.7753915867394
51
305.99999999999994
0
LINE
5
343
100
AcDbEntity
8
0
100
AcDbLine
10
-1.6303623107741658
20
0.82611236663379761
30
0
11
-1.4408710994874985
21
0.96378579031680989
31
0
0
SPLINE
5
344
100
AcDbEntity
8
0
100
AcDbSpline
70
4
71
5
72
16
73
10
74
0
42
0.000000001
43
0.0000000001
44
0.0000000001
40
0
40
0
40
0
40
0
40
0
40
0
40
0.20000000000000001
40
0.40000000000000002
40
0.60000000000000009
40
0.80000000000000004
40
1
40
1
40
1
40
1
40
1
40
1
41
1
41
1
41
1
41
1
41
1
41
1
41
1
41
1
41
1
41
1
10
-0.76593735008180874
20
1.0967548612838038
30
0
10
-0.783874203407115
20
1.1214428219108985
30
0
10
-0.82401358054182394
20
1.1608782461319842
30
0
10
-0.89700660277881983
20
1.1902378439936934
30
0
10
-1.0150361198646949
20
1.1789910428417796
30
0
10
-1.1760938059685693
20
1.1159201669447032
30
0
10
-1.2976771205999282
20
1.0515493900641537
30
0
10
-1.37570714342518
20
1.0056133376894534
30
0
10
-1.4203762276395211
20
0.97733639341559442
30
0
10
-1.4408710994874985
20
0.96378579031680989
30
0
0
LINE
5
345
100
AcDbEntity
8
0
100
AcDbLine
10
-0.76593735008180874
20
1.0967548612838038
30
0
11
-0.53082324916481971
21
0.77314806353382504
31
0
0
ARC
5
346
100
AcDbEntity
8
0
100
AcDbCircle
10
-0.55104867402419344
20
0.75845343222651318
30
0
40
0.025000000000000015
210
0
220
0
230
1
100
AcDbArc
50
-144.00000000000003
51
35.999999999999986
0
LINE
5
347
100
AcDbEntity
8
0
100
AcDbLine
10
-0.57127409888356717
20
0.74375880091920132
30
0
11
-0.8063881998005562
21
1.0673655986691803
31
0
0
SPLINE
5
348
100
AcDbEntity
8
0
100
AcDbSpline
70
4
71
5
72
16
73
10
74
0
42
0.000000001
43
0.0000000001
44
0.0000000001
40
-1
40
-1
40
-1
40
-1
40
-1
40
-1
40
-0.80000000000000004
40
-0.60000000000000009
40
-0.40000000000000002
40
-0.20000000000000001
40
0
40
0
40
0
40
0
40
0
40
0
41
1
41
1
41
1
41
1
41
1
41
1
41
1
41
1
41
1
41
1
10
-1.4222135727354548
20
0.93634181882798773
30
0
10
-1.4037605124850498
20
0.94923979884544052
30
0
10
-1.3633900674510822
20
0.97618700415681015
30
0
10
-1.2924523560360177
20
1.0200552187474949
30
0
10
-1.1813368204731107
20
1.0817009750555238
30
0
10
-1.0337812666021529
20
1.1425218044251193
30
0
10
-0.92572203207250936
20
1.1541840951115392
30
0
10
-0.85911619097515157
20
1.127207884121707
30
0
10
-0.82264133882475765
20
1.0904456475774151
30
0
10
-0.8063881998005562
20
1.0673655986691803
30
0
0
LINE
5
349
100
AcDbEntity
8
0
100
AcDbLine
10
-1.4222135727354548
20
0.93634181882798773
30
0
11
-1.7302788450619244
21
0.71251929708125494
31
0
0
ARC
5
350
100
AcDbEntity
8
0
100
AcDbCircle
10
-1.7155842137546127
20
0.69229387222188155
30
0
40
0.024999999999999682
210
0
220
0
230
1
100
AcDbArc
50
126.00000000000026
51
158.02432615014868
0
ARC
5
351
100
AcDbEntity
8
0
100
AcDbCircle
10
-1.6224991603970791e-13
20
3.4722880738670246e-13
30
0
40
1.8749999999997196
210
0
220
0
230
1
100
AcDbArc
50
158.02432615015616
51
161.77539158675486
0
ARC
5
352
100
AcDbEntity
8
0
100
AcDbCircle
10
-1.7571999609645308
20
0.57857436616761004
30
0
40
0.025000000000000053
210
0
220
0
230
1
100
AcDbArc
50
161.77539158675265
51
314.99999999999943
0
LINE
5
353
100
AcDbEntity
8
0
100
AcDbLine
10
-1.7395222914348671
20
0.56089669663794606
30
0
11
-1.5739008997858852
21
0.72651808828692732
31
0
0
SPLINE
5
354
100
AcDbEntity
8
0
100
AcDbSpline
70
4
71
5
72
16
73
10
74
0
42
0.000000001
43
0.0000000001
44
0.0000000001
40
0
40
0
40
0
40
0
40
0
40
0
40
0.20000000000000001
40
0.40000000000000002
40
0.60000000000000009
40
0.80000000000000004
40
1
40
1
40
1
40
1
40
1
40
1
41
1
41
1
41
1
41
1
41
1
41
1
41
1
41
1
41
1
41
1
10
-0.92807765030734313
20
0.96343298936667099
30
0
10
-0.94965571911734681
20
0.98501105817667467
30
0
10
-0.99546997340371035
20
1.017681784897148
30
0
10
-1.0721571833972854
20
1.0352612930044061
30
0
10
-1.1869741739474653
20
1.0056890742733831
30
0
10
-1.3361825139449157
20
0.91819973255244092
30
0
10
-1.4461991281716864
20
0.83560164597029629
30
0
10
-1.5160824901532635
20
0.77802455774909196
30
0
10
-1.5557781351663771
20
0.74310796528923573
30
0
10
-1.5739008997858852
20
0.72651808828692732
30
0
0
LINE
5
355
100
AcDbEntity
8
0
100
AcDbLine
10
-0.92807765030734313
20
0.96343298936667099
30
0
11
-0.64523493783272423
21
0.6805902768920522
31
0
0
ARC
5
356
100
AcDbEntity
8
0
100
AcDbCircle
10
-0.66291260736238811
20
0.66291260736238833
30
0
40
0.024999999999999967
210
0
220
0
230
1
100
AcDbArc
50
-135
51
45
0
LINE
5
357
100
AcDbEntity
8
0
100
AcDbLine
10
-0.68059027689205176
20
0.64523493783272468
30
0
11
-0.96343298936667043
21
0.92807765030734357
31
0
0
SPLINE
5
358
100
AcDbEntity
8
0
100
AcDbSpline
70
4
71
5
72
16
73
10
74
0
42
0.000000001
43
0.0000000001
44
0.0000000001
40
-1
40
-1
40
-1
40
-1
40
-1
40
-1
40
-0.80000000000000004
40
-0.60000000000000009
40
-0.40000000000000002
40
-0.20000000000000001
40
0
40
0
40
0
40
0
40
0
40
0
41
1
41
1
41
1
41
1
41
1
41
1
41
1
41
1
41
1
41
1
10
-1.5511798951501166
20
0.7023306778442221
30
0
10
-1.5349717112966217
20
0.7179565569333165
30
0
10
-1.4993137650791484
20
0.75088732640330447
30
0
10
-1.43611191528775
20
0.80531255341364316
30
0
10
-1.3360079172633297
20
0.88358164752969459
30
0
10
-1.1997834910206626
20
0.96673644569688866
30
0
10
-1.0948790291867718
20
0.99515934277879836
30
0
10
-1.0248732073843727
20
0.97893470283132644
30
0
10
-0.98309654038300831
20
0.9483309944058973
30
0
10
-0.96343298936667043
20
0.92807765030734357
30
0
0
LINE
5
359
100
AcDbEntity
8
0
100
AcDbLine
10
-1.5511798951501166
20
0.7023306778442221
30
0
11
-1.8204388163158314
21
0.43307175667850795
31
0
0
ARC
5
360
100
AcDbEntity
8
0
100
AcDbCircle
10
-1.8027611467861695
20
0.41539408714884574
30
0
40
0.024999999999997614
210
0
220
0
230
1
100
AcDbArc
50
134.99999999999946
51
167.02432615014976
0
ARC
5
361
100
AcDbEntity
8
0
100
AcDbCircle
10
-1.6224991603970791e-13
20
3.4722880738670246e-13
30
0
40
1.874999999999764
210
0
220
0
230
1
100
AcDbArc
50
167.02432615015746
51
170.77539158675603
0
ARC
5
362
100
AcDbEntity
8
0
100
AcDbCircle
10
-1.8260748849963189
20
0.29656451976876841
30
0
40
0.024999999999999929
210
0
220
0
230
1
100
AcDbArc
50
170.77539158675225
51
323.99999999999983
0
LINE
5
363
100
AcDbEntity
8
0
100
AcDbLine
10
-1.8058494601369453
20
0.28186988846145655
30
0
11
-1.6681760364539315
21
0.47136109974812407
31
0
0
SPLINE
5
364
100
AcDbEntity
8
0
100
AcDbSpline
70
4
71
5
72
16
73
10
74
0
42
0.000000001
43
0.0000000001
44
0.0000000001
40
0
40
0
40
0
40
0
40
0
40
0
40
0.20000000000000001
40
0.40000000000000002
40
0.60000000000000009
40
0.80000000000000004
40
1
40
1
40
1
40
1
40
1
40
1
41
1
41
1
41
1
41
1
41
1
41
1
41
1
41
1
41
1
41
1
10
-1.0673655986691797
20
0.80638819980055643
30
0
10
-1.0920535592962743
20
0.82432505312586257
30
0
10
-1.1424145917449688
20
0.84942662062593977
30
0
10
-1.2209076958748235
20
0.85479317314610326
30
0
10
-1.329684984526218
20
0.80762370300569608
30
0
10
-1.4633699738924171
20
0.69787017341453583
30
0
10
-1.5591109135481274
20
0.59907861614978175
30
0
10
-1.6191268543844624
20
0.53127823108147954
30
0
10
-1.6528716216738328
20
0.49058175282351413
30
0
10
-1.6681760364539315
20
0.47136109974812407
30
0
0
LINE
5
365
100
AcDbEntity
8
0
100
AcDbLine
10
-1.0673655986691797
20
0.80638819980055643
30
0
11
-0.74375880091920099
21
0.57127409888356739
31
0
0
ARC
5
366
100
AcDbEntity
8
0
100
AcDbCircle
10
-0.75845343222651296
20
0.55104867402419355
30
0
40
0.025000000000000015
210
0
220
0
230
1
100
AcDbArc
50
-125.99999999999979
51
53.99999999999995
0
LINE
5
367
100
AcDbEntity
8
0
100
AcDbLine
10
-0.7731480635338247
20
0.53082324916481982
30
0
11
-1.0967548612838034
21
0.76593735008180919
31
0
0
SPLINE
5
368
100
AcDbEntity
8
0
100
AcDbSpline
70
4
71
5
72
16
73
10
74
0
42
0.000000001
43
0.0000000001
44
0.0000000001
40
-1
40
-1
40
-1
40
-1
40
-1
40
-1
40
-0.80000000000000004
40
-0.60000000000000009
40
-0.40000000000000002
40
-0.20000000000000001
40
0
40
0
40
0
40
0
40
0
40
0
41
1
41
1
41
1
41
1
41
1
41
1
41
1
41
1
41
1
41
1
10
-1.6419510204752619
20
0.45102582467004798
30
0
10
-1.6283868122970284
20
0.4689948418282911
30
0
10
-1.5983193818738624
20
0.50709831062158828
30
0
10
-1.5444096330029085
20
0.5707404203356139
30
0
10
-1.4577820651744577
20
0.66370560740231976
30
0
10
-1.3362430640371268
20
0.76714682726128325
30
0
10
-1.2370764709072872
20
0.81163046468233924
30
0
10
-1.1653944440686232
20
0.80655690025922699
30
0
10
-1.1193446424066709
20
0.78286528482197992
30
0
10
-1.0967548612838034
20
0.76593735008180919
30
0
0
LINE
5
369
100
AcDbEntity
8
0
100
AcDbLine
10
-1.6419510204752619
20
0.45102582467004798
30
0
11
-1.8657735422219952
21
0.14296055234357807
31
0
0
ARC
5
370
100
AcDbEntity
8
0
100
AcDbCircle
10
-1.8455481173626258
20
0.12826592103626769
30
0
40
0.024999999999995699
210
0
220
0
230
1
100
AcDbArc
50
143.99999999999693
51
176.02432615015115
0
ARC
5
371
100
AcDbEntity
8
0
100
AcDbCircle
10
-1.6224991603970791e-13
20
3.4722880738670246e-13
30
0
40
1.8749999999998135
210
0
220
0
230
1
100
AcDbArc
50
176.02432615015849
51
179.77539158675816
0
ARC
5
372
100
AcDbEntity
8
0
100
AcDbCircle
10
-1.8499857849644112
20
0.0072522706520086588
30
0
40
0.025000000000000199
210
0
220
0
230
1
100
AcDbArc
50
179.7753915867419
51
332.99999999999983
0
LINE
5
373
100
AcDbEntity
8
0
100
AcDbLine
10
-1.8277106218597019
20
-0.0040974918414801685
30
0
11
-1.7213751427456305
21
0.20459763657572036
31
0
0
SPLINE
5
374
100
AcDbEntity
8
0
100
AcDbSpline
70
4
71
5
72
16
73
10
74
0
42
0.000000001
43
0.0000000001
44
0.0000000001
40
0
40
0
40
0
40
0
40
0
40
0
40
0.20000000000000001
40
0.40000000000000002
40
0.60000000000000009
40
0.80000000000000004
40
1
40
1
40
1
40
1
40
1
40
1
41
1
41
1
41
1
41
1
41
1
41
1
41
1
41
1
41
1
41
1
10
-1.1803714636084528
20
0.62948745650635307
30
0
10
-1.2075614165273552
20
0.64334142948908923
30
0
10
-1.2612291713808099
20
0.6602557538695919
30
0
10
-1.3395954089195896
20
0.65327720846904813
30
0
10
-1.4396545378144781
20
0.58967195582060972
30
0
10
-1.5545244084361876
20
0.46035673450884695
30
0
10
-1.6336322138405521
20
0.34780428257172236
30
0
10
-1.6823029418867663
20
0.27145007115328162
30
0
10
-1.7092659232892673
20
0.22597578945578581
30
0
10
-1.7213751427456305
20
0.20459763657572036
30
0
0
LINE
5
375
100
AcDbEntity
8
0
100
AcDbLine
10
-1.1803714636084528
20
0.62948745650635307
30
0
11
-0.82396885393310593
21
0.44789125661053447
31
0
0
ARC
5
376
100
AcDbEntity
8
0
100
AcDbCircle
10
-0.83531861642659466
20
0.42561609350582513
30
0
40
0.024999999999999981
210
0
220
0
230
1
100
AcDbArc
50
-116.99999999999994
51
63.000000000000014
0
LINE
5
377
100
AcDbEntity
8
0
100
AcDbLine
10
-0.84666837892008329
20
0.40334093040111596
30
0
11
-1.20307098859543
21
0.58493713029693473
31
0
0
SPLINE
5
378
100
AcDbEntity
8
0
100
AcDbSpline
70
4
71
5
72
16
73
10
74
0
42
0.000000001
43
0.0000000001
44
0.0000000001
40
-1
40
-1
40
-1
40
-1
40
-1
40
-1
40
-0.80000000000000004
40
-0.60000000000000009
40
-0.40000000000000002
40
-0.20000000000000001
40
0
40
0
40
0
40
0
40
0
40
0
41
1
41
1
41
1
41
1
41
1
41
1
41
1
41
1
41
1
41
1
10
-1.6922918623532923
20
0.18861521882360457
30
0
10
-1.6817056256726941
20
0.20848491721281148
30
0
10
-1.6579690709689343
20
0.25082285146956429
30
0
10
-1.6146788599518263
20
0.32211476393006461
30
0
10
-1.5436607805396962
20
0.4274869325080759
30
0
10
-1.4397998980805211
20
0.54866750792415486
30
0
10
-1.3488129842926433
20
0.60811655089832206
30
0
10
-1.2772198018174907
20
0.61431898999386159
30
0
10
-1.2280307644423971
20
0.59812283374482511
30
0
10
-1.20307098859543
20
0.58493713029693473
30
0
0
LINE
5
379
100
AcDbEntity
8
0
100
AcDbLine
10
-1.6922918623532923
20
0.18861521882360457
30
0
11
-1.8651667313712785
21
-0.1506708152489219
31
0
0
ARC
5
380
100
AcDbEntity
8
0
100
AcDbCircle
10
-1.8428915682665648
20
-0.16202057774241135
30
0
40
0.025000000000004494
210
0
220
0
230
1
100
AcDbArc
50
153.00000000000315
51
185.02432615014592
0
ARC
5
381
100
AcDbEntity
8
0
100
AcDbCircle
10
-1.6224991603970791e-13
20
3.4722880738670246e-13
30
0
40
1.8749999999998683
210
0
220
0
230
1
100
AcDbArc
50
185.02432615015925
51
188.77539158675759
0
ARC
5
382
100
AcDbEntity
8
0
100
AcDbCircle
10
-1.8283438951558668
20
-0.28223855343711068
30
0
40
0.024999999999999967
210
0
220
0
230
1
100
AcDbArc
50
188.77539158675216
51
342.00000000000028
0
LINE
5
383
100
AcDbEntity
8
0
100
AcDbLine
10
-1.8045674822484878
20
-0.28996397829648429
30
0
11
-1.7321882801063682
21
-0.067203699429803504
31
0
0
SPLINE
5
384
100
AcDbEntity
8
0
100
AcDbSpline
70
4
71
5
72
16
73
10
74
0
42
0.000000001
43
0.0000000001
44
0.0000000001
40
0
40
0
40
0
40
0
40
0
40
0
40
0.20000000000000001
40
0.40000000000000002
40
0.60000000000000009
40
0.80000000000000004
40
1
40
1
40
1
40
1
40
1
40
1
41
1
41
1
41
1
41
1
41
1
41
1
41
1
41
1
41
1
41
1
10
-1.2643126656853936
20
0.43708664288387122
30
0
10
-1.2933351040169605
20
0.44651660473050214
30
0
10
-1.348988103037617
20
0.45482719918975817
30
0
10
-1.4252978371344853
20
0.43567539081673268
30
0
10
-1.5141750184422655
20
0.35720052807419866
30
0
10
-1.6074012928735355
20
0.21150778496314304
30
0
10
-1.6679280673137449
20
0.087965853260512109
30
0
10
-1.7040551477164552
20
0.0049379095821538242
30
0
10
-1.7235724251449522
20
-0.044194447818991532
30
0
10
-1.7321882801063682
20
-0.067203699429803504
30
0
0
LINE
5
385
100
AcDbEntity
8
0
100
AcDbLine
10
-1.2643126656853936
20
0.43708664288387122
30
0
11
-0.88389005916733243
21
0.31347984513389227
31
0
0
ARC
5
386
100
AcDbEntity
8
0
100
AcDbCircle
10
-0.8916154840267061
20
0.28970343222651324
30
0
40
0.024999999999999994
210
0
220
0
230
1
100
AcDbArc
50
-107.99999999999994
51
72.000000000000185
0
LINE
5
387
100
AcDbEntity
8
0
100
AcDbLine
10
-0.89934090888607976
20
0.26592701931913437
30
0
11
-1.2797635154041409
21
0.3895338170691135
31
0
0
SPLINE
5
388
100
AcDbEntity
8
0
100
AcDbSpline
70
4
71
5
72
16
73
10
74
0
42
0.000000001
43
0.0000000001
44
0.0000000001
40
-1
40
-1
40
-1
40
-1
40
-1
40
-1
40
-0.80000000000000004
40
-0.60000000000000009
40
-0.40000000000000002
40
-0.20000000000000001
40
0
40
0
40
0
40
0
40
0
40
0
41
1
41
1
41
1
41
1
41
1
41
1
41
1
41
1
41
1
41
1
10
-1.7009628621854951
20
-0.07843971968829859
30
0
10
-1.6936152652833145
20
-0.0571585979862183
30
0
10
-1.6767940590528754
20
-0.011628698718959166
30
0
10
-1.6451893345568285
20
0.06555757299894617
30
0
10
-1.5915294443716379
20
0.18074211058769446
30
0
10
-1.5079040802112702
20
0.31667817361887279
30
0
10
-1.4273372455510658
20
0.38962878940806528
30
0
10
-1.3575957691961127
20
0.40695450738700933
30
0
10
-1.3064786934571082
20
0.39865261344499558
30
0
10
-1.2797635154041409
20
0.3895338170691135
30
0
0
LINE
5
389
100
AcDbEntity
8
0
100
AcDbLine
10
-1.7009628621854951
20
-0.07843971968829859
30
0
11
-1.8186333254607143
21
-0.44059216732222561
31
0
0
ARC
5
390
100
AcDbEntity
8
0
100
AcDbCircle
10
-1.7948569125533349
20
-0.44831759218159978
30
0
40
0.025000000000000556
210
0
220
0
230
1
100
AcDbArc
50
161.9999999999994
51
194.02432615014638
0
ARC
5
391
100
AcDbEntity
8
0
100
AcDbCircle
10
-1.6224991603970791e-13
20
3.4722880738670246e-13
30
0
40
1.8749999999999265
210
0
220
0
230
1
100
AcDbArc
50
194.02432615015971
51
197.77539158675796
0
ARC
5
392
100
AcDbEntity
8
0
100
AcDbCircle
10
-1.7616821107230851
20
-0.56477972764455275
30
0
40
0.025000000000000081
210
0
220
0
230
1
100
AcDbArc
50
197.77539158674921
51
351.00000000000023
0
LINE
5
393
100
AcDbEntity
8
0
100
AcDbLine
10
-1.7369899022082069
20
-0.56869058927055838
30
0
11
-1.7003491932075789
21
-0.3373502573190742
31
0
0
SPLINE
5
394
100
AcDbEntity
8
0
100
AcDbSpline
70
4
71
5
72
16
73
10
74
0
42
0.000000001
43
0.0000000001
44
0.0000000001
40
0
40
0
40
0
40
0
40
0
40
0
40
0.20000000000000001
40
0.40000000000000002
40
0.60000000000000009
40
0.80000000000000004
40
1
40
1
40
1
40
1
40
1
40
1
41
1
41
1
41
1
41
1
41
1
41
1
41
1
41
1
41
1
41
1
10
-1.3171222939199907
20
0.23392330550618756
30
0
10
-1.347262588912548
20
0.2386970592598002
30
0
10
-1.4035304705628029
20
0.23819928938094106
30
0
10
-1.4759047023068079
20
0.20734579911878559
30
0
10
-1.5514114848572287
20
0.11593363784601475
30
0
10
-1.6206986228212947
20
-0.042549188202446922
30
0
10
-1.6611539962337833
20
-0.17403858729990124
30
0
10
-1.683847860374569
20
-0.26169583971086874
30
0
10
-1.6954388536846428
20
-0.313276471115502
30
0
10
-1.7003491932075789
20
-0.3373502573190742
30
0
0
LINE
5
395
100
AcDbEntity
8
0
100
AcDbLine
10
-1.3171222939199907
20
0.23392330550618756
30
0
11
-0.92204695768193567
21
0.17134951949009516
31
0
0
ARC
5
396
100
AcDbEntity
8
0
100
AcDbCircle
10
-0.92595781930794141
20
0.14665731097521659
30
0
40
0.024999999999999994
210
0
220
0
230
1
100
AcDbArc
50
-99.000000000000156
51
81.000000000000128
0
LINE
5
397
100
AcDbEntity
8
0
100
AcDbLine
10
-0.92986868093394726
20
0.12196510246033815
30
0
11
-1.3249440171720022
21
0.18453888847643068
31
0
0
SPLINE
5
398
100
AcDbEntity
8
0
100
AcDbSpline
70
4
71
5
72
16
73
10
74
0
42
0.000000001
43
0.0000000001
44
0.0000000001
40
-1
40
-1
40
-1
40
-1
40
-1
40
-1
40
-0.80000000000000004
40
-0.60000000000000009
40
-0.40000000000000002
40
-0.20000000000000001
40
0
40
0
40
0
40
0
40
0
40
0
41
1
41
1
41
1
41
1
41
1
41
1
41
1
41
1
41
1
41
1
10
-1.6677505111786031
20
-0.34356321197497119
30
0
10
-1.6638224762758473
20
-0.32139467880431638
30
0
10
-1.6543308124425056
20
-0.27379391175158346
30
0
10
-1.6351897876746788
20
-0.19261386295251706
30
0
10
-1.6002093712997529
20
-0.070453181944030163
30
0
10
-1.5388786594404926
20
0.076891171684492027
30
0
10
-1.4707157267632904
20
0.16154707401876686
30
0
10
-1.4045432231350858
20
0.18956945420371246
30
0
10
-1.3527567810847128
20
0.18936624274998021
30
0
10
-1.3249440171720022
20
0.18453888847643068
30
0
0
LINE
5
399
100
AcDbEntity
8
0
100
AcDbLine
10
-1.6677505111786031
20
-0.34356321197497119
30
0
11
-1.7273191313793417
21
-0.7196646779944873
31
0
0
ARC
5
400
100
AcDbEntity
8
0
100
AcDbCircle
10
-1.7026269228644615
20
-0.72357553962049315
30
0
40
0.025000000000001625
210
0
220
0
230
1
100
AcDbArc
50
171.00000000000048
51
203.02432615014618
0
ARC
5
401
100
AcDbEntity
8
0
100
AcDbCircle
10
-1.6224991603970791e-13
20
3.4722880738670246e-13
30
0
40
1.8749999999999867
210
0
220
0
230
1
100
AcDbArc
50
203.02432615015991
51
206.77539158675779
0
ARC
5
402
100
AcDbEntity
8
0
100
AcDbCircle
10
-1.6516418660365813
20
-0.8334141505609316
30
0
40
0.025000000000000331
210
0
220
0
230
1
100
AcDbArc
50
206.7753915867336
51
360
0
LINE
5
403
100
AcDbEntity
8
0
100
AcDbLine
10
-1.6266418660365811
20
-0.83341415056093193
30
0
11
-1.6266418660365811
21
-0.59919013227183493
31
0
0
SPLINE
5
404
100
AcDbEntity
8
0
100
AcDbSpline
70
4
71
5
72
16
73
10
74
0
42
0.000000001
43
0.0000000001
44
0.0000000001
40
0
40
0
40
0
40
0
40
0
40
0
40
0.20000000000000001
40
0.40000000000000002
40
0.60000000000000009
40
0.80000000000000004
40
1
40
1
40
1
40
1
40
1
40
1
41
1
41
1
41
1
41
1
41
1
41
1
41
1
41
1
41
1
41
1
10
-1.3374999999999995
20
0.025000000000000376
30
0
10
-1.3680159975609267
20
0.02500000000000038
30
0
10
-1.4235132598521583
20
0.015706122529447131
30
0
10
-1.4901698954614582
20
-0.02608933429472059
30
0
10
-1.5504470516754838
20
-0.12818792330762283
30
0
10
-1.5940889738848436
20
-0.29555845914183315
30
0
10
-1.6134768007125095
20
-0.43175762024003506
30
0
10
-1.6221786503396072
20
-0.52188576891151217
30
0
10
-1.6255579508076623
20
-0.57464458798815021
30
0
10
-1.6266418660365811
20
-0.59919013227183493
30
0
0
LINE
5
405
100
AcDbEntity
8
0
100
AcDbLine
10
-1.3374999999999995
20
0.025000000000000376
30
0
11
-0.93749999999999978
21
0.025000000000000328
31
0
0
ARC
5
406
100
AcDbEntity
8
0
100
AcDbCircle
10
-0.93749999999999978
20
1.7221595613009647e-16
30
0
40
0.024999999999999998
210
-0
220
0
230
1
100
AcDbArc
50
-90
51
90
0
LINE
5
407
100
AcDbEntity
8
0
100
AcDbLine
10
-0.93749999999999978
20
-0.024999999999999824
30
0
11
-1.3374999999999995
21
-0.02499999999999962
31
0
0
SPLINE
5
408
100
AcDbEntity
8
0
100
AcDbSpline
70
4
71
5
72
16
73
10
74
0
42
0.000000001
43
0.0000000001
44
0.0000000001
40
-1
40
-1
40
-1
40
-1
40
-1
40
-1
40
-0.80000000000000004
40
-0.60000000000000009
40
-0.40000000000000002
40
-0.20000000000000001
40
0
40
0
40
0
40
0
40
0
40
0
41
1
41
1
41
1
41
1
41
1
41
1
41
1
41
1
41
1
41
1
10
-1.5934726076398789
20
-0.60022703776189124
30
0
10
-1.5930608559922541
20
-0.57771695598246697
30
0
10
-1.5911324508206131
20
-0.52921741000698685
30
0
10
-1.5849264413362094
20
-0.44604250634932791
30
0
10
-1.5694868327160452
20
-0.31991368331558745
30
0
10
-1.5319609388288302
20
-0.16478914608392931
30
0
10
-1.4778803057569465
20
-0.070512466476873967
30
0
10
-1.4169061615087652
20
-0.032483428087028053
30
0
10
-1.3657255072196515
20
-0.024582953312067765
30
0
10
-1.3374999999999995
20
-0.02499999999999962
30
0
0
LINE
5
409
100
AcDbEntity
8
0
100
AcDbLine
10
-1.5934726076398789
20
-0.60022703776189124
30
0
11
-1.5934726076398793
21
-0.98101665586439268
31
0
0
ARC
5
410
100
AcDbEntity
8
0
100
AcDbCircle
10
-1.5684726076398756
20
-0.98101665586439191
30
0
40
0.025000000000003627
210
0
220
0
230
1
100
AcDbArc
50
180
51
212.02432615014516
0
ARC
5
411
100
AcDbEntity
8
0
100
AcDbCircle
10
-1.6224991603970791e-13
20
3.4722880738670246e-13
30
0
40
1.8750000000000464
210
0
220
0
230
1
100
AcDbArc
50
212.02432615015985
51
215.77539158675782
0
ARC
5
412
100
AcDbEntity
8
0
100
AcDbCircle
10
-1.5009327171231692
20
-1.0815271511475149
30
0
40
0.025000000000000338
210
0
220
0
230
1
100
AcDbArc
50
-144.22460841325207
51
8.9999999999993339
0
LINE
5
413
100
AcDbEntity
8
0
100
AcDbLine
10
-1.4762405086082906
20
-1.0776162895215093
30
0
11
-1.5128812176089195
21
-0.84627595757002505
31
0
0
SPLINE
5
414
100
AcDbEntity
8
0
100
AcDbSpline
70
4
71
5
72
16
73
10
74
0
42
0.000000001
43
0.0000000001
44
0.0000000001
40
0
40
0
40
0
40
0
40
0
40
0
40
0.20000000000000001
40
0.40000000000000002
40
0.60000000000000009
40
0.80000000000000004
40
1
40
1
40
1
40
1
40
1
40
1
41
1
41
1
41
1
41
1
41
1
41
1
41
1
41
1
41
1
41
1
10
-1.3249440171720022
20
-0.18453888847642988
30
0
10
-1.3550843121645595
20
-0.18931264223004252
30
0
10
-1.4084444283143036
20
-0.20717378118435398
30
0
10
-1.4677421601995071
20
-0.25888206171235434
30
0
10
-1.5113054664427363
20
-0.36915307235810024
30
0
10
-1.5282275639333596
20
-0.5412900999148591
30
0
10
-1.5260704515351973
20
-0.67884534764847038
30
0
10
-1.520566018231005
20
-0.76922513844198914
30
0
10
-1.5156504162642626
20
-0.82186304796848308
30
0
10
-1.5128812176089195
20
-0.84627595757002505
30
0
0
LINE
5
415
100
AcDbEntity
8
0
100
AcDbLine
10
-1.3249440171720022
20
-0.18453888847642988
30
0
11
-0.92986868093394726
21
-0.12196510246033763
31
0
0
ARC
5
416
100
AcDbEntity
8
0
100
AcDbCircle
10
-0.92595781930794141
20
-0.14665731097521623
30
0
40
0.024999999999999994
210
-0
220
0
230
1
100
AcDbArc
50
-81.000000000000099
51
99.000000000000114
0
LINE
5
417
100
AcDbEntity
8
0
100
AcDbLine
10
-0.92204695768193567
20
-0.17134951949009466
30
0
11
-1.3171222939199907
21
-0.23392330550618678
31
0
0
SPLINE
5
418
100
AcDbEntity
8
0
100
AcDbSpline
70
4
71
5
72
16
73
10
74
0
42
0.000000001
43
0.0000000001
44
0.0000000001
40
-1
40
-1
40
-1
40
-1
40
-1
40
-1
40
-0.80000000000000004
40
-0.60000000000000009
40
-0.40000000000000002
40
-0.20000000000000001
40
0
40
0
40
0
40
0
40
0
40
0
41
1
41
1
41
1
41
1
41
1
41
1
41
1
41
1
41
1
41
1
10
-1.4799581200686751
20
-0.84211128183978357
30
0
10
-1.4830727903682714
20
-0.81981392437167744
30
0
10
-1.4887551275936663
20
-0.77160981925613148
30
0
10
-1.495636945942757
20
-0.68848810290961071
30
0
10
-1.5001183194827052
20
-0.56149684807127176
30
0
10
-1.4873212556163407
20
-0.40241180817194377
30
0
10
-1.4486545668193362
20
-0.3008357560303947
30
0
10
-1.3943801677441514
20
-0.25373646057194887
30
0
10
-1.345065538783748
20
-0.2379268354774281
30
0
10
-1.3171222939199907
20
-0.23392330550618678
30
0
0
LINE
5
419
100
AcDbEntity
8
0
100
AcDbLine
10
-1.4799581200686751
20
-0.84211128183978357
30
0
11
-1.4203894998679365
21
-1.2182127478592994
31
0
0
ARC
5
420
100
AcDbEntity
8
0
100
AcDbCircle
10
-1.3956972913530614
20
-1.2143018862332953
30
0
40
0.024999999999996501
210
0
220
0
230
1
100
AcDbArc
50
188.99999999999758
51
221.02432615015019
0
ARC
5
421
100
AcDbEntity
8
0
100
AcDbCircle
10
-1.6224991603970791e-13
20
3.4722880738670246e-13
30
0
40
1.8750000000001055
210
0
220
0
230
1
100
AcDbArc
50
221.02432615015948
51
224.77539158675708
0
ARC
5
422
100
AcDbEntity
8
0
100
AcDbCircle
10
-1.3132656234040885
20
-1.3030093638900182
30
0
40
0.025000000000000085
210
0
220
0
230
1
100
AcDbArc
50
-135.22460841326938
51
18.000000000000011
0
LINE
5
423
100
AcDbEntity
8
0
100
AcDbLine
10
-1.2894892104967097
20
-1.2952839390306445
30
0
11
-1.3618684126388292
21
-1.0725236601639636
31
0
0
SPLINE
5
424
100
AcDbEntity
8
0
100
AcDbSpline
70
4
71
5
72
16
73
10
74
0
42
0.000000001
43
0.0000000001
44
0.0000000001
40
0
40
0
40
0
40
0
40
0
40
0
40
0.20000000000000001
40
0.40000000000000002
40
0.60000000000000009
40
0.80000000000000004
40
1
40
1
40
1
40
1
40
1
40
1
41
1
41
1
41
1
41
1
41
1
41
1
41
1
41
1
41
1
41
1
10
-1.2797635154041413
20
-0.38953381706911283
30
0
10
-1.3087859537357081
20
-0.39896377891574369
30
0
10
-1.3586950205922856
20
-0.42495237883503656
30
0
10
-1.4091737417964898
20
-0.48530025359032603
30
0
10
-1.4349505248908898
20
-0.60102844761831498
30
0
10
-1.4247361194613355
20
-0.77369338198913373
30
0
10
-1.4010871831036336
20
-0.90921764963925944
30
0
10
-1.3815120042842672
20
-0.99762363215215444
30
0
10
-1.3684225383170958
20
-1.0488445121007564
30
0
10
-1.3618684126388292
20
-1.0725236601639636
30
0
0
LINE
5
425
100
AcDbEntity
8
0
100
AcDbLine
10
-1.2797635154041413
20
-0.38953381706911283
30
0
11
-0.89934090888608009
21
-0.26592701931913393
31
0
0
ARC
5
426
100
AcDbEntity
8
0
100
AcDbCircle
10
-0.89161548402670632
20
-0.28970343222651296
30
0
40
0.024999999999999994
210
-0
220
0
230
1
100
AcDbArc
50
-72.000000000000313
51
108.00000000000007
0
LINE
5
427
100
AcDbEntity
8
0
100
AcDbLine
10
-0.88389005916733276
20
-0.31347984513389182
30
0
11
-1.264312665685394
21
-0.4370866428838705
31
0
0
SPLINE
5
428
100
AcDbEntity
8
0
100
AcDbSpline
70
4
71
5
72
16
73
10
74
0
42
0.000000001
43
0.0000000001
44
0.0000000001
40
-1
40
-1
40
-1
40
-1
40
-1
40
-1
40
-0.80000000000000004
40
-0.60000000000000009
40
-0.40000000000000002
40
-0.20000000000000001
40
0
40
0
40
0
40
0
40
0
40
0
41
1
41
1
41
1
41
1
41
1
41
1
41
1
41
1
41
1
41
1
10
-1.3300021518819798
20
-1.063259951351669
30
0
10
-1.336566550609023
20
-1.0417243531364329
30
0
10
-1.3497197122303688
20
-0.99500263392901855
30
0
10
-1.369519905205753
20
-0.9139808374152476
30
0
10
-1.3938119146164347
20
-0.78925409692624171
30
0
10
-1.4060587869543302
20
-0.63012575601454268
30
0
10
-1.3837581446377702
20
-0.52375147085381446
30
0
10
-1.3375199065672163
20
-0.46874165929455547
30
0
10
-1.2912855927663986
20
-0.44541216931943883
30
0
10
-1.264312665685394
20
-0.4370866428838705
30
0
0
LINE
5
429
100
AcDbEntity
8
0
100
AcDbLine
10
-1.3300021518819798
20
-1.063259951351669
30
0
11
-1.2123316886067605
21
-1.4254123989855969
31
0
0
ARC
5
430
100
AcDbEntity
8
0
100
AcDbCircle
10
-1.1885552756993831
20
-1.4176869741262239
30
0
40
0.024999999999998374
210
0
220
0
230
1
100
AcDbArc
50
197.99999999999946
51
230.02432615014965
0
ARC
5
431
100
AcDbEntity
8
0
100
AcDbCircle
10
-1.6224991603970791e-13
20
3.4722880738670246e-13
30
0
40
1.8750000000001619
210
0
220
0
230
1
100
AcDbArc
50
230.02432615015883
51
233.77539158675646
0
ARC
5
432
100
AcDbEntity
8
0
100
AcDbCircle
10
-1.0932615715580773
20
-1.4924071616534018
30
0
40
0.024999999999999929
210
0
220
0
230
1
100
AcDbArc
50
-126.22460841325851
51
26.999999999999982
0
LINE
5
433
100
AcDbEntity
8
0
100
AcDbLine
10
-1.0709864084533682
20
-1.4810573991599132
30
0
11
-1.1773218875674396
21
-1.2723622707427127
31
0
0
SPLINE
5
434
100
AcDbEntity
8
0
100
AcDbSpline
70
4
71
5
72
16
73
10
74
0
42
0.000000001
43
0.0000000001
44
0.0000000001
40
0
40
0
40
0
40
0
40
0
40
0
40
0.20000000000000001
40
0.40000000000000002
40
0.60000000000000009
40
0.80000000000000004
40
1
40
1
40
1
40
1
40
1
40
1
41
1
41
1
41
1
41
1
41
1
41
1
41
1
41
1
41
1
41
1
10
-1.2030709885954307
20
-0.58493713029693417
30
0
10
-1.2302609415143331
20
-0.59879110327967022
30
0
10
-1.2754900322130387
20
-0.63226723858271339
30
0
10
-1.3159067890909251
20
-0.69976874260570299
30
0
10
-1.3232623390884732
20
-0.81810450779911004
30
0
10
-1.2861629433000852
20
-0.98704576525771603
30
0
10
-1.2416044982822902
20
-1.1172019955755523
30
0
10
-1.2084405798165763
20
-1.2014573211157222
30
0
10
-1.1874995559425348
20
-1.2499999434297426
30
0
10
-1.1773218875674396
20
-1.2723622707427127
30
0
0
LINE
5
435
100
AcDbEntity
8
0
100
AcDbLine
10
-1.2030709885954307
20
-0.58493713029693417
30
0
11
-0.84666837892008362
21
-0.40334093040111557
31
0
0
ARC
5
436
100
AcDbEntity
8
0
100
AcDbCircle
10
-0.83531861642659488
20
-0.42561609350582491
30
0
40
0.024999999999999981
210
-0
220
0
230
1
100
AcDbArc
50
-63.00000000000005
51
117
0
LINE
5
437
100
AcDbEntity
8
0
100
AcDbLine
10
-0.82396885393310626
20
-0.44789125661053408
30
0
11
-1.1803714636084532
21
-0.62948745650635263
31
0
0
SPLINE
5
438
100
AcDbEntity
8
0
100
AcDbSpline
70
4
71
5
72
16
73
10
74
0
42
0.000000001
43
0.0000000001
44
0.0000000001
40
-1
40
-1
40
-1
40
-1
40
-1
40
-1
40
-0.80000000000000004
40
-0.60000000000000009
40
-0.40000000000000002
40
-0.20000000000000001
40
0
40
0
40
0
40
0
40
0
40
0
41
1
41
1
41
1
41
1
41
1
41
1
41
1
41
1
41
1
41
1
10
-1.1472971166918748
20
-1.2582276321038104
30
0
10
-1.1571496065637146
20
-1.2379840710420558
30
0
10
-1.1774497180890531
20
-1.1938951815301557
30
0
10
-1.209680739226604
20
-1.1169683303752298
30
0
10
-1.2531852346157712
20
-0.99757729053071553
30
0
10
-1.2901744845159286
20
-0.84232391647657701
30
0
10
-1.2847890045052353
20
-0.73377068623333863
30
0
10
-1.2477254663165236
20
-0.67220488270095302
30
0
10
-1.2057099099239581
20
-0.64192997731456602
30
0
10
-1.1803714636084532
20
-0.62948745650635263
30
0
0
LINE
5
439
100
AcDbEntity
8
0
100
AcDbLine
10
-1.1472971166918748
20
-1.2582276321038104
30
0
11
-0.97442224767388952
21
-1.5975136661763356
31
0
0
ARC
5
440
100
AcDbEntity
8
0
100
AcDbCircle
10
-0.95214708456917974
20
-1.586163903682847
30
0
40
0.025000000000000529
210
0
220
0
230
1
100
AcDbArc
50
206.99999999999929
51
239.02432615014683
0
ARC
5
441
100
AcDbEntity
8
0
100
AcDbCircle
10
-1.6224991603970791e-13
20
3.4722880738670246e-13
30
0
40
1.8750000000002143
210
0
220
0
230
1
100
AcDbArc
50
239.02432615015789
51
242.77539158675523
0
ARC
5
442
100
AcDbEntity
8
0
100
AcDbCircle
10
-0.8463377914931709
20
-1.6450569420814776
30
0
40
0.025000000000000071
210
0
220
0
230
1
100
AcDbArc
50
-117.22460841327175
51
35.999999999999936
0
LINE
5
443
100
AcDbEntity
8
0
100
AcDbLine
10
-0.82611236663379728
20
-1.6303623107741658
30
0
11
-0.96378579031681011
21
-1.4408710994874983
31
0
0
SPLINE
5
444
100
AcDbEntity
8
0
100
AcDbSpline
70
4
71
5
72
16
73
10
74
0
42
0.000000001
43
0.0000000001
44
0.0000000001
40
0
40
0
40
0
40
0
40
0
40
0
40
0.20000000000000001
40
0.40000000000000002
40
0.60000000000000009
40
0.80000000000000004
40
1
40
1
40
1
40
1
40
1
40
1
41
1
41
1
41
1
41
1
41
1
41
1
41
1
41
1
41
1
41
1
10
-1.0967548612838038
20
-0.76593735008180841
30
0
10
-1.1214428219108985
20
-0.78387420340711456
30
0
10
-1.1608782461319842
20
-0.8240135805418235
30
0
10
-1.1902378439936934
20
-0.8970066027788195
30
0
10
-1.1789910428417796
20
-1.0150361198646947
30
0
10
-1.1159201669447032
20
-1.1760938059685691
30
0
10
-1.0515493900641539
20
-1.2976771205999278
30
0
10
-1.0056133376894534
20
-1.3757071434251795
30
0
10
-0.97733639341559464
20
-1.4203762276395206
30
0
10
-0.96378579031681011
20
-1.4408710994874983
30
0
0
LINE
5
445
100
AcDbEntity
8
0
100
AcDbLine
10
-1.0967548612838038
20
-0.76593735008180841
30
0
11
-0.77314806353382504
21
-0.53082324916481938
31
0
0
ARC
5
446
100
AcDbEntity
8
0
100
AcDbCircle
10
-0.75845343222651318
20
-0.55104867402419322
30
0
40
0.025000000000000015
210
-0
220
0
230
1
100
AcDbArc
50
-54
51
125.99999999999984
0
LINE
5
447
100
AcDbEntity
8
0
100
AcDbLine
10
-0.74375880091920132
20
-0.57127409888356695
30
0
11
-1.0673655986691803
21
-0.80638819980055587
31
0
0
SPLINE
5
448
100
AcDbEntity
8
0
100
AcDbSpline
70
4
71
5
72
16
73
10
74
0
42
0.000000001
43
0.0000000001
44
0.0000000001
40
-1
40
-1
40
-1
40
-1
40
-1
40
-1
40
-0.80000000000000004
40
-0.60000000000000009
40
-0.40000000000000002
40
-0.20000000000000001
40
0
40
0
40
0
40
0
40
0
40
0
41
1
41
1
41
1
41
1
41
1
41
1
41
1
41
1
41
1
41
1
10
-0.93634181882798795
20
-1.4222135727354546
30
0
10
-0.94923979884544074
20
-1.4037605124850494
30
0
10
-0.97618700415681037
20
-1.3633900674510817
30
0
10
-1.0200552187474949
20
-1.2924523560360173
30
0
10
-1.0817009750555238
20
-1.1813368204731103
30
0
10
-1.1425218044251195
20
-1.0337812666021524
30
0
10
-1.1541840951115392
20
-0.92572203207250903
30
0
10
-1.127207884121707
20
-0.85911619097515124
30
0
10
-1.0904456475774151
20
-0.82264133882475732
30
0
10
-1.0673655986691803
20
-0.80638819980055587
30
0
0
LINE
5
449
100
AcDbEntity
8
0
100
AcDbLine
10
-0.93634181882798795
20
-1.4222135727354546
30
0
11
-0.71251929708125417
21
-1.7302788450619246
31
0
0
ARC
5
450
100
AcDbEntity
8
0
100
AcDbCircle
10
-0.69229387222188088
20
-1.7155842137546129
30
0
40
0.024999999999999682
210
0
220
0
230
1
100
AcDbArc
50
216.00000000000034
51
248.02432615014868
0
ARC
5
451
100
AcDbEntity
8
0
100
AcDbCircle
10
-1.6224991603970791e-13
20
3.4722880738670246e-13
30
0
40
1.8750000000002611
210
0
220
0
230
1
100
AcDbArc
50
248.02432615015678
51
251.77539158675404
0
ARC
5
452
100
AcDbEntity
8
0
100
AcDbCircle
10
-0.57857436616760838
20
-1.7571999609645308
30
0
40
0.025000000000000348
210
0
220
0
230
1
100
AcDbArc
50
-108.22460841327256
51
45.000000000000185
0
LINE
5
453
100
AcDbEntity
8
0
100
AcDbLine
10
-0.56089669663794484
20
-1.7395222914348671
30
0
11
-0.72651808828692743
21
-1.5739008997858848
31
0
0
SPLINE
5
454
100
AcDbEntity
8
0
100
AcDbSpline
70
4
71
5
72
16
73
10
74
0
42
0.000000001
43
0.0000000001
44
0.0000000001
40
0
40
0
40
0
40
0
40
0
40
0
40
0.20000000000000001
40
0.40000000000000002
40
0.60000000000000009
40
0.80000000000000004
40
1
40
1
40
1
40
1
40
1
40
1
41
1
41
1
41
1
41
1
41
1
41
1
41
1
41
1
41
1
41
1
10
-0.96343298936667099
20
-0.92807765030734313
30
0
10
-0.98501105817667467
20
-0.94965571911734681
30
0
10
-1.017681784897148
20
-0.99546997340371013
30
0
10
-1.0352612930044061
20
-1.0721571833972854
30
0
10
-1.0056890742733831
20
-1.1869741739474653
30
0
10
-0.91819973255244092
20
-1.3361825139449155
30
0
10
-0.83560164597029651
20
-1.4461991281716862
30
0
10
-0.77802455774909207
20
-1.5160824901532632
30
0
10
-0.74310796528923573
20
-1.5557781351663769
30
0
10
-0.72651808828692743
20
-1.5739008997858848
30
0
0
LINE
5
455
100
AcDbEntity
8
0
100
AcDbLine
10
-0.96343298936667099
20
-0.92807765030734313
30
0
11
-0.68059027689205209
21
-0.64523493783272412
31
0
0
ARC
5
456
100
AcDbEntity
8
0
100
AcDbCircle
10
-0.66291260736238833
20
-0.662912607362388
30
0
40
0.024999999999999967
210
-0
220
0
230
1
100
AcDbArc
50
-45
51
134.99999999999986
0
LINE
5
457
100
AcDbEntity
8
0
100
AcDbLine
10
-0.64523493783272468
20
-0.68059027689205165
30
0
11
-0.92807765030734357
21
-0.96343298936667043
31
0
0
SPLINE
5
458
100
AcDbEntity
8
0
100
AcDbSpline
70
4
71
5
72
16
73
10
74
0
42
0.000000001
43
0.0000000001
44
0.0000000001
40
-1
40
-1
40
-1
40
-1
40
-1
40
-1
40
-0.80000000000000004
40
-0.60000000000000009
40
-0.40000000000000002
40
-0.20000000000000001
40
0
40
0
40
0
40
0
40
0
40
0
41
1
41
1
41
1
41
1
41
1
41
1
41
1
41
1
41
1
41
1
10
-0.70233067784422221
20
-1.5511798951501163
30
0
10
-0.7179565569333165
20
-1.5349717112966217
30
0
10
-0.75088732640330458
20
-1.4993137650791482
30
0
10
-0.80531255341364316
20
-1.43611191528775
30
0
10
-0.88358164752969459
20
-1.3360079172633295
30
0
10
-0.96673644569688866
20
-1.1997834910206626
30
0
10
-0.99515934277879836
20
-1.0948790291867718
30
0
10
-0.97893470283132644
20
-1.0248732073843725
30
0
10
-0.9483309944058973
20
-0.98309654038300831
30
0
10
-0.92807765030734357
20
-0.96343298936667043
30
0
0
LINE
5
459
100
AcDbEntity
8
0
100
AcDbLine
10
-0.70233067784422221
20
-1.5511798951501163
30
0
11
-0.4330717566785075
21
-1.8204388163158309
31
0
0
ARC
5
460
100
AcDbEntity
8
0
100
AcDbCircle
10
-0.41539408714884252
20
-1.8027611467861653
30
0
40
0.025000000000002316
210
0
220
0
230
1
100
AcDbArc
50
225.00000000000108
51
257.02432615014646
0
ARC
5
461
100
AcDbEntity
8
0
100
AcDbCircle
10
-1.6224991603970791e-13
20
3.4722880738670246e-13
30
0
40
1.8750000000003018
210
0
220
0
230
1
100
AcDbArc
50
257.02432615015539
51
260.77539158675268
0
ARC
5
462
100
AcDbEntity
8
0
100
AcDbCircle
10
-0.29656451976876896
20
-1.8260748849963189
30
0
40
0.025000000000000053
210
0
220
0
230
1
100
AcDbArc
50
-99.224608413264519
51
53.999999999999766
0
LINE
5
463
100
AcDbEntity
8
0
100
AcDbLine
10
-0.28186988846145705
20
-1.8058494601369453
30
0
11
-0.47136109974812423
21
-1.6681760364539315
31
0
0
SPLINE
5
464
100
AcDbEntity
8
0
100
AcDbSpline
70
4
71
5
72
16
73
10
74
0
42
0.000000001
43
0.0000000001
44
0.0000000001
40
0
40
0
40
0
40
0
40
0
40
0
40
0.20000000000000001
40
0.40000000000000002
40
0.60000000000000009
40
0.80000000000000004
40
1
40
1
40
1
40
1
40
1
40
1
41
1
41
1
41
1
41
1
41
1
41
1
41
1
41
1
41
1
41
1
10
-0.80638819980055654
20
-1.0673655986691797
30
0
10
-0.82432505312586268
20
-1.0920535592962743
30
0
10
-0.84942662062593977
20
-1.1424145917449688
30
0
10
-0.85479317314610337
20
-1.2209076958748235
30
0
10
-0.80762370300569619
20
-1.329684984526218
30
0
10
-0.69787017341453605
20
-1.4633699738924171
30
0
10
-0.59907861614978197
20
-1.5591109135481274
30
0
10
-0.53127823108147976
20
-1.6191268543844626
30
0
10
-0.49058175282351435
20
-1.6528716216738328
30
0
10
-0.47136109974812423
20
-1.6681760364539315
30
0
0
LINE
5
465
100
AcDbEntity
8
0
100
AcDbLine
10
-0.80638819980055654
20
-1.0673655986691797
30
0
11
-0.57127409888356739
21
-0.74375880091920099
31
0
0
ARC
5
466
100
AcDbEntity
8
0
100
AcDbCircle
10
-0.55104867402419366
20
-0.75845343222651296
30
0
40
0.025000000000000015
210
-0
220
0
230
1
100
AcDbArc
50
-35.999999999999794
51
143.99999999999983
0
LINE
5
467
100
AcDbEntity
8
0
100
AcDbLine
10
-0.53082324916481993
20
-0.7731480635338247
30
0
11
-0.7659373500818093
21
-1.0967548612838034
31
0
0
SPLINE
5
468
100
AcDbEntity
8
0
100
AcDbSpline
70
4
71
5
72
16
73
10
74
0
42
0.000000001
43
0.0000000001
44
0.0000000001
40
-1
40
-1
40
-1
40
-1
40
-1
40
-1
40
-0.80000000000000004
40
-0.60000000000000009
40
-0.40000000000000002
40
-0.20000000000000001
40
0
40
0
40
0
40
0
40
0
40
0
41
1
41
1
41
1
41
1
41
1
41
1
41
1
41
1
41
1
41
1
10
-0.45102582467004815
20
-1.6419510204752619
30
0
10
-0.46899484182829132
20
-1.6283868122970284
30
0
10
-0.5070983106215885
20
-1.5983193818738624
30
0
10
-0.57074042033561412
20
-1.5444096330029085
30
0
10
-0.66370560740231987
20
-1.4577820651744577
30
0
10
-0.76714682726128347
20
-1.3362430640371268
30
0
10
-0.81163046468233946
20
-1.2370764709072872
30
0
10
-0.80655690025922722
20
-1.1653944440686232
30
0
10
-0.78286528482198015
20
-1.1193446424066709
30
0
10
-0.7659373500818093
20
-1.0967548612838034
30
0
0
LINE
5
469
100
AcDbEntity
8
0
100
AcDbLine
10
-0.45102582467004815
20
-1.6419510204752619
30
0
11
-0.14296055234357841
21
-1.8657735422219952
31
0
0
ARC
5
470
100
AcDbEntity
8
0
100
AcDbCircle
10
-0.12826592103626847
20
-1.8455481173626269
30
0
40
0.024999999999994606
210
0
220
0
230
1
100
AcDbArc
50
233.99999999999625
51
266.02432615015147
0
ARC
5
471
100
AcDbEntity
8
0
100
AcDbCircle
10
-1.6224991603970791e-13
20
3.4722880738670246e-13
30
0
40
1.8750000000003348
210
0
220
0
230
1
100
AcDbArc
50
266.02432615015391
51
269.7753915867512
0
ARC
5
472
100
AcDbEntity
8
0
100
AcDbCircle
10
-0.0072522706520091506
20
-1.8499857849644112
30
0
40
0.025000000000000196
210
0
220
0
230
1
100
AcDbArc
50
-90.224608413255922
51
62.999999999999787
0
LINE
5
473
100
AcDbEntity
8
0
100
AcDbLine
10
0.0040974918414796975
20
-1.8277106218597019
30
0
11
-0.20459763657572044
21
-1.7213751427456305
31
0
0
SPLINE
5
474
100
AcDbEntity
8
0
100
AcDbSpline
70
4
71
5
72
16
73
10
74
0
42
0.000000001
43
0.0000000001
44
0.0000000001
40
0
40
0
40
0
40
0
40
0
40
0
40
0.20000000000000001
40
0.40000000000000002
40
0.60000000000000009
40
0.80000000000000004
40
1
40
1
40
1
40
1
40
1
40
1
41
1
41
1
41
1
41
1
41
1
41
1
41
1
41
1
41
1
41
1
10
-0.62948745650635318
20
-1.1803714636084528
30
0
10
-0.64334142948908923
20
-1.2075614165273552
30
0
10
-0.6602557538695919
20
-1.2612291713808099
30
0
10
-0.65327720846904813
20
-1.3395954089195896
30
0
10
-0.58967195582060972
20
-1.4396545378144781
30
0
10
-0.46035673450884695
20
-1.5545244084361876
30
0
10
-0.34780428257172247
20
-1.6336322138405521
30
0
10
-0.27145007115328168
20
-1.6823029418867663
30
0
10
-0.22597578945578589
20
-1.7092659232892673
30
0
10
-0.20459763657572044
20
-1.7213751427456305
30
0
0
LINE
5
475
100
AcDbEntity
8
0
100
AcDbLine
10
-0.62948745650635318
20
-1.1803714636084528
30
0
11
-0.44789125661053447
21
-0.82396885393310593
31
0
0
ARC
5
476
100
AcDbEntity
8
0
100
AcDbCircle
10
-0.42561609350582513
20
-0.83531861642659466
30
0
40
0.024999999999999981
210
-0
220
0
230
1
100
AcDbArc
50
-26.99999999999995
51
153.00000000000003
0
LINE
5
477
100
AcDbEntity
8
0
100
AcDbLine
10
-0.40334093040111596
20
-0.84666837892008329
30
0
11
-0.58493713029693484
21
-1.20307098859543
31
0
0
SPLINE
5
478
100
AcDbEntity
8
0
100
AcDbSpline
70
4
71
5
72
16
73
10
74
0
42
0.000000001
43
0.0000000001
44
0.0000000001
40
-1
40
-1
40
-1
40
-1
40
-1
40
-1
40
-0.80000000000000004
40
-0.60000000000000009
40
-0.40000000000000002
40
-0.20000000000000001
40
0
40
0
40
0
40
0
40
0
40
0
41
1
41
1
41
1
41
1
41
1
41
1
41
1
41
1
41
1
41
1
10
-0.18861521882360466
20
-1.6922918623532923
30
0
10
-0.20848491721281157
20
-1.6817056256726945
30
0
10
-0.25082285146956435
20
-1.6579690709689343
30
0
10
-0.32211476393006472
20
-1.6146788599518263
30
0
10
-0.42748693250807601
20
-1.5436607805396962
30
0
10
-0.54866750792415486
20
-1.4397998980805211
30
0
10
-0.60811655089832206
20
-1.3488129842926433
30
0
10
-0.6143189899938617
20
-1.2772198018174907
30
0
10
-0.59812283374482522
20
-1.2280307644423971
30
0
10
-0.58493713029693484
20
-1.20307098859543
30
0
0
LINE
5
479
100
AcDbEntity
8
0
100
AcDbLine
10
-0.18861521882360466
20
-1.6922918623532923
30
0
11
0.15067081524892145
21
-1.8651667313712783
31
0
0
ARC
5
480
100
AcDbEntity
8
0
100
AcDbCircle
10
0.16202057774241091
20
-1.8428915682665641
30
0
40
0.025000000000004807
210
0
220
0
230
1
100
AcDbArc
50
243.00000000000364
51
275.02432615014567
0
ARC
5
481
100
AcDbEntity
8
0
100
AcDbCircle
10
-1.6224991603970791e-13
20
3.4722880738670246e-13
30
0
40
1.8750000000003597
210
0
220
0
230
1
100
AcDbArc
50
275.02432615015226
51
278.77539158674949
0
ARC
5
482
100
AcDbEntity
8
0
100
AcDbCircle
10
0.28223855343710941
20
-1.8283438951558668
30
0
40
0.025000000000000321
210
0
220
0
230
1
100
AcDbArc
50
-81.224608413253065
51
72.000000000000384
0
LINE
5
483
100
AcDbEntity
8
0
100
AcDbLine
10
0.28996397829648296
20
-1.8045674822484878
30
0
11
0.067203699429803324
21
-1.7321882801063682
31
0
0
SPLINE
5
484
100
AcDbEntity
8
0
100
AcDbSpline
70
4
71
5
72
16
73
10
74
0
42
0.000000001
43
0.0000000001
44
0.0000000001
40
0
40
0
40
0
40
0
40
0
40
0
40
0.20000000000000001
40
0.40000000000000002
40
0.60000000000000009
40
0.80000000000000004
40
1
40
1
40
1
40
1
40
1
40
1
41
1
41
1
41
1
41
1
41
1
41
1
41
1
41
1
41
1
41
1
10
-0.43708664288387139
20
-1.2643126656853936
30
0
10
-0.44651660473050231
20
-1.2933351040169605
30
0
10
-0.45482719918975834
20
-1.348988103037617
30
0
10
-0.43567539081673284
20
-1.4252978371344853
30
0
10
-0.35720052807419883
20
-1.5141750184422655
30
0
10
-0.21150778496314321
20
-1.6074012928735355
30
0
10
-0.087965853260512275
20
-1.6679280673137449
30
0
10
-0.0049379095821539985
20
-1.7040551477164552
30
0
10
0.044194447818991359
20
-1.7235724251449522
30
0
10
0.067203699429803324
20
-1.7321882801063682
30
0
0
LINE
5
485
100
AcDbEntity
8
0
100
AcDbLine
10
-0.43708664288387139
20
-1.2643126656853936
30
0
11
-0.31347984513389238
21
-0.88389005916733243
31
0
0
ARC
5
486
100
AcDbEntity
8
0
100
AcDbCircle
10
-0.2897034322265134
20
-0.8916154840267061
30
0
40
0.024999999999999994
210
-0
220
0
230
1
100
AcDbArc
50
-17.999999999999947
51
162.00000000000014
0
LINE
5
487
100
AcDbEntity
8
0
100
AcDbLine
10
-0.26592701931913454
20
-0.89934090888607976
30
0
11
-0.38953381706911366
21
-1.2797635154041411
31
0
0
SPLINE
5
488
100
AcDbEntity
8
0
100
AcDbSpline
70
4
71
5
72
16
73
10
74
0
42
0.000000001
43
0.0000000001
44
0.0000000001
40
-1
40
-1
40
-1
40
-1
40
-1
40
-1
40
-0.80000000000000004
40
-0.60000000000000009
40
-0.40000000000000002
40
-0.20000000000000001
40
0
40
0
40
0
40
0
40
0
40
0
41
1
41
1
41
1
41
1
41
1
41
1
41
1
41
1
41
1
41
1
10
0.078439719688298409
20
-1.7009628621854951
30
0
10
0.057158597986218126
20
-1.6936152652833145
30
0
10
0.011628698718958991
20
-1.6767940590528754
30
0
10
-0.065557572998946351
20
-1.6451893345568285
30
0
10
-0.18074211058769463
20
-1.5915294443716379
30
0
10
-0.31667817361887296
20
-1.5079040802112702
30
0
10
-0.3896287894080655
20
-1.4273372455510658
30
0
10
-0.4069545073870095
20
-1.3575957691961127
30
0
10
-0.39865261344499575
20
-1.3064786934571082
30
0
10
-0.38953381706911366
20
-1.2797635154041411
30
0
0
LINE
5
489
100
AcDbEntity
8
0
100
AcDbLine
10
0.078439719688298409
20
-1.7009628621854951
30
0
11
0.44059216732222578
21
-1.8186333254607145
31
0
0
ARC
5
490
100
AcDbEntity
8
0
100
AcDbCircle
10
0.44831759218159972
20
-1.7948569125533298
30
0
40
0.025000000000005795
210
0
220
0
230
1
100
AcDbArc
50
252.00000000000361
51
284.0243261501447
0
ARC
5
491
100
AcDbEntity
8
0
100
AcDbCircle
10
-1.6224991603970791e-13
20
3.4722880738670246e-13
30
0
40
1.8750000000003761
210
0
220
0
230
1
100
AcDbArc
50
284.0243261501505
51
287.77539158674756
0
ARC
5
492
100
AcDbEntity
8
0
100
AcDbCircle
10
0.56477972764455053
20
-1.7616821107230858
30
0
40
0.025000000000000064
210
-0
220
0
230
1
100
AcDbArc
50
-72.224608413264164
51
81
0
LINE
5
493
100
AcDbEntity
8
0
100
AcDbLine
10
0.56869058927055627
20
-1.7369899022082076
30
0
11
0.33735025731907409
21
-1.7003491932075789
31
0
0
SPLINE
5
494
100
AcDbEntity
8
0
100
AcDbSpline
70
4
71
5
72
16
73
10
74
0
42
0.000000001
43
0.0000000001
44
0.0000000001
40
0
40
0
40
0
40
0
40
0
40
0
40
0.20000000000000001
40
0.40000000000000002
40
0.60000000000000009
40
0.80000000000000004
40
1
40
1
40
1
40
1
40
1
40
1
41
1
41
1
41
1
41
1
41
1
41
1
41
1
41
1
41
1
41
1
10
-0.23392330550618767
20
-1.3171222939199907
30
0
10
-0.23869705925980028
20
-1.347262588912548
30
0
10
-0.23819928938094115
20
-1.4035304705628029
30
0
10
-0.20734579911878567
20
-1.4759047023068079
30
0
10
-0.11593363784601483
20
-1.5514114848572287
30
0
10
0.042549188202446839
20
-1.6206986228212947
30
0
10
0.17403858729990115
20
-1.6611539962337833
30
0
10
0.26169583971086863
20
-1.683847860374569
30
0
10
0.31327647111550194
20
-1.6954388536846428
30
0
10
0.33735025731907409
20
-1.7003491932075789
30
0
0
LINE
5
495
100
AcDbEntity
8
0
100
AcDbLine
10
-0.23392330550618767
20
-1.3171222939199907
30
0
11
-0.17134951949009522
21
-0.92204695768193567
31
0
0
ARC
5
496
100
AcDbEntity
8
0
100
AcDbCircle
10
-0.14665731097521664
20
-0.92595781930794141
30
0
40
0.024999999999999994
210
-0
220
0
230
1
100
AcDbArc
50
-9.0000000000002043
51
171.00000000000017
0
LINE
5
497
100
AcDbEntity
8
0
100
AcDbLine
10
-0.1219651024603382
20
-0.92986868093394726
30
0
11
-0.18453888847643077
21
-1.3249440171720022
31
0
0
SPLINE
5
498
100
AcDbEntity
8
0
100
AcDbSpline
70
4
71
5
72
16
73
10
74
0
42
0.000000001
43
0.0000000001
44
0.0000000001
40
-1
40
-1
40
-1
40
-1
40
-1
40
-1
40
-0.80000000000000004
40
-0.60000000000000009
40
-0.40000000000000002
40
-0.20000000000000001
40
0
40
0
40
0
40
0
40
0
40
0
41
1
41
1
41
1
41
1
41
1
41
1
41
1
41
1
41
1
41
1
10
0.34356321197497108
20
-1.6677505111786031
30
0
10
0.32139467880431632
20
-1.6638224762758473
30
0
10
0.27379391175158341
20
-1.6543308124425056
30
0
10
0.19261386295251695
20
-1.6351897876746788
30
0
10
0.070453181944030066
20
-1.6002093712997529
30
0
10
-0.07689117168449211
20
-1.5388786594404926
30
0
10
-0.16154707401876695
20
-1.4707157267632904
30
0
10
-0.18956945420371252
20
-1.4045432231350858
30
0
10
-0.18936624274998029
20
-1.3527567810847128
30
0
10
-0.18453888847643077
20
-1.3249440171720022
30
0
0
LINE
5
499
100
AcDbEntity
8
0
100
AcDbLine
10
0.34356321197497108
20
-1.6677505111786031
30
0
11
0.71966467799448663
21
-1.7273191313793423
31
0
0
CIRCLE
5
500
100
AcDbEntity
8
0
100
AcDbCircle
10
-1.6224991603970791e-13
20
3.4722880738670246e-13
30
0
40
0.12499999999999997
210
0
220
-0
230
1
0
ENDSEC
0
SECTION
2
OBJECTS
0
DICTIONARY
5
C
100
AcDbDictionary
3
ACAD_GROUP
350
D
3
ACAD_MLINESTYLE
350
17
0
DICTIONARY
5
D
100
AcDbDictionary
0
DICTIONARY
5
1A
330
C
100
AcDbDictionary
0
DICTIONARY
5
17
100
AcDbDictionary
0
ENDSEC
0
EOF
