0
SECTION
2
HEADER
9
$INSUNITS
70
1
9
$ACADVER
1
AC1014
9
$HANDSEED
5
FFFF
0
ENDSEC
0
SECTION
2
TABLES
0
TABLE
2
VPORT
5
8
100
AcDbSymbolTable
0
ENDTAB
0
TABLE
2
LTYPE
5
5
100
AcDbSymbolTable
0
LTYPE
5
14
100
AcDbSymbolTableRecord
100
AcDbLinetypeTableRecord
2
BYBLOCK
70
0
0
LTYPE
5
15
100
AcDbSymbolTableRecord
100
AcDbLinetypeTableRecord
2
BYLAYER
70
0
0
ENDTAB
0
TABLE
2
LAYER
5
2
100
AcDbSymbolTable
70
2
0
LAYER
5
50
100
AcDbSymbolTableRecord
100
AcDbLayerTableRecord
2
0
70
0
6
CONTINUOUS
0
ENDTAB
0
TABLE
2
STYLE
5
3
100
AcDbSymbolTable
70
1
0
STYLE
5
11
100
AcDbSymbolTableRecord
100
AcDbTextStyleTableRecord
2
STANDARD
70
0
0
ENDTAB
0
TABLE
2
VIEW
5
6
100
AcDbSymbolTable
70
0
0
ENDTAB
0
TABLE
2
UCS
5
7
100
AcDbSymbolTable
70
0
0
ENDTAB
0
TABLE
2
APPID
5
9
100
AcDbSymbolTable
70
2
0
APPID
5
12
100
AcDbSymbolTableRecord
100
AcDbRegAppTableRecord
2
ACAD
70
0
0
ENDTAB
0
TABLE
2
DIMSTYLE
5
A
100
AcDbSymbolTable
70
1
0
ENDTAB
0
TABLE
2
BLOCK_RECORD
5
1
100
AcDbSymbolTable
70
1
0
BLOCK_RECORD
5
1F
100
AcDbSymbolTableRecord
100
AcDbBlockTableRecord
2
*MODEL_SPACE
0
BLOCK_RECORD
5
1B
100
AcDbSymbolTableRecord
100
AcDbBlockTableRecord
2
*PAPER_SPACE
0
ENDTAB
0
ENDSEC
0
SECTION
2
BLOCKS
0
BLOCK
5
20
100
AcDbEntity
100
AcDbBlockBegin
2
*MODEL_SPACE
0
ENDBLK
5
21
100
AcDbEntity
100
AcDbBlockEnd
0
BLOCK
5
1C
100
AcDbEntity
100
AcDbBlockBegin
2
*PAPER_SPACE
0
ENDBLK
5
1D
100
AcDbEntity
100
AcDbBlockEnd
0
ENDSEC
0
SECTION
2
ENTITIES
0
SPLINE
5
100
100
AcDbEntity
8
0
100
AcDbSpline
70
0
71
3
72
12
73
8
74
0
42
0.000000001
43
0.0000000001
44
0.0000000001
40
0
40
0
40
0
40
0
40
1.176404842113562
40
1.176404842113562
40
1.9213303395780148
40
1.9213303395780148
40
2.6563578404003136
40
2.6563578404003136
40
2.6563578404003136
40
2.6563578404003136
10
-0.17252277797789684
20
-0.92945462023639946
30
0
10
-0.22218512508079288
20
-1.0756326643339644
30
0
10
-0.24619917332756161
20
-1.2149192935237954
30
0
10
-0.23753652241068207
20
-1.4313194581930808
30
0
10
-0.22143833781139233
20
-1.5331957940789336
30
0
10
-0.12433059021720649
20
-1.7594238733291929
30
0
10
-0.06302908835305561
20
-1.8411327495779988
30
0
10
-0.022415952673716374
20
-1.8898670654481846
30
0
0
ARC
5
101
100
AcDbEntity
8
0
100
AcDbCircle
10
-0.1478305694630184
20
-0.9333654818624052
30
0
40
0.024999999999999998
210
-0
220
0
230
1
100
AcDbArc
50
-50.53271764459064
51
171.00000000000011
0
SPLINE
5
102
100
AcDbEntity
8
0
100
AcDbSpline
70
0
71
3
72
14
73
10
74
0
42
0.000000001
43
0.0000000001
44
0.0000000001
40
0.062278990974039473
40
0.062278990974039473
40
0.062278990974039473
40
0.062278990974039473
40
0.57143508917388619
40
0.57143508917388619
40
0.97800528648905516
40
0.97800528648905516
40
1.4018546257007647
40
1.4018546257007647
40
1.7306418885929713
40
1.7306418885929713
40
1.7306418885929713
40
1.7306418885929713
10
0.0051063268006961253
20
-1.8899931019521168
30
0
10
-0.04634185777749654
20
-1.8325385266325827
30
0
10
-0.119790369829103
20
-1.7403253895258841
30
0
10
-0.20514247291867943
20
-1.4951822065494615
30
0
10
-0.2129759968201807
20
-1.3961788095031455
30
0
10
-0.21392952815982882
20
-1.254895243843446
30
0
10
-0.20622710328241833
20
-1.180677931559845
30
0
10
-0.17725707748765254
20
-1.0566606987695304
30
0
10
-0.15849236264123504
20
-1.0013204780972682
30
0
10
-0.13193963207973577
20
-0.95266517380503923
30
0
0
ARC
5
103
100
AcDbEntity
8
0
100
AcDbCircle
10
-1.8358018517423847e-15
20
1.853285678901836e-14
30
0
40
1.8900000000000132
210
0
220
0
230
1
100
AcDbArc
50
270.15479964573177
51
278.32043936800386
0
SPLINE
5
104
100
AcDbEntity
8
0
100
AcDbSpline
70
4
71
5
72
21
73
15
74
0
42
0.000000001
43
0.0000000001
44
0.0000000001
40
0
40
0
40
0
40
0
40
0
40
0
40
0.10000000000000001
40
0.20000000000000001
40
0.30000000000000004
40
0.40000000000000002
40
0.5
40
0.59999999999999998
40
0.69999999999999996
40
0.79999999999999993
40
0.89999999999999991
40
1
40
1
40
1
40
1
40
1
40
1
41
1
41
1
41
1
41
1
41
1
41
1
41
1
41
1
41
1
41
1
41
1
41
1
41
1
41
1
41
1
10
-0.024999999999999998
20
-0.94499999999999995
30
0
10
-0.028807130911645353
20
-0.96712238531155503
30
0
10
-0.035553842926835423
20
-1.0111063978378398
30
0
10
-0.043071378919438477
20
-1.0763001726523598
30
0
10
-0.047803045199566886
20
-1.1616347231460864
30
0
10
-0.044308289052598523
20
-1.2654318701645082
30
0
10
-0.030582999186457925
20
-1.3659810694605112
30
0
10
-0.0058424586659394954
20
-1.4627792837742142
30
0
10
0.030303902400011195
20
-1.5552558949150186
30
0
10
0.077234261085634762
20
-1.6428926680409994
30
0
10
0.13382349071557745
20
-1.7251786895340198
30
0
10
0.18590259642313084
20
-1.7863196126287897
30
0
10
0.2284029379123447
20
-1.8293411986072392
30
0
10
0.25822054885068962
20
-1.8567328407961923
30
0
10
0.27350036828137614
20
-1.8701062933827997
30
0
0
ARC
5
105
100
AcDbEntity
8
0
100
AcDbCircle
10
1.0381022375924199e-16
20
-0.94500000000000017
30
0
40
0.024999999999999852
210
0
220
0
230
1
100
AcDbArc
50
-41.532717644590541
51
180
0
SPLINE
5
106
100
AcDbEntity
8
0
100
AcDbSpline
70
4
71
5
72
21
73
15
74
0
42
0.000000001
43
0.0000000001
44
0.0000000001
40
0.028719503000724803
40
0.028719503000724803
40
0.028719503000724803
40
0.028719503000724803
40
0.028719503000724803
40
0.028719503000724803
40
0.10000000000000001
40
0.20000000000000001
40
0.30000000000000004
40
0.40000000000000002
40
0.5
40
0.59999999999999998
40
0.69999999999999996
40
0.79999999999999993
40
0.89999999999999991
40
1
40
1
40
1
40
1
40
1
40
1
41
1
41
1
41
1
41
1
41
1
41
1
41
1
41
1
41
1
41
1
41
1
41
1
41
1
41
1
41
1
10
0.018714430559082753
20
-0.96157619042027631
30
0
10
0.015714877982896357
20
-0.9699893698223736
30
0
10
0.0088670850479387262
20
-0.99075737871908898
30
0
10
-0.00060413337213767167
20
-1.0257573914360327
30
0
10
-0.010525590001383671
20
-1.0782963592998887
30
0
10
-0.017348992567500072
20
-1.1533397819237554
30
0
10
-0.016782305388848718
20
-1.2426102290322574
30
0
10
-0.0065347418596347819
20
-1.3408681552820612
30
0
10
0.015935631900477837
20
-1.4458733256944161
30
0
10
0.053760959655150986
20
-1.5544141358556078
30
0
10
0.11046282502518083
20
-1.6629640651406783
30
0
10
0.17375317637036591
20
-1.7471635388605005
30
0
10
0.23262745574845745
20
-1.8076921926939349
30
0
10
0.27713509590359592
20
-1.846732928144339
30
0
10
0.30070351927792238
20
-1.8659253451019557
30
0
0
ARC
5
107
100
AcDbEntity
8
0
100
AcDbCircle
10
-1.8358018517423847e-15
20
1.853285678901836e-14
30
0
40
1.8900000000000132
210
0
220
0
230
1
100
AcDbArc
50
279.15479964573171
51
287.32043936800358
0
SPLINE
5
108
100
AcDbEntity
8
0
100
AcDbSpline
70
0
71
3
72
14
73
10
74
0
42
0.000000001
43
0.0000000001
44
0.0000000001
40
0
40
0
40
0
40
0
40
1.176404842113759
40
1.176404842113759
40
1.9499340635765705
40
1.9499340635765705
40
2.3658887546620164
40
2.3658887546620164
40
2.4094888372913199
40
2.4094888372913199
40
2.4094888372913199
40
2.4094888372913199
10
0.12313836094813974
20
-0.93727634348841093
30
0
10
0.12107816195205658
20
-1.0916464341020486
30
0
10
0.14128138039320717
20
-1.2315366394378031
30
0
10
0.21750957639219037
20
-1.4376926370840375
30
0
10
0.26883493098420219
20
-1.539071898313823
30
0
10
0.41575778752695042
20
-1.6963475165168822
30
0
10
0.47399053975883204
20
-1.7452786890898659
30
0
10
0.54313113155455683
20
-1.7917210663375969
30
0
10
0.54885658166701157
20
-1.7955929989768369
30
0
10
0.56268220247369871
20
-1.8042972978473781
30
0
0
ARC
5
109
100
AcDbEntity
8
0
100
AcDbCircle
10
0.14783056946301817
20
-0.9333654818624052
30
0
40
0.024999999999999998
210
-0
220
0
230
1
100
AcDbArc
50
-32.532717644590747
51
188.99999999999991
0
SPLINE
5
110
100
AcDbEntity
8
0
100
AcDbSpline
70
0
71
3
72
16
73
12
74
0
42
0.000000001
43
0.0000000001
44
0.0000000001
40
0.88954678536850296
40
0.88954678536850296
40
0.88954678536850296
40
0.88954678536850296
40
1.947091763745245
40
1.947091763745245
40
4.9787380287373866
40
4.9787380287373866
40
7.8382071208699813
40
7.8382071208699813
40
9.811802136904527
40
9.811802136904527
40
11.40986289818542
40
11.40986289818542
40
11.40986289818542
40
11.40986289818542
10
0.58889639313276176
20
-1.7959123136042037
30
0
10
0.54432143823949897
20
-1.7700139647353095
30
0
10
0.52880669209409592
20
-1.7588452835320396
30
0
10
0.42700150724548669
20
-1.6841033799024707
30
0
10
0.3528561335504079
20
-1.611378830518601
30
0
10
0.2335412401765799
20
-1.4163780947759528
30
0
10
0.20112883552640359
20
-1.3203430424226021
30
0
10
0.17072976399754558
20
-1.1899179219722418
30
0
10
0.16260525162668435
20
-1.134388582102366
30
0
10
0.15869512090509547
20
-1.0357736955679828
30
0
10
0.1607824019127585
20
-0.99013218247554025
30
0
10
0.16890768180790247
20
-0.94681000993895359
30
0
0
ARC
5
111
100
AcDbEntity
8
0
100
AcDbCircle
10
-1.8358018517423847e-15
20
1.853285678901836e-14
30
0
40
1.8900000000000132
210
0
220
0
230
1
100
AcDbArc
50
288.1547996457316
51
296.32043936800363
0
SPLINE
5
112
100
AcDbEntity
8
0
100
AcDbSpline
70
0
71
3
72
14
73
10
74
0
42
0.000000001
43
0.0000000001
44
0.0000000001
40
0
40
0
40
0
40
0
40
1.1764048421135367
40
1.1764048421135367
40
1.9499340635833411
40
1.9499340635833411
40
2.3537498297598916
40
2.3537498297598916
40
2.4057880213153839
40
2.4057880213153839
40
2.4057880213153839
40
2.4057880213153839
10
0.26824464677694648
20
-0.90647383275829396
30
0
10
0.29035861479256175
20
-1.0592656575217985
30
0
10
0.33219674752544043
20
-1.1942731026264528
30
0
10
0.43973635114527004
20
-1.3859662607840495
30
0
10
0.50628901594948261
20
-1.478068320689939
30
0
10
0.67427433580438378
20
-1.6090731018658178
30
0
10
0.73738277608132363
20
-1.647347938882791
30
0
10
0.81208700790681498
20
-1.6825855987548402
30
0
10
0.8195493339421992
20
-1.6861511638412423
30
0
10
0.83800893340595362
20
-1.694060514719536
30
0
0
ARC
5
113
100
AcDbEntity
8
0
100
AcDbCircle
10
0.29202105968432529
20
-0.89874840789892019
30
0
40
0.024999999999999988
210
-0
220
0
230
1
100
AcDbArc
50
-23.532717644590338
51
198.0000000000002
0
SPLINE
5
114
100
AcDbEntity
8
0
100
AcDbSpline
70
0
71
3
72
16
73
12
74
0
42
0.000000001
43
0.0000000001
44
0.0000000001
40
1.8032821873265348
40
1.8032821873265348
40
1.8032821873265348
40
1.8032821873265348
40
2.586661865522581
40
2.586661865522581
40
5.1934619118211831
40
5.1934619118211831
40
7.8424820458888487
40
7.8424820458888487
40
10.117011659988973
40
10.117011659988973
40
11.948463745623528
40
11.948463745623528
40
11.948463745623528
40
11.948463745623528
10
0.8625886833535964
20
-1.6816779606542658
30
0
10
0.82334719939602963
20
-1.6664911609322894
30
0
10
0.80812464990411492
20
-1.659276056000426
30
0
10
0.69515238584432726
20
-1.6034118299814406
30
0
10
0.60824532374978291
20
-1.5431667451720079
30
0
10
0.45108499472563029
20
-1.3630815599630701
30
0
10
0.4048955400143634
20
-1.2698099474347184
30
0
10
0.35741868003633948
20
-1.1565635993234806
30
0
10
0.33960974809803629
20
-1.1010697779115457
30
0
10
0.31909231445774955
20
-1.0010521992940415
30
0
10
0.31365482587087506
20
-0.95416242261022466
30
0
10
0.31494186535815466
20
-0.90873022473066611
30
0
0
ARC
5
115
100
AcDbEntity
8
0
100
AcDbCircle
10
-1.8358018517423847e-15
20
1.853285678901836e-14
30
0
40
1.8900000000000126
210
0
220
0
230
1
100
AcDbArc
50
297.15479964573154
51
305.32043936800352
0
SPLINE
5
116
100
AcDbEntity
8
0
100
AcDbSpline
70
0
71
3
72
14
73
10
74
0
42
0.000000001
43
0.0000000001
44
0.0000000001
40
0
40
0
40
0
40
0
40
1.1764048421130218
40
1.1764048421130218
40
1.9499340635813165
40
1.9499340635813165
40
2.3537498297577564
40
2.3537498297577564
40
2.4066510111533805
40
2.4066510111533805
40
2.4066510111533805
40
2.4066510111533805
10
0.40674585914916239
20
-0.85335092785149635
30
0
10
0.45248947489185948
20
-1.000802244952161
30
0
10
0.51493232823576907
20
-1.1276025984632245
30
0
10
0.65113535753152707
20
-1.3001127953844096
30
0
10
0.73127658506463789
20
-1.3806697955826126
30
0
10
0.9176873897375285
20
-1.4837829968662173
30
0
10
0.98600636404563013
20
-1.5117142720318717
30
0
10
1.065453366425281
20
-1.5348755456969718
30
0
10
1.0734969190402761
20
-1.5372532189616748
30
0
10
1.092701103205556
20
-1.5421103394547886
30
0
0
ARC
5
117
100
AcDbEntity
8
0
100
AcDbCircle
10
0.42902102225387162
20
-0.84200116535800773
30
0
40
0.024999999999999953
210
-0
220
0
230
1
100
AcDbArc
50
-14.53271764459039
51
206.99999999999989
0
SPLINE
5
118
100
AcDbEntity
8
0
100
AcDbSpline
70
0
71
3
72
14
73
10
74
0
42
0.000000001
43
0.0000000001
44
0.0000000001
40
2.1052948762483612
40
2.1052948762483612
40
2.1052948762483612
40
2.1052948762483612
40
2.859028873717925
40
2.859028873717925
40
3.5774809443418096
40
3.5774809443418096
40
4.2147795152588188
40
4.2147795152588188
40
4.7606090183650025
40
4.7606090183650025
40
4.7606090183650025
40
4.7606090183650025
10
1.1150411774225546
20
-1.52603511514385
30
0
10
1.042131196297764
20
-1.5103288510731241
30
0
10
0.99168991358771774
20
-1.4944969690385848
30
0
10
0.8594697252702227
20
-1.432836761474388
30
0
10
0.77631622480925577
20
-1.3841921792021787
30
0
10
0.61528260109453148
20
-1.2203868416663914
30
0
10
0.55776879085907638
20
-1.1331067777214061
30
0
10
0.48522974159878518
20
-0.9843818481802411
30
0
10
0.46170393530972387
20
-0.91379152941806618
30
0
10
0.45322113495116356
20
-0.84827448548680318
30
0
0
ARC
5
119
100
AcDbEntity
8
0
100
AcDbCircle
10
-1.8358018517423847e-15
20
1.853285678901836e-14
30
0
40
1.8900000000000108
210
0
220
0
230
1
100
AcDbArc
50
306.15479964573143
51
314.32043936800346
0
SPLINE
5
120
100
AcDbEntity
8
0
100
AcDbSpline
70
0
71
3
72
14
73
10
74
0
42
0.000000001
43
0.0000000001
44
0.0000000001
40
0
40
0
40
0
40
0
40
1.176404842114348
40
1.176404842114348
40
1.9499340635865532
40
1.9499340635865532
40
2.3537498297642623
40
2.3537498297642623
40
2.4046564721919896
40
2.4046564721919896
40
2.4046564721919896
40
2.4046564721919896
10
0.53523163855701339
20
-0.77921569099163712
30
0
10
0.60347854239293552
20
-0.91769575963980177
30
0
10
0.684988566062672
20
-1.0331667760275518
30
0
10
0.84650125042127655
20
-1.1822462381357064
30
0
10
0.93825769768802669
20
-1.2492745979279367
30
0
10
1.1385039345056482
20
-1.3219572300903475
30
0
10
1.2103512029594299
20
-1.3388571827113878
30
0
10
1.2920847960861561
20
-1.3492594262139703
30
0
10
1.3001286046523206
20
-1.3503377947790531
30
0
10
1.320487345377191
20
-1.3521882896618733
30
0
0
ARC
5
121
100
AcDbEntity
8
0
100
AcDbCircle
10
0.55545706341638712
20
-0.76452105968432527
30
0
40
0.025000000000000005
210
-0
220
0
230
1
100
AcDbArc
50
-5.5327176445905923
51
216
0
SPLINE
5
122
100
AcDbEntity
8
0
100
AcDbSpline
70
0
71
3
72
14
73
10
74
0
42
0.000000001
43
0.0000000001
44
0.0000000001
40
1.5572490288831544
40
1.5572490288831544
40
1.5572490288831544
40
1.5572490288831544
40
2.3945086289510105
40
2.3945086289510105
40
3.6754681540801508
40
3.6754681540801508
40
4.8560956179367913
40
4.8560956179367913
40
6.1464438099936274
40
6.1464438099936274
40
6.1464438099936274
40
6.1464438099936274
10
1.3400376570938668
20
-1.3328162204784126
30
0
10
1.276707186186649
20
-1.3293233103404223
30
0
10
1.2423614315047298
20
-1.3243071250778267
30
0
10
1.1093375308228157
20
-1.2947831134665384
30
0
10
1.0160011821751942
20
-1.2619534273863489
30
0
10
0.82714497097126238
20
-1.1353596962217183
30
0
10
0.75554972776998952
20
-1.0617904278785608
30
0
10
0.64728577317217995
20
-0.92238781154447969
30
0
10
0.60256835553993804
20
-0.84256541537091068
30
0
10
0.58034059604696486
20
-0.7669314131486431
30
0
0
ARC
5
123
100
AcDbEntity
8
0
100
AcDbCircle
10
-1.8358018517423847e-15
20
1.853285678901836e-14
30
0
40
1.890000000000009
210
0
220
0
230
1
100
AcDbArc
50
315.15479964573137
51
323.32043936800335
0
SPLINE
5
124
100
AcDbEntity
8
0
100
AcDbSpline
70
0
71
3
72
12
73
8
74
0
42
0.000000001
43
0.0000000001
44
0.0000000001
40
0
40
0
40
0
40
0
40
1.1764048421131557
40
1.1764048421131557
40
1.949934063580689
40
1.949934063580689
40
2.5265427400552509
40
2.5265427400552509
40
2.5265427400552509
40
2.5265427400552509
10
0.65053823869162375
20
-0.68589357775095106
30
0
10
0.73960796534970175
20
-0.81199255906720524
30
0
10
0.83817811204616988
20
-0.91329095868190191
30
0
10
1.0210234731485575
20
-1.0352688548533482
30
0
10
1.1221357918949335
20
-1.0871181135672818
30
0
10
1.3619827494077383
20
-1.133518945155052
30
0
10
1.439509111612123
20
-1.1340439407925265
30
0
10
1.5157588066593961
20
-1.1289708765218378
30
0
0
ARC
5
125
100
AcDbEntity
8
0
100
AcDbCircle
10
0.6682159082212874
20
-0.6682159082212874
30
0
40
0.024999999999999977
210
0
220
-0
230
1
100
AcDbArc
50
3.4672823554092149
51
225
0
SPLINE
5
126
100
AcDbEntity
8
0
100
AcDbSpline
70
0
71
3
72
16
73
12
74
0
42
0.000000001
43
0.0000000001
44
0.0000000001
40
1.1889765315992435
40
1.1889765315992435
40
1.1889765315992435
40
1.1889765315992435
40
2.0009955464201048
40
2.0009955464201048
40
4.9522854366815006
40
4.9522854366815006
40
7.9387863852838541
40
7.9387863852838541
40
10.586316443773516
40
10.586316443773516
40
12.713915057481783
40
12.713915057481783
40
12.713915057481783
40
12.713915057481783
10
1.5320379623175207
20
-1.1067789671013633
30
0
10
1.4914818995658019
20
-1.1109293436950016
30
0
10
1.4767126436232394
20
-1.1113184032324073
30
0
10
1.3526424020661136
20
-1.1135865448974964
30
0
10
1.2470159047219047
20
-1.1000995835221081
30
0
10
1.0228908905823191
20
-1.0111150884721776
30
0
10
0.939310479009557
20
-0.94899779572608411
30
0
10
0.84568583142781284
20
-0.87034895716115201
30
0
10
0.80395687392355641
20
-0.8285589989416785
30
0
10
0.73934819356775805
20
-0.74793364743919211
30
0
10
0.71285877068842729
20
-0.7082104993475633
30
0
10
0.69317014562807633
20
-0.66670394411933176
30
0
0
ARC
5
127
100
AcDbEntity
8
0
100
AcDbCircle
10
-1.8358018517423847e-15
20
1.853285678901836e-14
30
0
40
1.8900000000000072
210
0
220
0
230
1
100
AcDbArc
50
324.15479964573132
51
332.32043936800341
0
SPLINE
5
128
100
AcDbEntity
8
0
100
AcDbSpline
70
0
71
3
72
14
73
10
74
0
42
0.000000001
43
0.0000000001
44
0.0000000001
40
0
40
0
40
0
40
0
40
1.1764048421129834
40
1.1764048421129834
40
1.9499340635774021
40
1.9499340635774021
40
2.4062260952637038
40
2.4062260952637038
40
2.4229565621163673
40
2.4229565621163673
40
2.4229565621163673
40
2.4229565621163673
10
0.74982642837701352
20
-0.57568248827576085
30
0
10
0.8575257855815035
20
-0.68629540684169699
30
0
10
0.97072893115751169
20
-0.77092688689468891
30
0
10
1.1704047093842884
20
-0.86279971650428477
30
0
10
1.2783831787502917
20
-0.8981931733125903
30
0
10
1.5007784023677517
20
-0.90576193165840246
30
0
10
1.5839309056117223
20
-0.89758970426980511
30
0
10
1.6677840805276618
20
-0.87928747003853869
30
0
10
1.6707471379279979
20
-0.87862732394170273
30
0
10
1.6737072556065793
20
-0.87795445356231061
30
0
0
ARC
5
129
100
AcDbEntity
8
0
100
AcDbCircle
10
0.76452105968432527
20
-0.55545706341638712
30
0
40
0.024999999999999942
210
0
220
-0
230
1
100
AcDbArc
50
12.467282355409326
51
234.00000000000023
0
SPLINE
5
130
100
AcDbEntity
8
0
100
AcDbSpline
70
0
71
3
72
14
73
10
74
0
42
0.000000001
43
0.0000000001
44
0.0000000001
40
0.64370541502092604
40
0.64370541502092604
40
0.64370541502092604
40
0.64370541502092604
40
1.2764487888644205
40
1.2764487888644205
40
2.3360517872980857
40
2.3360517872980857
40
3.3286631515342977
40
3.3286631515342977
40
4.4804646349492669
40
4.4804646349492669
40
4.4804646349492669
40
4.4804646349492669
10
1.6863144083664288
20
-0.85348914236547924
30
0
10
1.6338186191052559
20
-0.86740140589832238
30
0
10
1.6013188093255986
20
-0.87366084585458026
30
0
10
1.4647467372368161
20
-0.88893064625559459
30
0
10
1.3645168442533626
20
-0.88713199027994749
30
0
10
1.1458330198271063
20
-0.82779331582896953
30
0
10
1.0549800169688694
20
-0.78074093788282184
30
0
10
0.90581956169419509
20
-0.68200677767463547
30
0
10
0.83512852544289717
20
-0.61758633930779339
30
0
10
0.78893154572400404
20
-0.550060011322269
30
0
0
ARC
5
131
100
AcDbEntity
8
0
100
AcDbCircle
10
-1.8358018517423847e-15
20
1.853285678901836e-14
30
0
40
1.8900000000000048
210
0
220
0
230
1
100
AcDbArc
50
333.15479964573132
51
341.32043936800329
0
SPLINE
5
132
100
AcDbEntity
8
0
100
AcDbSpline
70
0
71
3
72
14
73
10
74
0
42
0.000000001
43
0.0000000001
44
0.0000000001
40
0
40
0
40
0
40
0
40
1.1764048421138689
40
1.1764048421138689
40
1.9499340635777664
40
1.9499340635777664
40
2.3026591416707038
40
2.3026591416707038
40
2.4009888882348149
40
2.4009888882348149
40
2.4009888882348149
40
2.4009888882348149
10
0.83065140286451911
20
-0.45129618535858101
30
0
10
0.95432847500747842
20
-0.54369938401596429
30
0
10
1.0793771823192655
20
-0.6095800365925258
30
0
10
1.2909666973245499
20
-0.66908558566692578
30
0
10
1.4031525290344713
20
-0.68715173619879999
30
0
10
1.6053960114924219
20
-0.66213728622257828
30
0
10
1.6681059254121018
20
-0.64774145172979181
30
0
10
1.7456788531329512
20
-0.62222317078895972
30
0
10
1.7603495190797651
20
-0.617360506849157
30
0
10
1.7904434772048128
20
-0.60531987819230149
30
0
0
ARC
5
133
100
AcDbEntity
8
0
100
AcDbCircle
10
0.84200116535800773
20
-0.42902102225387179
30
0
40
0.025000000000000026
210
0
220
-0
230
1
100
AcDbArc
50
21.46728235540915
51
243.00000000000014
0
SPLINE
5
134
100
AcDbEntity
8
0
100
AcDbSpline
70
0
71
3
72
14
73
10
74
0
42
0.000000001
43
0.0000000001
44
0.0000000001
40
0.38089965713442914
40
0.38089965713442914
40
0.38089965713442914
40
0.38089965713442914
40
1.1815665718617259
40
1.1815665718617259
40
2.1612430471278854
40
2.1612430471278854
40
3.0508005117851855
40
3.0508005117851855
40
3.9331082893192417
40
3.9331082893192417
40
3.9331082893192417
40
3.9331082893192417
10
1.7990681971246987
20
-0.57918358237649181
30
0
10
1.7367906978897139
20
-0.6067072424628529
30
0
10
1.6980077488834036
20
-0.61993107981436746
30
0
10
1.5604757152258826
20
-0.65186623977836322
30
0
10
1.463556269029602
20
-0.66347612014179091
30
0
10
1.2378173867471625
20
-0.63218404969121145
30
0
10
1.1404009218445006
20
-0.59772406019457647
30
0
10
0.98597481992971092
20
-0.52151126629165589
30
0
10
0.91603069250192637
20
-0.47359564681838201
30
0
10
0.86526683285052097
20
-0.41987177550193761
30
0
0
ARC
5
135
100
AcDbEntity
8
0
100
AcDbCircle
10
-1.8358018517423847e-15
20
1.853285678901836e-14
30
0
40
1.8900000000000021
210
0
220
0
230
1
100
AcDbArc
50
342.1547996457312
51
350.32043936800335
0
SPLINE
5
136
100
AcDbEntity
8
0
100
AcDbSpline
70
0
71
3
72
12
73
8
74
0
42
0.000000001
43
0.0000000001
44
0.0000000001
40
0
40
0
40
0
40
0
40
1.176404842113123
40
1.176404842113123
40
1.949934063576598
40
1.949934063576598
40
2.532518157359775
40
2.532518157359775
40
2.532518157359775
40
2.532518157359775
10
0.89102298303954652
20
-0.31579747259170421
30
0
10
1.0276324301439785
20
-0.38771567792082601
30
0
10
1.1614475850046331
20
-0.4332233027092347
30
0
10
1.3797408007040537
20
-0.45889634714277988
30
0
10
1.4933716072576433
20
-0.4591903428138841
30
0
10
1.7291813922749284
20
-0.39134660777439623
30
0
10
1.7999524650126344
20
-0.35542922561247076
30
0
10
1.8630930382530397
20
-0.3177803184796994
30
0
0
ARC
5
137
100
AcDbEntity
8
0
100
AcDbCircle
10
0.89874840789892019
20
-0.2920210596843254
30
0
40
0.024999999999999998
210
0
220
-0
230
1
100
AcDbArc
50
30.467282355409253
51
252
0
SPLINE
5
138
100
AcDbEntity
8
0
100
AcDbSpline
70
0
71
3
72
14
73
10
74
0
42
0.000000001
43
0.0000000001
44
0.0000000001
40
0.12318994650663825
40
0.12318994650663825
40
0.12318994650663825
40
0.12318994650663825
40
0.77622633033300725
40
0.77622633033300725
40
1.3179001150711913
40
1.3179001150711913
40
1.8828679430546771
40
1.8828679430546771
40
2.3210927216450905
40
2.3210927216450905
40
2.3210927216450905
40
2.3210927216450905
10
1.8675229561047308
20
-0.29061660038928955
30
0
10
1.7904830028695857
20
-0.34034756875742989
30
0
10
1.6950025436655236
20
-0.39146270070518785
30
0
10
1.4448379165021441
20
-0.43650958936358292
30
0
10
1.3458318199819963
20
-0.42877659443101557
30
0
10
1.2061052655047235
20
-0.40763600297923047
30
0
10
1.1339713132308715
20
-0.38841761457267965
30
0
10
1.0159606554137957
20
-0.34039318841199673
30
0
10
0.96421501197741433
20
-0.3131945150841991
30
0
10
0.92029637889627913
20
-0.27934490309421695
30
0
0
ARC
5
139
100
AcDbEntity
8
0
100
AcDbCircle
10
-1.8358018517423847e-15
20
1.853285678901836e-14
30
0
40
1.8899999999999992
210
0
220
0
230
1
100
AcDbArc
50
351.15479964573115
51
359.32043936800341
0
SPLINE
5
140
100
AcDbEntity
8
0
100
AcDbSpline
70
0
71
3
72
12
73
8
74
0
42
0.000000001
43
0.0000000001
44
0.0000000001
40
0
40
0
40
0
40
0
40
1.176404842113524
40
1.176404842113524
40
1.9213303395730383
40
1.9213303395730383
40
2.6563578403876424
40
2.6563578403876424
40
2.6563578403876424
40
2.6563578403876424
10
0.92945462023639946
20
-0.17252277797789664
30
0
10
1.0756326643339598
20
-0.22218512508079113
30
0
10
1.214919293523794
20
-0.24619917332756228
30
0
10
1.4313194581925368
20
-0.237536522410703
30
0
10
1.5331957940785084
20
-0.22143833781157424
30
0
10
1.7594238733291856
20
-0.1243305902172093
30
0
10
1.8411327495780134
20
-0.063029088353043286
30
0
10
1.8898670654481846
20
-0.022415952673715978
30
0
0
ARC
5
141
100
AcDbEntity
8
0
100
AcDbCircle
10
0.9333654818624052
20
-0.14783056946301823
30
0
40
0.024999999999999998
210
0
220
-0
230
1
100
AcDbArc
50
39.467282355409431
51
261.00000000000006
0
SPLINE
5
142
100
AcDbEntity
8
0
100
AcDbSpline
70
0
71
3
72
14
73
10
74
0
42
0.000000001
43
0.0000000001
44
0.0000000001
40
0.062278990974074529
40
0.062278990974074529
40
0.062278990974074529
40
0.062278990974074529
40
0.57143508917494656
40
0.57143508917494656
40
0.978005286493981
40
0.978005286493981
40
1.4018546257154867
40
1.4018546257154867
40
1.7306418886153152
40
1.7306418886153152
40
1.7306418886153152
40
1.7306418886153152
10
1.8899931019521168
20
0.0051063268006965182
30
0
10
1.8325385266325274
20
-0.046341857777545702
30
0
10
1.7403253895259028
20
-0.11979036982909798
30
0
10
1.49518220654863
20
-0.20514247291896712
30
0
10
1.3961788095019076
20
-0.21297599682020635
30
0
10
1.254895243843261
20
-0.21392952815981148
30
0
10
1.1806779315597116
20
-0.20622710328239582
30
0
10
1.0566606987694647
20
-0.17725707748763009
30
0
10
1.0013204780972418
20
-0.15849236264122052
30
0
10
0.95266517380503923
20
-0.13193963207973558
30
0
0
ARC
5
143
100
AcDbEntity
8
0
100
AcDbCircle
10
-1.8358018517423847e-15
20
1.853285678901836e-14
30
0
40
1.8899999999999968
210
0
220
-0
230
1
100
AcDbArc
50
0.15479964573085755
51
8.3204393680031998
0
SPLINE
5
144
100
AcDbEntity
8
0
100
AcDbSpline
70
0
71
3
72
12
73
8
74
0
42
0.000000001
43
0.0000000001
44
0.0000000001
40
0
40
0
40
0
40
0
40
1.1764048421134614
40
1.1764048421134614
40
1.949934063579172
40
1.949934063579172
40
2.5278422110852916
40
2.5278422110852916
40
2.5278422110852916
40
2.5278422110852916
10
0.94499999999999995
20
-0.025000000000000057
30
0
10
1.0971472525078376
20
-0.051183637071086821
30
0
10
1.2384756569503599
20
-0.053112803210345776
30
0
10
1.4540182492317886
20
-0.010073006004092933
30
0
10
1.5621784179150593
20
0.024761237806786972
30
0
10
1.7647809826491025
20
0.16167995907772129
30
0
10
1.8201981857533633
20
0.21647793015132075
30
0
10
1.8701062933827997
20
0.27350036828137597
30
0
0
ARC
5
145
100
AcDbEntity
8
0
100
AcDbCircle
10
0.94499999999999995
20
-5.786456125971244e-17
30
0
40
0.025000000000000005
210
0
220
-0
230
1
100
AcDbArc
50
48.467282355409154
51
270
0
SPLINE
5
146
100
AcDbEntity
8
0
100
AcDbSpline
70
0
71
3
72
14
73
10
74
0
42
0.000000001
43
0.0000000001
44
0.0000000001
40
0.18482302240856185
40
0.18482302240856185
40
0.18482302240856185
40
0.18482302240856185
40
0.82527920831064105
40
0.82527920831064105
40
1.2681792699877898
40
1.2681792699877898
40
1.6149121871943084
40
1.6149121871943084
40
1.9148401243973991
40
1.9148401243973991
40
1.9148401243973991
40
1.9148401243973991
10
1.8659253451019557
20
0.30070351927792227
30
0
10
1.8168602716954771
20
0.240451263113939
30
0
10
1.7677578762009929
20
0.1894953966107385
30
0
10
1.6386166835010556
20
0.098516423829937194
30
0
10
1.556382916398974
20
0.04960957086866663
30
0
10
1.3425685839191572
20
-0.0087032986860757795
30
0
10
1.2479197644162114
20
-0.018073158876360476
30
0
10
1.0910795631137995
20
-0.013574763393165205
30
0
10
1.0211447345997582
20
-0.0025235547035043445
30
0
10
0.96157619042027587
20
0.018714430559082805
30
0
0
ARC
5
147
100
AcDbEntity
8
0
100
AcDbCircle
10
-1.8358018517423847e-15
20
1.853285678901836e-14
30
0
40
1.8899999999999932
210
0
220
-0
230
1
100
AcDbArc
50
9.1547996457311651
51
17.32043936800321
0
SPLINE
5
148
100
AcDbEntity
8
0
100
AcDbSpline
70
0
71
3
72
14
73
10
74
0
42
0.000000001
43
0.0000000001
44
0.0000000001
40
0
40
0
40
0
40
0
40
1.1764048421133579
40
1.1764048421133579
40
1.9499340635633762
40
1.9499340635633762
40
2.3663186996379237
40
2.3663186996379237
40
2.409476216072771
40
2.409476216072771
40
2.409476216072771
40
2.409476216072771
10
0.93727634348841093
20
0.12313836094813967
30
0
10
1.091646434101996
20
0.12107816195205737
30
0
10
1.2315366394377563
20
0.14128138039319141
30
0
10
1.4376926370827365
20
0.21750957639170818
30
0
10
1.5390718983129721
20
0.26883493098342764
30
0
10
1.6964043645875027
20
0.41581089353930106
30
0
10
1.7453797873541248
20
0.47411072237078161
30
0
10
1.7918058343202776
20
0.54326052440323125
30
0
10
1.7956394184638564
20
0.54893031284687255
30
0
10
1.8042972978473781
20
0.5626822024736986
30
0
0
ARC
5
149
100
AcDbEntity
8
0
100
AcDbCircle
10
0.9333654818624052
20
0.14783056946301812
30
0
40
0.024999999999999998
210
0
220
-0
230
1
100
AcDbArc
50
57.467282355409267
51
278.99999999999989
0
SPLINE
5
150
100
AcDbEntity
8
0
100
AcDbSpline
70
0
71
3
72
16
73
12
74
0
42
0.000000001
43
0.0000000001
44
0.0000000001
40
0.88837105890808876
40
0.88837105890808876
40
0.88837105890808876
40
0.88837105890808876
40
1.9548928274045765
40
1.9548928274045765
40
4.9091571672532943
40
4.9091571672532943
40
7.689533920220379
40
7.689533920220379
40
9.5917060033698789
40
9.5917060033698789
40
11.133323996316017
40
11.133323996316017
40
11.133323996316017
40
11.133323996316017
10
1.7959123136042037
20
0.58889639313276176
30
0
10
1.7695272669160902
20
0.54348375806736926
30
0
10
1.7580487322074312
20
0.52757792102889678
30
0
10
1.6829669843547623
20
0.42587146777922974
30
0
10
1.6103682909115495
20
0.35199193775368437
30
0
10
1.4151036873337444
20
0.23299586958623153
30
0
10
1.3189791901366497
20
0.2006707064652323
30
0
10
1.1885947685327534
20
0.17051980929854804
30
0
10
1.1333936203492356
20
0.16251720373950784
30
0
10
1.035316583089178
20
0.1587169339351292
30
0
10
0.98991703978209433
20
0.16082275295009768
30
0
10
0.94681000993895359
20
0.16890768180790244
30
0
0
ARC
5
151
100
AcDbEntity
8
0
100
AcDbCircle
10
-1.8358018517423847e-15
20
1.853285678901836e-14
30
0
40
1.8899999999999906
210
0
220
-0
230
1
100
AcDbArc
50
18.154799645731195
51
26.320439368003317
0
SPLINE
5
152
100
AcDbEntity
8
0
100
AcDbSpline
70
0
71
3
72
14
73
10
74
0
42
0.000000001
43
0.0000000001
44
0.0000000001
40
0
40
0
40
0
40
0
40
1.1764048421139857
40
1.1764048421139857
40
1.949934063570262
40
1.949934063570262
40
2.3537498297368011
40
2.3537498297368011
40
2.4057707937865729
40
2.4057707937865729
40
2.4057707937865729
40
2.4057707937865729
10
0.90647383275829396
20
0.26824464677694637
30
0
10
1.0592656575218569
20
0.29035861479257008
30
0
10
1.1942731026264992
20
0.33219674752546469
30
0
10
1.3859662607826664
20
0.43973635114449511
30
0
10
1.4780683206891723
20
0.50628901594848086
30
0
10
1.6090731018659832
20
0.67427433580460561
30
0
10
1.6473479388830337
20
0.73738277608172409
30
0
10
1.6825842670634263
20
0.81208418470618549
30
0
10
1.6861490086532165
20
0.81954430395828004
30
0
10
1.694060514719536
20
0.83800893340595328
30
0
0
ARC
5
153
100
AcDbEntity
8
0
100
AcDbCircle
10
0.89874840789892019
20
0.29202105968432523
30
0
40
0.025000000000000026
210
0
220
-0
230
1
100
AcDbArc
50
66.467282355409651
51
288.00000000000023
0
SPLINE
5
154
100
AcDbEntity
8
0
100
AcDbSpline
70
0
71
3
72
16
73
12
74
0
42
0.000000001
43
0.0000000001
44
0.0000000001
40
1.8055104087474689
40
1.8055104087474689
40
1.8055104087474689
40
1.8055104087474689
40
2.589183776967614
40
2.589183776967614
40
5.2022170009210118
40
5.2022170009210118
40
7.8578567355969611
40
7.8578567355969611
40
10.139489509226067
40
10.139489509226067
40
11.97658972109739
40
11.97658972109739
40
11.97658972109739
40
11.97658972109739
10
1.6816779606542658
20
0.86258868335359618
30
0
10
1.6665028909806723
20
0.82337750890915062
30
0
10
1.6592999001136244
20
0.80818089133433557
30
0
10
1.6034587449233428
20
0.6952205773375798
30
0
10
1.5432117528574956
20
0.6082972101824653
30
0
10
1.3631251389202308
20
0.45111021925904093
30
0
10
1.2698531720311625
20
0.40491914219362807
30
0
10
1.1566197153890758
20
0.35743750252457168
30
0
10
1.1011124240992309
20
0.33962075960559046
30
0
10
1.0010722141243702
20
0.31909459912756177
30
0
10
0.95417203127191319
20
0.31365455366905337
30
0
10
0.90873022473066611
20
0.31494186535815455
30
0
0
ARC
5
155
100
AcDbEntity
8
0
100
AcDbCircle
10
-1.8358018517423847e-15
20
1.853285678901836e-14
30
0
40
1.8899999999999881
210
0
220
-0
230
1
100
AcDbArc
50
27.154799645731199
51
35.320439368003314
0
SPLINE
5
156
100
AcDbEntity
8
0
100
AcDbSpline
70
0
71
3
72
14
73
10
74
0
42
0.000000001
43
0.0000000001
44
0.0000000001
40
0
40
0
40
0
40
0
40
1.1764048421130218
40
1.1764048421130218
40
1.9499340635813165
40
1.9499340635813165
40
2.3537498297577564
40
2.3537498297577564
40
2.4066510111533805
40
2.4066510111533805
40
2.4066510111533805
40
2.4066510111533805
10
0.85335092785149635
20
0.40674585914916239
30
0
10
1.000802244952161
20
0.45248947489185948
30
0
10
1.1276025984632245
20
0.51493232823576907
30
0
10
1.3001127953844096
20
0.65113535753152707
30
0
10
1.3806697955826126
20
0.73127658506463789
30
0
10
1.4837829968662173
20
0.9176873897375285
30
0
10
1.5117142720318717
20
0.98600636404563013
30
0
10
1.5348755456969718
20
1.065453366425281
30
0
10
1.5372532189616748
20
1.0734969190402761
30
0
10
1.5421103394547886
20
1.092701103205556
30
0
0
ARC
5
157
100
AcDbEntity
8
0
100
AcDbCircle
10
0.84200116535800773
20
0.42902102225387162
30
0
40
0.024999999999999953
210
0
220
-0
230
1
100
AcDbArc
50
75.467282355409623
51
296.99999999999989
0
SPLINE
5
158
100
AcDbEntity
8
0
100
AcDbSpline
70
0
71
3
72
14
73
10
74
0
42
0.000000001
43
0.0000000001
44
0.0000000001
40
2.1052948762483612
40
2.1052948762483612
40
2.1052948762483612
40
2.1052948762483612
40
2.859028873717925
40
2.859028873717925
40
3.5774809443418096
40
3.5774809443418096
40
4.2147795152588188
40
4.2147795152588188
40
4.7606090183650025
40
4.7606090183650025
40
4.7606090183650025
40
4.7606090183650025
10
1.52603511514385
20
1.1150411774225546
30
0
10
1.5103288510731241
20
1.042131196297764
30
0
10
1.4944969690385848
20
0.99168991358771774
30
0
10
1.432836761474388
20
0.8594697252702227
30
0
10
1.3841921792021787
20
0.77631622480925577
30
0
10
1.2203868416663914
20
0.61528260109453148
30
0
10
1.1331067777214061
20
0.55776879085907638
30
0
10
0.9843818481802411
20
0.48522974159878518
30
0
10
0.91379152941806618
20
0.46170393530972387
30
0
10
0.84827448548680318
20
0.45322113495116356
30
0
0
ARC
5
159
100
AcDbEntity
8
0
100
AcDbCircle
10
-1.8358018517423847e-15
20
1.853285678901836e-14
30
0
40
1.8899999999999852
210
0
220
-0
230
1
100
AcDbArc
50
36.154799645731252
51
44.320439368003399
0
SPLINE
5
160
100
AcDbEntity
8
0
100
AcDbSpline
70
0
71
3
72
14
73
10
74
0
42
0.000000001
43
0.0000000001
44
0.0000000001
40
0
40
0
40
0
40
0
40
1.1764048421135553
40
1.1764048421135553
40
1.9499340635859843
40
1.9499340635859843
40
2.3539868556250099
40
2.3539868556250099
40
2.4046699676371901
40
2.4046699676371901
40
2.4046699676371901
40
2.4046699676371901
10
0.77921569099163723
20
0.53523163855701339
30
0
10
0.91769575963970862
20
0.60347854239288978
30
0
10
1.0331667760274805
20
0.68498856606260017
30
0
10
1.1822462381357841
20
0.84650125042135649
30
0
10
1.2492745979279225
20
0.93825769768807499
30
0
10
1.3219718627286565
20
1.1385442485485719
30
0
10
1.3388770492619591
20
1.2104354703136297
30
0
10
1.3492695186876784
20
1.2921731773838865
30
0
10
1.3503427194163842
20
1.3001827844371514
30
0
10
1.3521882896618735
20
1.320487345377191
30
0
0
ARC
5
161
100
AcDbEntity
8
0
100
AcDbCircle
10
0.76452105968432538
20
0.55545706341638712
30
0
40
0.025000000000000005
210
0
220
-0
230
1
100
AcDbArc
50
84.467282355409381
51
306
0
SPLINE
5
162
100
AcDbEntity
8
0
100
AcDbSpline
70
0
71
3
72
14
73
10
74
0
42
0.000000001
43
0.0000000001
44
0.0000000001
40
1.5569251871349374
40
1.5569251871349374
40
1.5569251871349374
40
1.5569251871349374
40
2.395792672911381
40
2.395792672911381
40
3.6785258510459302
40
3.6785258510459302
40
4.8669343612053648
40
4.8669343612053648
40
6.1617036418729239
40
6.1617036418729239
40
6.1617036418729239
40
6.1617036418729239
10
1.3328162204784129
20
1.340037657093867
30
0
10
1.3293108288697641
20
1.2764808827940144
30
0
10
1.3242678409925266
20
1.2419818822074462
30
0
10
1.2944779044363208
20
1.1082753491336053
30
0
10
1.2613752921161061
20
1.0150117229798541
30
0
10
1.1350370999274353
20
0.82678188191030877
30
0
10
1.0614260821168044
20
0.7552009490043009
30
0
10
0.92206113737379869
20
0.64710424883406847
30
0
10
0.8424131344307223
20
0.60252360233351754
30
0
10
0.76693141314864333
20
0.58034059604696486
30
0
0
ARC
5
163
100
AcDbEntity
8
0
100
AcDbCircle
10
-1.8358018517423847e-15
20
1.853285678901836e-14
30
0
40
1.889999999999983
210
0
220
-0
230
1
100
AcDbArc
50
45.154799645731309
51
53.320439368003413
0
SPLINE
5
164
100
AcDbEntity
8
0
100
AcDbSpline
70
0
71
3
72
12
73
8
74
0
42
0.000000001
43
0.0000000001
44
0.0000000001
40
0
40
0
40
0
40
0
40
1.1764048421131619
40
1.1764048421131619
40
1.9499340635758906
40
1.9499340635758906
40
2.5189898232833183
40
2.5189898232833183
40
2.5189898232833183
40
2.5189898232833183
10
0.68589357775095106
20
0.65053823869162375
30
0
10
0.81199255906720591
20
0.73960796534970208
30
0
10
0.91329095868190235
20
0.83817811204617043
30
0
10
1.0352688548530471
20
1.0210234731481058
30
0
10
1.0871181135671961
20
1.1221357918944992
30
0
10
1.1332593704707228
20
1.3606410019399962
30
0
10
1.1341455245469869
20
1.4379822769642507
30
0
10
1.1289708765218378
20
1.5157588066593959
30
0
0
ARC
5
165
100
AcDbEntity
8
0
100
AcDbCircle
10
0.6682159082212874
20
0.6682159082212874
30
0
40
0.024999999999999977
210
0
220
0
230
1
100
AcDbArc
50
93.467282355409282
51
315
0
SPLINE
5
166
100
AcDbEntity
8
0
100
AcDbSpline
70
0
71
3
72
16
73
12
74
0
42
0.000000001
43
0.0000000001
44
0.0000000001
40
1.1889765315959844
40
1.1889765315959844
40
1.1889765315959844
40
1.1889765315959844
40
2.0009955464142712
40
2.0009955464142712
40
4.9522854367122893
40
4.9522854367122893
40
7.9387863854279734
40
7.9387863854279734
40
10.586316444025421
40
10.586316444025421
40
12.713915057821637
40
12.713915057821637
40
12.713915057821637
40
12.713915057821637
10
1.1067789671013633
20
1.5320379623175202
30
0
10
1.1109293436950221
20
1.4914818995656045
30
0
10
1.1113184032324359
20
1.4767126436228273
30
0
10
1.11358654489748
20
1.3526424020628169
30
0
10
1.1000995835210499
20
1.2470159047191947
30
0
10
1.0111150884720297
20
1.0228908905819907
30
0
10
0.94899779572581455
20
0.93931047900921449
30
0
10
0.87034895716104843
20
0.84568583142770792
30
0
10
0.8285589989416009
20
0.80395687392348758
30
0
10
0.74793364743911861
20
0.73934819356770476
30
0
10
0.70821049934753444
20
0.71285877068841319
30
0
10
0.66670394411933176
20
0.693170145628076
30
0
0
ARC
5
167
100
AcDbEntity
8
0
100
AcDbCircle
10
-1.8358018517423847e-15
20
1.853285678901836e-14
30
0
40
1.889999999999981
210
0
220
-0
230
1
100
AcDbArc
50
54.154799645731366
51
62.320439368003456
0
SPLINE
5
168
100
AcDbEntity
8
0
100
AcDbSpline
70
0
71
3
72
14
73
10
74
0
42
0.000000001
43
0.0000000001
44
0.0000000001
40
0
40
0
40
0
40
0
40
1.1764048421136182
40
1.1764048421136182
40
1.9499340635709632
40
1.9499340635709632
40
2.4062260952501653
40
2.4062260952501653
40
2.4229565621024394
40
2.4229565621024394
40
2.4229565621024394
40
2.4229565621024394
10
0.57568248827576096
20
0.74982642837701341
30
0
10
0.68629540684175661
20
0.85752578558156156
30
0
10
0.77092688689472155
20
0.97072893115757897
30
0
10
0.86279971650391274
20
1.1704047093834808
30
0
10
0.89819317331258841
20
1.2783831787496105
30
0
10
0.90576193165839347
20
1.5007784023678452
30
0
10
0.89758970426979445
20
1.5839309056117998
30
0
10
0.8792874700385287
20
1.6677840805277075
30
0
10
0.87862732394169785
20
1.670747137928021
30
0
10
0.87795445356231094
20
1.6737072556065788
30
0
0
ARC
5
169
100
AcDbEntity
8
0
100
AcDbCircle
10
0.55545706341638723
20
0.76452105968432515
30
0
40
0.024999999999999994
210
0
220
0
230
1
100
AcDbArc
50
102.46728235540903
51
324.00000000000023
0
SPLINE
5
170
100
AcDbEntity
8
0
100
AcDbSpline
70
0
71
3
72
14
73
10
74
0
42
0.000000001
43
0.0000000001
44
0.0000000001
40
0.64370541502120304
40
0.64370541502120304
40
0.64370541502120304
40
0.64370541502120304
40
1.2764487888635647
40
1.2764487888635647
40
2.3360517873421305
40
2.3360517873421305
40
3.3286631516481577
40
3.3286631516481577
40
4.4804646351469355
40
4.4804646351469355
40
4.4804646351469355
40
4.4804646351469355
10
0.85348914236547946
20
1.6863144083664288
30
0
10
0.86740140589826975
20
1.6338186191054549
30
0
10
0.87366084585449943
20
1.6013188093259754
30
0
10
0.88893064625596152
20
1.4647467372341232
30
0
10
0.88713199027917866
20
1.364516844250804
30
0
10
0.82779331582915272
20
1.1458330198275217
30
0
10
0.78074093788303489
20
1.0549800169692671
30
0
10
0.68200677767483786
20
0.90581956169441213
30
0
10
0.6175863393078973
20
0.83512852544296745
30
0
10
0.55006001132226934
20
0.78893154572400404
30
0
0
ARC
5
171
100
AcDbEntity
8
0
100
AcDbCircle
10
-1.8358018517423847e-15
20
1.853285678901836e-14
30
0
40
1.8899999999999793
210
0
220
-0
230
1
100
AcDbArc
50
63.154799645731437
51
71.320439368003605
0
SPLINE
5
172
100
AcDbEntity
8
0
100
AcDbSpline
70
0
71
3
72
14
73
10
74
0
42
0.000000001
43
0.0000000001
44
0.0000000001
40
0
40
0
40
0
40
0
40
1.176404842113715
40
1.176404842113715
40
1.9499340635815217
40
1.9499340635815217
40
2.3026591416772488
40
2.3026591416772488
40
2.4009888882421473
40
2.4009888882421473
40
2.4009888882421473
40
2.4009888882421473
10
0.45129618535858101
20
0.83065140286451888
30
0
10
0.54369938401595164
20
0.95432847500746254
30
0
10
0.60958003659251314
20
1.0793771823192324
30
0
10
0.6690855856670479
20
1.2909666973249767
30
0
10
0.68715173619875292
20
1.4031525290348235
30
0
10
0.66213728622258261
20
1.6053960114923995
30
0
10
0.64774145172980013
20
1.6681059254120747
30
0
10
0.62222317078896261
20
1.7456788531329426
30
0
10
0.61736050684915911
20
1.7603495190797618
30
0
10
0.60531987819230149
20
1.7904434772048123
30
0
0
ARC
5
173
100
AcDbEntity
8
0
100
AcDbCircle
10
0.42902102225387179
20
0.84200116535800751
30
0
40
0.025000000000000057
210
0
220
0
230
1
100
AcDbArc
50
111.46728235540941
51
333.00000000000011
0
SPLINE
5
174
100
AcDbEntity
8
0
100
AcDbSpline
70
0
71
3
72
16
73
12
74
0
42
0.000000001
43
0.0000000001
44
0.0000000001
40
0.41487958000896219
40
0.41487958000896219
40
0.41487958000896219
40
0.41487958000896219
40
1.1191873264229608
40
1.1191873264229608
40
2.6480046547492542
40
2.6480046547492542
40
4.0828157648101078
40
4.0828157648101078
40
5.0087295309804265
40
5.0087295309804265
40
5.7623116879398468
40
5.7623116879398468
40
5.7623116879398468
40
5.7623116879398468
10
0.57918358237649181
20
1.7990681971246985
30
0
10
0.59908753842801832
20
1.7540317229100513
30
0
10
0.60754368275438797
20
1.7306701506596243
30
0
10
0.64630623376422147
20
1.6029202602034693
30
0
10
0.66207221776147129
20
1.5017126081295629
30
0
10
0.64191425596104557
20
1.2764976627771243
30
0
10
0.61146801759578395
20
1.1799670569744751
30
0
10
0.55784840223128429
20
1.0563037136808411
30
0
10
0.53231993970994707
20
1.0084960424124521
30
0
10
0.47880788444211497
20
0.92922646752942395
30
0
10
0.45101148737977564
20
0.89469084725262382
30
0
10
0.41987177550193761
20
0.86526683285052097
30
0
0
ARC
5
175
100
AcDbEntity
8
0
100
AcDbCircle
10
-1.8358018517423847e-15
20
1.853285678901836e-14
30
0
40
1.8899999999999775
210
0
220
-0
230
1
100
AcDbArc
50
72.154799645731515
51
80.320439368003733
0
SPLINE
5
176
100
AcDbEntity
8
0
100
AcDbSpline
70
0
71
3
72
12
73
8
74
0
42
0.000000001
43
0.0000000001
44
0.0000000001
40
0
40
0
40
0
40
0
40
1.1764048421129891
40
1.1764048421129891
40
1.9499340635786715
40
1.9499340635786715
40
2.5325181573645645
40
2.5325181573645645
40
2.5325181573645645
40
2.5325181573645645
10
0.31579747259170421
20
0.8910229830395463
30
0
10
0.38771567792081785
20
1.027632430143963
30
0
10
0.43322330270923276
20
1.1614475850046182
30
0
10
0.45889634714281136
20
1.3797408007043204
30
0
10
0.45919034281382232
20
1.4933716072578451
30
0
10
0.391346607774404
20
1.7291813922749117
30
0
10
0.35542922561247486
20
1.7999524650126277
30
0
10
0.31778031847969945
20
1.8630930382530397
30
0
0
ARC
5
177
100
AcDbEntity
8
0
100
AcDbCircle
10
0.2920210596843254
20
0.89874840789892008
30
0
40
0.024999999999999977
210
0
220
0
230
1
100
AcDbArc
50
120.46728235540925
51
341.99999999999977
0
SPLINE
5
178
100
AcDbEntity
8
0
100
AcDbSpline
70
0
71
3
72
14
73
10
74
0
42
0.000000001
43
0.0000000001
44
0.0000000001
40
0.1231899465066441
40
0.1231899465066441
40
0.1231899465066441
40
0.1231899465066441
40
0.77622633033311994
40
0.77622633033311994
40
1.3179001150721041
40
1.3179001150721041
40
1.8828679430578565
40
1.8828679430578565
40
2.3210927216501855
40
2.3210927216501855
40
2.3210927216501855
40
2.3210927216501855
10
0.29061660038928955
20
1.8675229561047304
30
0
10
0.34034756875743483
20
1.7904830028695777
30
0
10
0.39146270070518946
20
1.6950025436655154
30
0
10
0.43650958936360779
20
1.4448379165020055
30
0
10
0.42877659443098909
20
1.3458318199817996
30
0
10
0.40763600297921687
20
1.2061052655046554
30
0
10
0.38841761457266105
20
1.133971313230824
30
0
10
0.34039318841199145
20
1.0159606554137843
30
0
10
0.31319451508418922
20
0.96421501197740034
30
0
10
0.27934490309421695
20
0.92029637889627902
30
0
0
ARC
5
179
100
AcDbEntity
8
0
100
AcDbCircle
10
-1.8358018517423847e-15
20
1.853285678901836e-14
30
0
40
1.8899999999999766
210
0
220
-0
230
1
100
AcDbArc
50
81.1547996457316
51
89.320439368003647
0
SPLINE
5
180
100
AcDbEntity
8
0
100
AcDbSpline
70
0
71
3
72
12
73
8
74
0
42
0.000000001
43
0.0000000001
44
0.0000000001
40
0
40
0
40
0
40
0
40
1.1764048421134392
40
1.1764048421134392
40
1.9213303395736465
40
1.9213303395736465
40
2.6563578403893859
40
2.6563578403893859
40
2.6563578403893859
40
2.6563578403893859
10
0.17252277797789675
20
0.92945462023639946
30
0
10
0.22218512508078764
20
1.0756326643339491
30
0
10
0.24619917332756239
20
1.2149192935237849
30
0
10
0.23753652241069986
20
1.4313194581926243
30
0
10
0.22143833781154512
20
1.5331957940785752
30
0
10
0.12433059021720931
20
1.759423873329188
30
0
10
0.063029088353048782
20
1.8411327495780068
30
0
10
0.022415952673716155
20
1.8898670654481846
30
0
0
ARC
5
181
100
AcDbEntity
8
0
100
AcDbCircle
10
0.14783056946301831
20
0.9333654818624052
30
0
40
0.024999999999999998
210
0
220
0
230
1
100
AcDbArc
50
129.4672823554094
51
351.00000000000006
0
SPLINE
5
182
100
AcDbEntity
8
0
100
AcDbSpline
70
0
71
3
72
14
73
10
74
0
42
0.000000001
43
0.0000000001
44
0.0000000001
40
0.062278990974073689
40
0.062278990974073689
40
0.062278990974073689
40
0.062278990974073689
40
0.57143508917491981
40
0.57143508917491981
40
0.97800528649391438
40
0.97800528649391438
40
1.4018546257155124
40
1.4018546257155124
40
1.7306418886154311
40
1.7306418886154311
40
1.7306418886154311
40
1.7306418886154311
10
-0.0051063268006963439
20
1.8899931019521168
30
0
10
0.046341857777544924
20
1.8325385266325285
30
0
10
0.11979036982909833
20
1.7403253895259019
30
0
10
0.20514247291896537
20
1.4951822065486353
30
0
10
0.2129759968202059
20
1.3961788095019156
30
0
10
0.21392952815981217
20
1.2548952438432444
30
0
10
0.20622710328239133
20
1.180677931559696
30
0
10
0.1772570774876342
20
1.0566606987694789
30
0
10
0.15849236264122119
20
1.0013204780972429
30
0
10
0.13193963207973566
20
0.95266517380503923
30
0
0
ARC
5
183
100
AcDbEntity
8
0
100
AcDbCircle
10
-1.8358018517423847e-15
20
1.853285678901836e-14
30
0
40
1.8899999999999766
210
0
220
0
230
1
100
AcDbArc
50
90.1547996457317
51
98.32043936800396
0
SPLINE
5
184
100
AcDbEntity
8
0
100
AcDbSpline
70
0
71
3
72
12
73
8
74
0
42
0.000000001
43
0.0000000001
44
0.0000000001
40
0
40
0
40
0
40
0
40
1.1764048421135216
40
1.1764048421135216
40
1.9499340635858138
40
1.9499340635858138
40
2.5278422110992027
40
2.5278422110992027
40
2.5278422110992027
40
2.5278422110992027
10
0.025000000000000112
20
0.94499999999999995
30
0
10
0.05118363707108825
20
1.0971472525078454
30
0
10
0.053112803210344645
20
1.238475656950367
30
0
10
0.010073006003949241
20
1.4540182492325082
30
0
10
-0.024761237807119852
20
1.5621784179155582
30
0
10
-0.16167995907772589
20
1.7647809826491052
30
0
10
-0.21647793015130881
20
1.8201981857533529
30
0
10
-0.27350036828137592
20
1.8701062933827997
30
0
0
ARC
5
185
100
AcDbEntity
8
0
100
AcDbCircle
10
1.1572912251942488e-16
20
0.94499999999999995
30
0
40
0.025000000000000005
210
0
220
0
230
1
100
AcDbArc
50
-221.53271764459083
51
0
0
SPLINE
5
186
100
AcDbEntity
8
0
100
AcDbSpline
70
0
71
3
72
14
73
10
74
0
42
0.000000001
43
0.0000000001
44
0.0000000001
40
0.18482302240863049
40
0.18482302240863049
40
0.18482302240863049
40
0.18482302240863049
40
0.82527920830938772
40
0.82527920830938772
40
1.2681792699832406
40
1.2681792699832406
40
1.6149121871861909
40
1.6149121871861909
40
1.914840124386141
40
1.914840124386141
40
1.914840124386141
40
1.914840124386141
10
-0.30070351927792222
20
1.8659253451019557
30
0
10
-0.24045126311410692
20
1.8168602716956141
30
0
10
-0.189495396611089
20
1.7677578762013171
30
0
10
-0.098516423830719513
20
1.638616683502286
30
0
10
-0.049609570869171352
20
1.5563829164003686
30
0
10
0.0087032986859953004
20
1.3425685839198094
30
0
10
0.018073158876341852
20
1.2479197644166775
30
0
10
0.013574763393199638
20
1.0910795631140311
30
0
10
0.00252355470354105
20
1.021144734599861
30
0
10
-0.018714430559082746
20
0.96157619042027587
30
0
0
ARC
5
187
100
AcDbEntity
8
0
100
AcDbCircle
10
-1.8358018517423847e-15
20
1.853285678901836e-14
30
0
40
1.8899999999999761
210
0
220
0
230
1
100
AcDbArc
50
99.154799645731771
51
107.32043936800389
0
SPLINE
5
188
100
AcDbEntity
8
0
100
AcDbSpline
70
0
71
3
72
14
73
10
74
0
42
0.000000001
43
0.0000000001
44
0.0000000001
40
0
40
0
40
0
40
0
40
1.1764048421136506
40
1.1764048421136506
40
1.9499340635784219
40
1.9499340635784219
40
2.3663186996648493
40
2.3663186996648493
40
2.4094762161008467
40
2.4094762161008467
40
2.4094762161008467
40
2.4094762161008467
10
-0.12313836094813961
20
0.93727634348841093
30
0
10
-0.12107816195205665
20
1.0916464341020344
30
0
10
-0.14128138039320293
20
1.2315366394377949
30
0
10
-0.21750957639227686
20
1.4376926370842702
30
0
10
-0.26883493098433592
20
1.5390718983139609
30
0
10
-0.41581089353936601
20
1.6964043645875631
30
0
10
-0.47411072237082691
20
1.7453797873541574
30
0
10
-0.54326052440324357
20
1.7918058343202856
30
0
10
-0.54893031284686444
20
1.7956394184638524
30
0
10
-0.56268220247369849
20
1.8042972978473781
30
0
0
ARC
5
189
100
AcDbEntity
8
0
100
AcDbCircle
10
-0.14783056946301804
20
0.9333654818624052
30
0
40
0.024999999999999998
210
0
220
0
230
1
100
AcDbArc
50
-212.53271764459069
51
8.9999999999999023
0
SPLINE
5
190
100
AcDbEntity
8
0
100
AcDbSpline
70
0
71
3
72
16
73
12
74
0
42
0.000000001
43
0.0000000001
44
0.0000000001
40
0.88508624658751156
40
0.88508624658751156
40
0.88508624658751156
40
0.88508624658751156
40
1.958581124470216
40
1.958581124470216
40
4.8693437326646762
40
4.8693437326646762
40
7.629138572077288
40
7.629138572077288
40
9.5009996597301143
40
9.5009996597301143
40
11.019392004520732
40
11.019392004520732
40
11.019392004520732
40
11.019392004520732
10
-0.58889639313276154
20
1.7959123136042037
30
0
10
-0.54269833850441207
20
1.7690709328626149
30
0
10
-0.52640573115611011
20
1.7572887347464532
30
0
10
-0.42390934058259833
20
1.6812196552478209
30
0
10
-0.3505702338689381
20
1.6084245800261125
30
0
10
-0.23246621619565105
20
1.4138608641869237
30
0
10
-0.20022607456601205
20
1.317649855487333
30
0
10
-0.17031678162449287
20
1.187304076760191
30
0
10
-0.16243235168540313
20
1.1324229022430243
30
0
10
-0.15873849661970107
20
1.0348705475097586
30
0
10
-0.160862141049777
20
0.98970703125657733
30
0
10
-0.16890768180790233
20
0.94681000993895359
30
0
0
ARC
5
191
100
AcDbEntity
8
0
100
AcDbCircle
10
-1.8358018517423847e-15
20
1.853285678901836e-14
30
0
40
1.8899999999999766
210
0
220
0
230
1
100
AcDbArc
50
108.15479964573187
51
116.32043936800397
0
SPLINE
5
192
100
AcDbEntity
8
0
100
AcDbSpline
70
0
71
3
72
14
73
10
74
0
42
0.000000001
43
0.0000000001
44
0.0000000001
40
0
40
0
40
0
40
0
40
1.1764048421135407
40
1.1764048421135407
40
1.9499340635874498
40
1.9499340635874498
40
2.3537498297667088
40
2.3537498297667088
40
2.4057707938202748
40
2.4057707938202748
40
2.4057707938202748
40
2.4057707938202748
10
-0.26824464677694637
20
0.90647383275829396
30
0
10
-0.29035861479256136
20
1.0592656575217991
30
0
10
-0.33219674752544276
20
1.1942731026264632
30
0
10
-0.43973635114550996
20
1.3859662607844736
30
0
10
-0.5062890159497907
20
1.4780683206901788
30
0
10
-0.67427433580430196
20
1.6090731018657545
30
0
10
-0.7373827760811571
20
1.647347938882683
30
0
10
-0.8120841847055098
20
1.6825842670631195
30
0
10
-0.81954430395786049
20
1.6861490086530366
30
0
10
-0.83800893340595328
20
1.694060514719536
30
0
0
ARC
5
193
100
AcDbEntity
8
0
100
AcDbCircle
10
-0.29202105968432518
20
0.89874840789892019
30
0
40
0.025000000000000026
210
0
220
0
230
1
100
AcDbArc
50
-203.53271764459035
51
18.000000000000213
0
SPLINE
5
194
100
AcDbEntity
8
0
100
AcDbSpline
70
0
71
3
72
16
73
12
74
0
42
0.000000001
43
0.0000000001
44
0.0000000001
40
1.805510408747538
40
1.805510408747538
40
1.805510408747538
40
1.805510408747538
40
2.5891837769677752
40
2.5891837769677752
40
5.202217000867174
40
5.202217000867174
40
7.8578567354382534
40
7.8578567354382534
40
10.139489508968154
40
10.139489508968154
40
11.976589720759826
40
11.976589720759826
40
11.976589720759826
40
11.976589720759826
10
-0.86258868335359606
20
1.6816779606542658
30
0
10
-0.82337750890915395
20
1.6665028909806738
30
0
10
-0.80818089133434534
20
1.6592999001136282
30
0
10
-0.6952205773393948
20
1.6034587449242408
30
0
10
-0.60829721018358685
20
1.543211752858844
30
0
10
-0.45111021925900407
20
1.3631251389201238
30
0
10
-0.40491914219357955
20
1.269853172031095
30
0
10
-0.35743750252451223
20
1.1566197153888935
30
0
10
-0.33962075960555171
20
1.1011124240990815
30
0
10
-0.31909459912755311
20
1.0010722141242974
30
0
10
-0.31365455366905431
20
0.95417203127187833
30
0
10
-0.31494186535815449
20
0.90873022473066611
30
0
0
ARC
5
195
100
AcDbEntity
8
0
100
AcDbCircle
10
-1.8358018517423847e-15
20
1.853285678901836e-14
30
0
40
1.8899999999999775
210
0
220
0
230
1
100
AcDbArc
50
117.15479964573194
51
125.32043936800409
0
SPLINE
5
196
100
AcDbEntity
8
0
100
AcDbSpline
70
0
71
3
72
14
73
10
74
0
42
0.000000001
43
0.0000000001
44
0.0000000001
40
0
40
0
40
0
40
0
40
1.1764048421135718
40
1.1764048421135718
40
1.9499340635929037
40
1.9499340635929037
40
2.3537498297758126
40
2.3537498297758126
40
2.4066510111744392
40
2.4066510111744392
40
2.4066510111744392
40
2.4066510111744392
10
-0.40674585914916234
20
0.85335092785149635
30
0
10
-0.45248947489188024
20
1.00080224495223
30
0
10
-0.51493232823581425
20
1.1276025984632889
30
0
10
-0.65113535753226326
20
1.3001127953853377
30
0
10
-0.73127658506549753
20
1.3806697955831095
30
0
10
-0.91768738973734221
20
1.4837829968661034
30
0
10
-0.98600636404506736
20
1.5117142720316388
30
0
10
-1.065453366424705
20
1.5348755456968126
30
0
10
-1.0734969190399768
20
1.5372532189615991
30
0
10
-1.0927011032055558
20
1.5421103394547886
30
0
0
ARC
5
197
100
AcDbEntity
8
0
100
AcDbCircle
10
-0.42902102225387151
20
0.84200116535800773
30
0
40
0.024999999999999953
210
0
220
0
230
1
100
AcDbArc
50
-194.53271764459038
51
26.999999999999925
0
SPLINE
5
198
100
AcDbEntity
8
0
100
AcDbSpline
70
0
71
3
72
14
73
10
74
0
42
0.000000001
43
0.0000000001
44
0.0000000001
40
2.1394780565032212
40
2.1394780565032212
40
2.1394780565032212
40
2.1394780565032212
40
2.7839577596754848
40
2.7839577596754848
40
4.0563152406568364
40
4.0563152406568364
40
5.2550510499932246
40
5.2550510499932246
40
6.7081129202443126
40
6.7081129202443126
40
6.7081129202443126
40
6.7081129202443126
10
-1.1150411774225542
20
1.52603511514385
30
0
10
-1.0656387621974959
20
1.5153928496091988
30
0
10
-1.0384772509489295
20
1.5076118367324236
30
0
10
-0.91061269092881036
20
1.4619200394687932
30
0
10
-0.82060829273547553
20
1.4148215949553278
30
0
10
-0.65190543271415347
20
1.2655848917049506
30
0
10
-0.59191932082549492
20
1.183722952264983
30
0
10
-0.50005915880489915
20
1.025779999127203
30
0
10
-0.46412286751586396
20
0.93247419091163231
30
0
10
-0.45322113495116356
20
0.84827448548680318
30
0
0
ARC
5
199
100
AcDbEntity
8
0
100
AcDbCircle
10
-1.8358018517423847e-15
20
1.853285678901836e-14
30
0
40
1.8899999999999786
210
0
220
0
230
1
100
AcDbArc
50
126.15479964573203
51
134.3204393680042
0
SPLINE
5
200
100
AcDbEntity
8
0
100
AcDbSpline
70
0
71
3
72
14
73
10
74
0
42
0.000000001
43
0.0000000001
44
0.0000000001
40
0
40
0
40
0
40
0
40
1.1764048421135553
40
1.1764048421135553
40
1.9499340635859843
40
1.9499340635859843
40
2.3539868556250099
40
2.3539868556250099
40
2.4046699676371901
40
2.4046699676371901
40
2.4046699676371901
40
2.4046699676371901
10
-0.53523163855701339
20
0.77921569099163723
30
0
10
-0.60347854239288978
20
0.91769575963970862
30
0
10
-0.68498856606260017
20
1.0331667760274805
30
0
10
-0.84650125042135649
20
1.1822462381357841
30
0
10
-0.93825769768807499
20
1.2492745979279225
30
0
10
-1.1385442485485719
20
1.3219718627286565
30
0
10
-1.2104354703136297
20
1.3388770492619591
30
0
10
-1.2921731773838865
20
1.3492695186876784
30
0
10
-1.3001827844371514
20
1.3503427194163842
30
0
10
-1.320487345377191
20
1.3521882896618735
30
0
0
ARC
5
201
100
AcDbEntity
8
0
100
AcDbCircle
10
-0.55545706341638712
20
0.76452105968432538
30
0
40
0.025000000000000005
210
0
220
0
230
1
100
AcDbArc
50
-185.53271764459055
51
35.999999999999986
0
SPLINE
5
202
100
AcDbEntity
8
0
100
AcDbSpline
70
0
71
3
72
14
73
10
74
0
42
0.000000001
43
0.0000000001
44
0.0000000001
40
1.5569251871349374
40
1.5569251871349374
40
1.5569251871349374
40
1.5569251871349374
40
2.395792672911381
40
2.395792672911381
40
3.6785258510459302
40
3.6785258510459302
40
4.8669343612053648
40
4.8669343612053648
40
6.1617036418729239
40
6.1617036418729239
40
6.1617036418729239
40
6.1617036418729239
10
-1.340037657093867
20
1.3328162204784129
30
0
10
-1.2764808827940144
20
1.3293108288697641
30
0
10
-1.2419818822074462
20
1.3242678409925266
30
0
10
-1.1082753491336053
20
1.2944779044363208
30
0
10
-1.0150117229798541
20
1.2613752921161061
30
0
10
-0.82678188191030877
20
1.1350370999274353
30
0
10
-0.7552009490043009
20
1.0614260821168044
30
0
10
-0.64710424883406847
20
0.92206113737379869
30
0
10
-0.60252360233351754
20
0.8424131344307223
30
0
10
-0.58034059604696486
20
0.76693141314864333
30
0
0
ARC
5
203
100
AcDbEntity
8
0
100
AcDbCircle
10
-1.8358018517423847e-15
20
1.853285678901836e-14
30
0
40
1.8899999999999806
210
0
220
0
230
1
100
AcDbArc
50
135.15479964573211
51
143.32043936800423
0
SPLINE
5
204
100
AcDbEntity
8
0
100
AcDbSpline
70
0
71
3
72
12
73
8
74
0
42
0.000000001
43
0.0000000001
44
0.0000000001
40
0
40
0
40
0
40
0
40
1.1764048421134548
40
1.1764048421134548
40
1.9499340635826623
40
1.9499340635826623
40
2.5189898232967631
40
2.5189898232967631
40
2.5189898232967631
40
2.5189898232967631
10
-0.65053823869162375
20
0.68589357775095117
30
0
10
-0.73960796534972428
20
0.81199255906723733
30
0
10
-0.83817811204619663
20
0.91329095868192089
30
0
10
-1.021023473148686
20
1.035268854853433
30
0
10
-1.1221357918950765
20
1.0871181135673231
30
0
10
-1.3606410019400477
20
1.1332593704707223
30
0
10
-1.4379822769642443
20
1.1341455245469876
30
0
10
-1.5157588066593959
20
1.128970876521838
30
0
0
ARC
5
205
100
AcDbEntity
8
0
100
AcDbCircle
10
-0.6682159082212874
20
0.66821590822128751
30
0
40
0.024999999999999977
210
0
220
0
230
1
100
AcDbArc
50
-176.5327176445908
51
45
0
SPLINE
5
206
100
AcDbEntity
8
0
100
AcDbSpline
70
0
71
3
72
16
73
12
74
0
42
0.000000001
43
0.0000000001
44
0.0000000001
40
1.1889765315938192
40
1.1889765315938192
40
1.1889765315938192
40
1.1889765315938192
40
2.0009955464106834
40
2.0009955464106834
40
4.9522854366807492
40
4.9522854366807492
40
7.9387863853817251
40
7.9387863853817251
40
10.586316443986707
40
10.586316443986707
40
12.713915057789976
40
12.713915057789976
40
12.713915057789976
40
12.713915057789976
10
-1.5320379623175202
20
1.1067789671013635
30
0
10
-1.4914818995654628
20
1.1109293436950365
30
0
10
-1.4767126436225544
20
1.1113184032324546
30
0
10
-1.3526424020623506
20
1.113586544897438
30
0
10
-1.2470159047187477
20
1.1000995835209539
30
0
10
-1.0228908905809957
20
1.0111150884715527
30
0
10
-0.93931047900819464
20
0.94899779572501497
30
0
10
-0.84568583142732945
20
0.87034895716068017
30
0
10
-0.80395687392322868
20
0.82855899894130958
30
0
10
-0.73934819356760195
20
0.74793364743896529
30
0
10
-0.71285877068837633
20
0.70821049934745672
30
0
10
-0.693170145628076
20
0.66670394411933176
30
0
0
ARC
5
207
100
AcDbEntity
8
0
100
AcDbCircle
10
-1.8358018517423847e-15
20
1.853285678901836e-14
30
0
40
1.8899999999999824
210
0
220
0
230
1
100
AcDbArc
50
144.15479964573217
51
152.32043936800432
0
SPLINE
5
208
100
AcDbEntity
8
0
100
AcDbSpline
70
0
71
3
72
14
73
10
74
0
42
0.000000001
43
0.0000000001
44
0.0000000001
40
0
40
0
40
0
40
0
40
1.1764048421136182
40
1.1764048421136182
40
1.9499340635709632
40
1.9499340635709632
40
2.4062260952501653
40
2.4062260952501653
40
2.4229565621024394
40
2.4229565621024394
40
2.4229565621024394
40
2.4229565621024394
10
-0.74982642837701341
20
0.57568248827576096
30
0
10
-0.85752578558156156
20
0.68629540684175661
30
0
10
-0.97072893115757897
20
0.77092688689472155
30
0
10
-1.1704047093834808
20
0.86279971650391274
30
0
10
-1.2783831787496105
20
0.89819317331258841
30
0
10
-1.5007784023678452
20
0.90576193165839347
30
0
10
-1.5839309056117998
20
0.89758970426979445
30
0
10
-1.6677840805277075
20
0.8792874700385287
30
0
10
-1.670747137928021
20
0.87862732394169785
30
0
10
-1.6737072556065788
20
0.87795445356231094
30
0
0
ARC
5
209
100
AcDbEntity
8
0
100
AcDbCircle
10
-0.76452105968432515
20
0.55545706341638723
30
0
40
0.024999999999999994
210
0
220
0
230
1
100
AcDbArc
50
-167.532717644591
51
54.000000000000213
0
SPLINE
5
210
100
AcDbEntity
8
0
100
AcDbSpline
70
0
71
3
72
14
73
10
74
0
42
0.000000001
43
0.0000000001
44
0.0000000001
40
0.64370541502120304
40
0.64370541502120304
40
0.64370541502120304
40
0.64370541502120304
40
1.2764487888635647
40
1.2764487888635647
40
2.3360517873421305
40
2.3360517873421305
40
3.3286631516481577
40
3.3286631516481577
40
4.4804646351469355
40
4.4804646351469355
40
4.4804646351469355
40
4.4804646351469355
10
-1.6863144083664288
20
0.85348914236547946
30
0
10
-1.6338186191054549
20
0.86740140589826975
30
0
10
-1.6013188093259754
20
0.87366084585449943
30
0
10
-1.4647467372341232
20
0.88893064625596152
30
0
10
-1.364516844250804
20
0.88713199027917866
30
0
10
-1.1458330198275217
20
0.82779331582915272
30
0
10
-1.0549800169692671
20
0.78074093788303489
30
0
10
-0.90581956169441213
20
0.68200677767483786
30
0
10
-0.83512852544296745
20
0.6175863393078973
30
0
10
-0.78893154572400404
20
0.55006001132226934
30
0
0
ARC
5
211
100
AcDbEntity
8
0
100
AcDbCircle
10
-1.8358018517423847e-15
20
1.853285678901836e-14
30
0
40
1.8899999999999848
210
0
220
0
230
1
100
AcDbArc
50
153.15479964573223
51
161.32043936800443
0
SPLINE
5
212
100
AcDbEntity
8
0
100
AcDbSpline
70
0
71
3
72
14
73
10
74
0
42
0.000000001
43
0.0000000001
44
0.0000000001
40
0
40
0
40
0
40
0
40
1.1764048421134796
40
1.1764048421134796
40
1.9499340635901785
40
1.9499340635901785
40
2.3026591416923683
40
2.3026591416923683
40
2.4009888882591901
40
2.4009888882591901
40
2.4009888882591901
40
2.4009888882591901
10
-0.83065140286451888
20
0.45129618535858101
30
0
10
-0.95432847500743745
20
0.54369938401593354
30
0
10
-1.0793771823192109
20
0.60958003659250681
30
0
10
-1.2909666973259735
20
0.66908558566732856
30
0
10
-1.4031525290356421
20
0.68715173619864567
30
0
10
-1.6053960114923895
20
0.66213728622258672
30
0
10
-1.6681059254121098
20
0.64774145172978614
30
0
10
-1.7456788531329237
20
0.62222317078896949
30
0
10
-1.7603495190797527
20
0.61736050684916233
30
0
10
-1.7904434772048123
20
0.60531987819230149
30
0
0
ARC
5
213
100
AcDbEntity
8
0
100
AcDbCircle
10
-0.84200116535800751
20
0.42902102225387179
30
0
40
0.025000000000000026
210
0
220
0
230
1
100
AcDbArc
50
-158.53271764459086
51
63.000000000000128
0
SPLINE
5
214
100
AcDbEntity
8
0
100
AcDbSpline
70
0
71
3
72
14
73
10
74
0
42
0.000000001
43
0.0000000001
44
0.0000000001
40
0.38109453936391918
40
0.38109453936391918
40
0.38109453936391918
40
0.38109453936391918
40
1.1804596211571292
40
1.1804596211571292
40
2.165006632080877
40
2.165006632080877
40
3.0600391691496314
40
3.0600391691496314
40
3.9502345487852728
40
3.9502345487852728
40
3.9502345487852728
40
3.9502345487852728
10
-1.7990681971246985
20
0.57918358237649181
30
0
10
-1.73696191196386
20
0.60663157407480439
30
0
10
-1.6983075457337604
20
0.61981665719686374
30
0
10
-1.5608332824305626
20
0.651837957727877
30
0
10
-1.463877636020223
20
0.66345789909257546
30
0
10
-1.2382346512361528
20
0.63229873183602614
30
0
10
-1.1408253126155614
20
0.59788036421997104
30
0
10
-0.98624337475009016
20
0.52169635053931074
30
0
10
-0.91612697635407714
20
0.47369754492696453
30
0
10
-0.86526683285052097
20
0.41987177550193761
30
0
0
ARC
5
215
100
AcDbEntity
8
0
100
AcDbCircle
10
-1.8358018517423847e-15
20
1.853285678901836e-14
30
0
40
1.889999999999987
210
0
220
0
230
1
100
AcDbArc
50
162.15479964573228
51
170.32043936800437
0
SPLINE
5
216
100
AcDbEntity
8
0
100
AcDbSpline
70
0
71
3
72
12
73
8
74
0
42
0.000000001
43
0.0000000001
44
0.0000000001
40
0
40
0
40
0
40
0
40
1.1764048421133244
40
1.1764048421133244
40
1.9499340635744331
40
1.9499340635744331
40
2.532518157354577
40
2.532518157354577
40
2.532518157354577
40
2.532518157354577
10
-0.8910229830395463
20
0.31579747259170426
30
0
10
-1.0276324301440016
20
0.38771567792083861
30
0
10
-1.1614475850046613
20
0.43322330270923987
30
0
10
-1.3797408007037741
20
0.45889634714274596
30
0
10
-1.4933716072574379
20
0.45919034281395132
30
0
10
-1.729181392274955
20
0.39134660777438263
30
0
10
-1.7999524650126506
20
0.3554292256124621
30
0
10
-1.8630930382530397
20
0.31778031847969956
30
0
0
ARC
5
217
100
AcDbEntity
8
0
100
AcDbCircle
10
-0.89874840789892008
20
0.29202105968432546
30
0
40
0.024999999999999977
210
0
220
0
230
1
100
AcDbArc
50
-149.53271764459075
51
71.999999999999787
0
SPLINE
5
218
100
AcDbEntity
8
0
100
AcDbSpline
70
0
71
3
72
14
73
10
74
0
42
0.000000001
43
0.0000000001
44
0.0000000001
40
0.12318994650664439
40
0.12318994650664439
40
0.12318994650664439
40
0.12318994650664439
40
0.77622633033312438
40
0.77622633033312438
40
1.3179001150720659
40
1.3179001150720659
40
1.8828679430576687
40
1.8828679430576687
40
2.3210927216499089
40
2.3210927216499089
40
2.3210927216499089
40
2.3210927216499089
10
-1.8675229561047304
20
0.29061660038928966
30
0
10
-1.7904830028695777
20
0.34034756875743488
30
0
10
-1.6950025436655149
20
0.39146270070518963
30
0
10
-1.4448379165020155
20
0.43650958936360607
30
0
10
-1.3458318199818136
20
0.42877659443099148
30
0
10
-1.206105265504654
20
0.40763600297921687
30
0
10
-1.1339713132308236
20
0.38841761457266077
30
0
10
-1.0159606554137814
20
0.34039318841199034
30
0
10
-0.9642150119773969
20
0.31319451508418716
30
0
10
-0.92029637889627902
20
0.279344903094217
30
0
0
ARC
5
219
100
AcDbEntity
8
0
100
AcDbCircle
10
-1.8358018517423847e-15
20
1.853285678901836e-14
30
0
40
1.8899999999999897
210
0
220
0
230
1
100
AcDbArc
50
171.15479964573228
51
179.32043936800451
0
SPLINE
5
220
100
AcDbEntity
8
0
100
AcDbSpline
70
0
71
3
72
12
73
8
74
0
42
0.000000001
43
0.0000000001
44
0.0000000001
40
0
40
0
40
0
40
0
40
1.1764048421133937
40
1.1764048421133937
40
1.9213303395758889
40
1.9213303395758889
40
2.6563578403952413
40
2.6563578403952413
40
2.6563578403952413
40
2.6563578403952413
10
-0.92945462023639946
20
0.17252277797789678
30
0
10
-1.0756326643339433
20
0.22218512508078578
30
0
10
-1.2149192935237791
20
0.24619917332756275
30
0
10
-1.4313194581928912
20
0.23753652241068918
30
0
10
-1.5331957940787828
20
0.22143833781145669
30
0
10
-1.7594238733291911
20
0.12433059021720726
30
0
10
-1.8411327495780019
20
0.063029088353053056
30
0
10
-1.8898670654481846
20
0.022415952673716242
30
0
0
ARC
5
221
100
AcDbEntity
8
0
100
AcDbCircle
10
-0.9333654818624052
20
0.14783056946301834
30
0
40
0.024999999999999998
210
0
220
0
230
1
100
AcDbArc
50
-140.53271764459063
51
81.000000000000085
0
SPLINE
5
222
100
AcDbEntity
8
0
100
AcDbSpline
70
0
71
3
72
14
73
10
74
0
42
0.000000001
43
0.0000000001
44
0.0000000001
40
0.062278990974060554
40
0.062278990974060554
40
0.062278990974060554
40
0.062278990974060554
40
0.57143508917451413
40
0.57143508917451413
40
0.97800528649227614
40
0.97800528649227614
40
1.401854625710766
40
1.401854625710766
40
1.7306418886082413
40
1.7306418886082413
40
1.7306418886082413
40
1.7306418886082413
10
-1.8899931019521168
20
-0.0051063268006962563
30
0
10
-1.8325385266325502
20
0.046341857777525607
30
0
10
-1.7403253895258946
20
0.11979036982910037
30
0
10
-1.4951822065488858
20
0.20514247291887869
30
0
10
-1.3961788095022882
20
0.21297599682019713
30
0
10
-1.2548952438433494
20
0.21392952815981817
30
0
10
-1.1806779315597706
20
0.20622710328240626
30
0
10
-1.0566606987694873
20
0.1772570774876383
30
0
10
-1.0013204780972527
20
0.15849236264122649
30
0
10
-0.95266517380503923
20
0.13193963207973572
30
0
0
ARC
5
223
100
AcDbEntity
8
0
100
AcDbCircle
10
-1.8358018517423847e-15
20
1.853285678901836e-14
30
0
40
1.8899999999999932
210
0
220
0
230
1
100
AcDbArc
50
180.15479964573319
51
188.32043936800432
0
SPLINE
5
224
100
AcDbEntity
8
0
100
AcDbSpline
70
0
71
3
72
12
73
8
74
0
42
0.000000001
43
0.0000000001
44
0.0000000001
40
0
40
0
40
0
40
0
40
1.1764048421135505
40
1.1764048421135505
40
1.9499340635850384
40
1.9499340635850384
40
2.5278422110974779
40
2.5278422110974779
40
2.5278422110974779
40
2.5278422110974779
10
-0.94499999999999995
20
0.025000000000000171
30
0
10
-1.0971472525078492
20
0.051183637071088951
30
0
10
-1.2384756569503708
20
0.053112803210344249
30
0
10
-1.4540182492324154
20
0.010073006003967764
30
0
10
-1.5621784179154952
20
-0.024761237807077136
30
0
10
-1.7647809826491059
20
-0.16167995907772661
30
0
10
-1.8201981857533547
20
-0.2164779301513092
30
0
10
-1.8701062933827997
20
-0.27350036828137575
30
0
0
ARC
5
225
100
AcDbEntity
8
0
100
AcDbCircle
10
-0.94499999999999995
20
1.735936837791373e-16
30
0
40
0.025000000000000005
210
0
220
0
230
1
100
AcDbArc
50
-131.53271764459086
51
90
0
SPLINE
5
226
100
AcDbEntity
8
0
100
AcDbSpline
70
0
71
3
72
14
73
10
74
0
42
0.000000001
43
0.0000000001
44
0.0000000001
40
0.1862155879478947
40
0.1862155879478947
40
0.1862155879478947
40
0.1862155879478947
40
0.8261265157968517
40
0.8261265157968517
40
1.2808850837968573
40
1.2808850837968573
40
1.6422172893133971
40
1.6422172893133971
40
1.9550332972662567
40
1.9550332972662567
40
1.9550332972662567
40
1.9550332972662567
10
-1.8659253451019557
20
-0.30070351927792205
30
0
10
-1.817604693060263
20
-0.24136541779976645
30
0
10
-1.7704342654072764
20
-0.19213487361528439
30
0
10
-1.642426483140053
20
-0.10069965205582823
30
0
10
-1.560404267235959
20
-0.051396219429621033
30
0
10
-1.3460901922700665
20
0.0082680590986480527
30
0
10
-1.250431727992404
20
0.017966904878156081
30
0
10
-1.0922386389308967
20
0.013758834810083193
30
0
10
-1.0216354372646901
20
0.0026985050251831168
30
0
10
-0.96157619042027587
20
-0.018714430559082687
30
0
0
ARC
5
227
100
AcDbEntity
8
0
100
AcDbCircle
10
-1.8358018517423847e-15
20
1.853285678901836e-14
30
0
40
1.8899999999999961
210
0
220
0
230
1
100
AcDbArc
50
189.15479964573225
51
197.32043936800432
0
SPLINE
5
228
100
AcDbEntity
8
0
100
AcDbSpline
70
0
71
3
72
14
73
10
74
0
42
0.000000001
43
0.0000000001
44
0.0000000001
40
0
40
0
40
0
40
0
40
1.1764048421134541
40
1.1764048421134541
40
1.9499340635748559
40
1.9499340635748559
40
2.3663186996587036
40
2.3663186996587036
40
2.4094762160944994
40
2.4094762160944994
40
2.4094762160944994
40
2.4094762160944994
10
-0.93727634348841093
20
-0.12313836094813954
30
0
10
-1.0916464341020087
20
-0.12107816195205708
30
0
10
-1.2315366394377665
20
-0.14128138039319485
30
0
10
-1.4376926370839265
20
-0.21750957639214796
30
0
10
-1.5390718983137286
20
-0.26883493098412942
30
0
10
-1.6964043645875366
20
-0.41581089353933531
30
0
10
-1.7453797873541417
20
-0.47411072237080637
30
0
10
-1.7918058343202812
20
-0.54326052440323613
30
0
10
-1.795639418463856
20
-0.54893031284686966
30
0
10
-1.8042972978473781
20
-0.56268220247369838
30
0
0
ARC
5
229
100
AcDbEntity
8
0
100
AcDbCircle
10
-0.9333654818624052
20
-0.14783056946301798
30
0
40
0.024999999999999998
210
0
220
0
230
1
100
AcDbArc
50
-122.53271764459075
51
98.999999999999915
0
SPLINE
5
230
100
AcDbEntity
8
0
100
AcDbSpline
70
0
71
3
72
16
73
12
74
0
42
0.000000001
43
0.0000000001
44
0.0000000001
40
0.87860530263176584
40
0.87860530263176584
40
0.87860530263176584
40
0.87860530263176584
40
1.9659107518283703
40
1.9659107518283703
40
4.7230850732239489
40
4.7230850732239489
40
7.3223030997306662
40
7.3223030997306662
40
9.053919193289083
40
9.053919193289083
40
10.461125468016714
40
10.461125468016714
40
10.461125468016714
40
10.461125468016714
10
-1.7959123136042037
20
-0.58889639313276143
30
0
10
-1.7681505810324931
20
-0.54111427453487893
30
0
10
-1.7557432330727154
20
-0.52402739140190591
30
0
10
-1.6790460417219764
20
-0.42180172321075488
30
0
10
-1.6065165416100071
20
-0.34892542154668982
30
0
10
-1.4112949993579997
20
-0.23137945157920523
30
0
10
-1.3149072509103847
20
-0.19931475879666866
30
0
10
-1.1846390974747127
20
-0.16990313855312339
30
0
10
-1.1304180623907842
20
-0.16226039705591733
30
0
10
-1.033949144856378
20
-0.15878391203342837
30
0
10
-0.98927295589185205
20
-0.16094355395285778
30
0
10
-0.94681000993895359
20
-0.16890768180790233
30
0
0
ARC
5
231
100
AcDbEntity
8
0
100
AcDbCircle
10
-1.8358018517423847e-15
20
1.853285678901836e-14
30
0
40
1.8899999999999986
210
0
220
0
230
1
100
AcDbArc
50
198.15479964573228
51
206.32043936800429
0
SPLINE
5
232
100
AcDbEntity
8
0
100
AcDbSpline
70
0
71
3
72
14
73
10
74
0
42
0.000000001
43
0.0000000001
44
0.0000000001
40
0
40
0
40
0
40
0
40
1.1764048421132081
40
1.1764048421132081
40
1.949934063563342
40
1.949934063563342
40
2.3537498297266253
40
2.3537498297266253
40
2.4057707937752908
40
2.4057707937752908
40
2.4057707937752908
40
2.4057707937752908
10
-0.90647383275829396
20
-0.26824464677694632
30
0
10
-1.0592656575217561
20
-0.29035861479255509
30
0
10
-1.1942731026264315
20
-0.33219674752542572
30
0
10
-1.3859662607821785
20
-0.4397363511442221
30
0
10
-1.4780683206888408
20
-0.50628901594809927
30
0
10
-1.6090731018659887
20
-0.67427433580458984
30
0
10
-1.6473479388831624
20
-0.73738277608193836
30
0
10
-1.6825842670635167
20
-0.81208418470638233
30
0
10
-1.686149008653266
20
-0.81954430395839706
30
0
10
-1.694060514719536
20
-0.83800893340595317
30
0
0
ARC
5
233
100
AcDbEntity
8
0
100
AcDbCircle
10
-0.89874840789892019
20
-0.29202105968432512
30
0
40
0.024999999999999981
210
0
220
0
230
1
100
AcDbArc
50
-113.53271764459089
51
108.00000000000023
0
SPLINE
5
234
100
AcDbEntity
8
0
100
AcDbSpline
70
0
71
3
72
16
73
12
74
0
42
0.000000001
43
0.0000000001
44
0.0000000001
40
1.8055104087475369
40
1.8055104087475369
40
1.8055104087475369
40
1.8055104087475369
40
2.5891837769676656
40
2.5891837769676656
40
5.2022170008408146
40
5.2022170008408146
40
7.8578567353565383
40
7.8578567353565383
40
10.139489508823409
40
10.139489508823409
40
11.9765897205641
40
11.9765897205641
40
11.9765897205641
40
11.9765897205641
10
-1.6816779606542658
20
-0.86258868335359584
30
0
10
-1.6665028909806747
20
-0.82337750890915629
30
0
10
-1.6592999001136275
20
-0.8081808913343429
30
0
10
-1.6034587449246755
20
-0.69522057734027032
30
0
10
-1.5432117528595188
20
-0.60829721018419058
30
0
10
-1.3631251389205248
20
-0.45111021925933903
30
0
10
-1.2698531720316846
20
-0.40491914219383923
30
0
10
-1.1566197153890367
20
-0.35743750252456141
30
0
10
-1.1011124240991854
20
-0.3396207596055783
30
0
10
-1.0010722141243429
20
-0.31909459912755811
30
0
10
-0.95417203127190198
20
-0.31365455366905365
30
0
10
-0.90873022473066611
20
-0.31494186535815449
30
0
0
ARC
5
235
100
AcDbEntity
8
0
100
AcDbCircle
10
-1.8358018517423847e-15
20
1.853285678901836e-14
30
0
40
1.8900000000000017
210
0
220
0
230
1
100
AcDbArc
50
207.15479964573225
51
215.3204393680042
0
SPLINE
5
236
100
AcDbEntity
8
0
100
AcDbSpline
70
0
71
3
72
14
73
10
74
0
42
0.000000001
43
0.0000000001
44
0.0000000001
40
0
40
0
40
0
40
0
40
1.1764048421140423
40
1.1764048421140423
40
1.949934063584809
40
1.949934063584809
40
2.3537498297624255
40
2.3537498297624255
40
2.4066510111578738
40
2.4066510111578738
40
2.4066510111578738
40
2.4066510111578738
10
-0.85335092785149635
20
-0.40674585914916234
30
0
10
-1.0008022449522891
20
-0.45248947489189811
30
0
10
-1.1276025984633429
20
-0.51493232823585167
30
0
10
-1.3001127953845419
20
-0.65113535753163754
30
0
10
-1.3806697955827363
20
-0.73127658506479498
30
0
10
-1.483782996866297
20
-0.91768738973770647
30
0
10
-1.5117142720319288
20
-0.98600636404578623
30
0
10
-1.5348755456969974
20
-1.065453366425372
30
0
10
-1.5372532189616841
20
-1.0734969190403107
30
0
10
-1.5421103394547886
20
-1.0927011032055558
30
0
0
ARC
5
237
100
AcDbEntity
8
0
100
AcDbCircle
10
-0.84200116535800773
20
-0.42902102225387151
30
0
40
0.024999999999999998
210
0
220
0
230
1
100
AcDbArc
50
-104.53271764459065
51
116.99999999999994
0
SPLINE
5
238
100
AcDbEntity
8
0
100
AcDbSpline
70
0
71
3
72
14
73
10
74
0
42
0.000000001
43
0.0000000001
44
0.0000000001
40
2.1394780565032252
40
2.1394780565032252
40
2.1394780565032252
40
2.1394780565032252
40
2.7839577596754852
40
2.7839577596754852
40
4.056315240653964
40
4.056315240653964
40
5.255051049986907
40
5.255051049986907
40
6.7081129202359557
40
6.7081129202359557
40
6.7081129202359557
40
6.7081129202359557
10
-1.5260351151438503
20
-1.1150411774225542
30
0
10
-1.5153928496091993
20
-1.0656387621974961
30
0
10
-1.5076118367324236
20
-1.0384772509489304
30
0
10
-1.4619200394688598
20
-0.91061269092899833
30
0
10
-1.4148215949554541
20
-0.82060829273561942
30
0
10
-1.2655848917048822
20
-0.65190543271407475
30
0
10
-1.183722952264876
20
-0.59191932082543552
30
0
10
-1.0257799991272549
20
-0.50005915880492602
30
0
10
-0.93247419091166239
20
-0.46412286751586745
30
0
10
-0.84827448548680318
20
-0.45322113495116356
30
0
0
ARC
5
239
100
AcDbEntity
8
0
100
AcDbCircle
10
-1.8358018517423847e-15
20
1.853285678901836e-14
30
0
40
1.8900000000000046
210
0
220
0
230
1
100
AcDbArc
50
216.1547996457322
51
224.32043936800423
0
SPLINE
5
240
100
AcDbEntity
8
0
100
AcDbSpline
70
0
71
3
72
14
73
10
74
0
42
0.000000001
43
0.0000000001
44
0.0000000001
40
0
40
0
40
0
40
0
40
1.1764048421135684
40
1.1764048421135684
40
1.9499340635821567
40
1.9499340635821567
40
2.3537498297587636
40
2.3537498297587636
40
2.4046564721854038
40
2.4046564721854038
40
2.4046564721854038
40
2.4046564721854038
10
-0.77921569099163723
20
-0.53523163855701317
30
0
10
-0.91769575963971017
20
-0.60347854239289023
30
0
10
-1.0331667760274819
20
-0.68498856606260106
30
0
10
-1.182246238135489
20
-0.84650125042103619
30
0
10
-1.2492745979278013
20
-0.93825769768774259
30
0
10
-1.321957230090363
20
-1.1385039345056445
30
0
10
-1.3388571827114464
20
-1.2103512029596346
30
0
10
-1.3492594262140056
20
-1.2920847960864668
30
0
10
-1.3503377947790711
20
-1.300128604652512
30
0
10
-1.3521882896618735
20
-1.3204873453771904
30
0
0
ARC
5
241
100
AcDbEntity
8
0
100
AcDbCircle
10
-0.76452105968432538
20
-0.5554570634163869
30
0
40
0.025000000000000005
210
0
220
0
230
1
100
AcDbArc
50
-95.532717644590647
51
126
0
SPLINE
5
242
100
AcDbEntity
8
0
100
AcDbSpline
70
0
71
3
72
14
73
10
74
0
42
0.000000001
43
0.0000000001
44
0.0000000001
40
1.5572490288830172
40
1.5572490288830172
40
1.5572490288830172
40
1.5572490288830172
40
2.3945086289514812
40
2.3945086289514812
40
3.6754681540628571
40
3.6754681540628571
40
4.8560956178928434
40
4.8560956178928434
40
6.1464438099133885
40
6.1464438099133885
40
6.1464438099133885
40
6.1464438099133885
10
-1.3328162204784129
20
-1.3400376570938666
30
0
10
-1.3293233103404174
20
-1.2767071861865573
30
0
10
-1.3243071250778109
20
-1.2423614315045679
30
0
10
-1.2947831134666576
20
-1.1093375308234885
30
0
10
-1.2619534273867807
20
-1.0160011821758022
30
0
10
-1.1353596962216954
20
-0.82714497097126027
30
0
10
-1.0617904278785764
20
-0.7555497277699913
30
0
10
-0.92238781154472027
20
-0.64728577317237723
30
0
10
-0.84256541537117347
20
-0.60256835554001675
30
0
10
-0.76693141314864333
20
-0.58034059604696464
30
0
0
ARC
5
243
100
AcDbEntity
8
0
100
AcDbCircle
10
-1.8358018517423847e-15
20
1.853285678901836e-14
30
0
40
1.8900000000000061
210
0
220
0
230
1
100
AcDbArc
50
225.15479964573217
51
233.3204393680042
0
SPLINE
5
244
100
AcDbEntity
8
0
100
AcDbSpline
70
0
71
3
72
12
73
8
74
0
42
0.000000001
43
0.0000000001
44
0.0000000001
40
0
40
0
40
0
40
0
40
1.1764048421131257
40
1.1764048421131257
40
1.9499340635798696
40
1.9499340635798696
40
2.518989823291871
40
2.518989823291871
40
2.518989823291871
40
2.518989823291871
10
-0.68589357775095117
20
-0.65053823869162353
30
0
10
-0.81199255906720202
20
-0.73960796534969919
30
0
10
-0.91329095868190435
20
-0.83817811204617032
30
0
10
-1.0352688548533093
20
-1.0210234731485011
30
0
10
-1.0871181135672712
20
-1.1221357918948778
30
0
10
-1.133259370470723
20
-1.3606410019399993
30
0
10
-1.1341455245469871
20
-1.4379822769642485
30
0
10
-1.128970876521838
20
-1.5157588066593957
30
0
0
ARC
5
245
100
AcDbEntity
8
0
100
AcDbCircle
10
-0.66821590822128751
20
-0.66821590822128718
30
0
40
0.024999999999999977
210
-0
220
0
230
1
100
AcDbArc
50
-86.532717644590747
51
135
0
SPLINE
5
246
100
AcDbEntity
8
0
100
AcDbSpline
70
0
71
3
72
16
73
12
74
0
42
0.000000001
43
0.0000000001
44
0.0000000001
40
1.1889765315989067
40
1.1889765315989067
40
1.1889765315989067
40
1.1889765315989067
40
2.0009955464193876
40
2.0009955464193876
40
4.9522854367973377
40
4.9522854367973377
40
7.9387863856123104
40
7.9387863856123104
40
10.58631644427961
40
10.58631644427961
40
12.713915058131333
40
12.713915058131333
40
12.713915058131333
40
12.713915058131333
10
-1.1067789671013635
20
-1.53203796231752
30
0
10
-1.1109293436950036
20
-1.4914818995657841
30
0
10
-1.1113184032324106
20
-1.476712643623195
30
0
10
-1.1135865448975613
20
-1.3526424020620849
30
0
10
-1.1000995835207281
20
-1.2470159047185752
30
0
10
-1.0111150884724371
20
-1.0228908905828242
30
0
10
-0.94899779572649012
20
-0.9393104790100707
30
0
10
-0.87034895716129668
20
-0.84568583142795672
30
0
10
-0.82855899894181073
20
-0.8039568739236741
30
0
10
-0.74793364743923996
20
-0.73934819356778636
30
0
10
-0.70821049934759506
20
-0.71285877068844195
30
0
10
-0.66670394411933176
20
-0.693170145628076
30
0
0
ARC
5
247
100
AcDbEntity
8
0
100
AcDbCircle
10
-1.8358018517423847e-15
20
1.853285678901836e-14
30
0
40
1.8900000000000086
210
0
220
0
230
1
100
AcDbArc
50
234.15479964573208
51
242.32043936800409
0
SPLINE
5
248
100
AcDbEntity
8
0
100
AcDbSpline
70
0
71
3
72
14
73
10
74
0
42
0.000000001
43
0.0000000001
44
0.0000000001
40
0
40
0
40
0
40
0
40
1.1764048421130577
40
1.1764048421130577
40
1.9499340635808073
40
1.9499340635808073
40
2.4062260952700081
40
2.4062260952700081
40
2.4229565621227476
40
2.4229565621227476
40
2.4229565621227476
40
2.4229565621227476
10
-0.57568248827576096
20
-0.74982642837701341
30
0
10
-0.68629540684170409
20
-0.85752578558151016
30
0
10
-0.77092688689469591
20
-0.9707289311575239
30
0
10
-0.86279971650444442
20
-1.1704047093846373
30
0
10
-0.89819317331260884
20
-1.2783831787506101
30
0
10
-0.90576193165840035
20
-1.5007784023678019
30
0
10
-0.89758970426979268
20
-1.5839309056117923
30
0
10
-0.87928747003853613
20
-1.6677840805276758
30
0
10
-0.8786273239417014
20
-1.670747137928005
30
0
10
-0.87795445356231094
20
-1.6737072556065788
30
0
0
ARC
5
249
100
AcDbEntity
8
0
100
AcDbCircle
10
-0.55545706341638734
20
-0.76452105968432515
30
0
40
0.024999999999999994
210
-0
220
0
230
1
100
AcDbArc
50
-77.532717644590988
51
144.00000000000009
0
SPLINE
5
250
100
AcDbEntity
8
0
100
AcDbSpline
70
0
71
3
72
14
73
10
74
0
42
0.000000001
43
0.0000000001
44
0.0000000001
40
0.878851636688325
40
0.878851636688325
40
0.878851636688325
40
0.878851636688325
40
2.0195461034153857
40
2.0195461034153857
40
4.479505218910262
40
4.479505218910262
40
6.7858331328488948
40
6.7858331328488948
40
9.56104098420235
40
9.56104098420235
40
9.56104098420235
40
9.56104098420235
10
-0.85348914236547968
20
-1.6863144083664288
30
0
10
-0.86909280733613914
20
-1.62743637561008
30
0
10
-0.87272147283127355
20
-1.6035459611363543
30
0
10
-0.88909676522832159
20
-1.4740394351831123
30
0
10
-0.88804411878539613
20
-1.3726535946026184
30
0
10
-0.83119515710298519
20
-1.1542220356329791
30
0
10
-0.78535949841239716
20
-1.0636018089439785
30
0
10
-0.68629575047339997
20
-0.91052279361239319
30
0
10
-0.61979402064091549
20
-0.83663887278169846
30
0
10
-0.55006001132226945
20
-0.78893154572400404
30
0
0
ARC
5
251
100
AcDbEntity
8
0
100
AcDbCircle
10
-1.8358018517423847e-15
20
1.853285678901836e-14
30
0
40
1.8900000000000108
210
0
220
0
230
1
100
AcDbArc
50
243.15479964573206
51
251.32043936800397
0
SPLINE
5
252
100
AcDbEntity
8
0
100
AcDbSpline
70
0
71
3
72
14
73
10
74
0
42
0.000000001
43
0.0000000001
44
0.0000000001
40
0
40
0
40
0
40
0
40
1.1764048421131321
40
1.1764048421131321
40
1.949934063583755
40
1.949934063583755
40
2.3026591416820268
40
2.3026591416820268
40
2.4009888882478183
40
2.4009888882478183
40
2.4009888882478183
40
2.4009888882478183
10
-0.45129618535858107
20
-0.83065140286451888
30
0
10
-0.5436993840159059
20
-0.95432847500740137
30
0
10
-0.60958003659249016
20
-1.0793771823191618
30
0
10
-0.66908558566715393
20
-1.2909666973253453
30
0
10
-0.68715173619870007
20
-1.4031525290350955
30
0
10
-0.66213728622260248
20
-1.6053960114923131
30
0
10
-0.64774145172979847
20
-1.6681059254120632
30
0
10
-0.62222317078897948
20
-1.7456788531328964
30
0
10
-0.6173605068491691
20
-1.7603495190797351
30
0
10
-0.6053198781923016
20
-1.7904434772048123
30
0
0
ARC
5
253
100
AcDbEntity
8
0
100
AcDbCircle
10
-0.4290210222538719
20
-0.84200116535800751
30
0
40
0.025000000000000026
210
-0
220
0
230
1
100
AcDbArc
50
-68.532717644590747
51
153.00000000000009
0
SPLINE
5
254
100
AcDbEntity
8
0
100
AcDbSpline
70
0
71
3
72
16
73
12
74
0
42
0.000000001
43
0.0000000001
44
0.0000000001
40
0.41510812221283949
40
0.41510812221283949
40
0.41510812221283949
40
0.41510812221283949
40
1.1188489980090917
40
1.1188489980090917
40
2.6524006069864985
40
2.6524006069864985
40
4.0923126435038366
40
4.0923126435038366
40
5.022540037493088
40
5.022540037493088
40
5.7795409272413751
40
5.7795409272413751
40
5.7795409272413751
40
5.7795409272413751
10
-0.57918358237649203
20
-1.7990681971246985
30
0
10
-0.59904536799459362
20
-1.7541271415108886
30
0
10
-0.60747685554715225
20
-1.7308414606673501
30
0
10
-0.64628355139543159
20
-1.6031011023839985
30
0
10
-0.66205813836435623
20
-1.501863010536844
30
0
10
-0.64195645048258232
20
-1.2766806604847538
30
0
10
-0.61152853898372872
20
-1.1801541859796252
30
0
10
-0.55792993527334656
20
-1.0564611412749476
30
0
10
-0.53238863499474876
20
-1.0086092045612602
30
0
10
-0.47884603671691361
20
-0.92927372367806749
30
0
10
-0.45103264038211949
20
-0.89471083479290792
30
0
10
-0.41987177550193777
20
-0.86526683285052097
30
0
0
ARC
5
255
100
AcDbEntity
8
0
100
AcDbCircle
10
-1.8358018517423847e-15
20
1.853285678901836e-14
30
0
40
1.8900000000000114
210
0
220
0
230
1
100
AcDbArc
50
252.15479964573197
51
260.32043936800386
0
SPLINE
5
256
100
AcDbEntity
8
0
100
AcDbSpline
70
0
71
3
72
12
73
8
74
0
42
0.000000001
43
0.0000000001
44
0.0000000001
40
0
40
0
40
0
40
0
40
1.1764048421137714
40
1.1764048421137714
40
1.9499340635727183
40
1.9499340635727183
40
2.5325181573497106
40
2.5325181573497106
40
2.5325181573497106
40
2.5325181573497106
10
-0.31579747259170438
20
-0.8910229830395463
30
0
10
-0.38771567792086603
20
-1.0276324301440536
30
0
10
-0.43322330270924608
20
-1.1614475850047099
30
0
10
-0.45889634714270894
20
-1.3797408007034584
30
0
10
-0.45919034281402776
20
-1.4933716072572196
30
0
10
-0.39134660777435926
20
-1.7291813922750014
30
0
10
-0.35542922561244711
20
-1.7999524650126733
30
0
10
-0.31778031847969979
20
-1.8630930382530402
30
0
0
ARC
5
257
100
AcDbEntity
8
0
100
AcDbCircle
10
-0.29202105968432551
20
-0.89874840789892008
30
0
40
0.024999999999999998
210
-0
220
0
230
1
100
AcDbArc
50
-59.532717644590598
51
161.99999999999986
0
SPLINE
5
258
100
AcDbEntity
8
0
100
AcDbSpline
70
0
71
3
72
14
73
10
74
0
42
0.000000001
43
0.0000000001
44
0.0000000001
40
0.12318994650663856
40
0.12318994650663856
40
0.12318994650663856
40
0.12318994650663856
40
0.77622633033300681
40
0.77622633033300681
40
1.3179001150714948
40
1.3179001150714948
40
1.8828679430559787
40
1.8828679430559787
40
2.3210927216473354
40
2.3210927216473354
40
2.3210927216473354
40
2.3210927216473354
10
-0.29061660038928988
20
-1.8675229561047308
30
0
10
-0.34034756875743033
20
-1.7904830028695855
30
0
10
-0.39146270070518829
20
-1.6950025436655203
30
0
10
-0.43650958936359358
20
-1.4448379165020893
30
0
10
-0.42877659443100508
20
-1.3458318199819173
30
0
10
-0.40763600297922475
20
-1.20610526550469
30
0
10
-0.38841761457267021
20
-1.1339713132308484
30
0
10
-0.34039318841199218
20
-1.0159606554137843
30
0
10
-0.31319451508418888
20
-0.96421501197739912
30
0
10
-0.27934490309421706
20
-0.92029637889627902
30
0
0
ARC
5
259
100
AcDbEntity
8
0
100
AcDbCircle
10
-1.8358018517423847e-15
20
1.853285678901836e-14
30
0
40
1.8900000000000128
210
0
220
0
230
1
100
AcDbArc
50
261.15479964573188
51
269.32043936800386
0
CIRCLE
5
260
100
AcDbEntity
8
0
100
AcDbCircle
10
-1.8358018517423847e-15
20
1.853285678901836e-14
30
0
40
0.12499999999999997
210
0
220
-0
230
1
0
ENDSEC
0
SECTION
2
OBJECTS
0
DICTIONARY
5
C
100
AcDbDictionary
3
ACAD_GROUP
350
D
3
ACAD_MLINESTYLE
350
17
0
DICTIONARY
5
D
100
AcDbDictionary
0
DICTIONARY
5
1A
330
C
100
AcDbDictionary
0
DICTIONARY
5
17
100
AcDbDictionary
0
ENDSEC
0
EOF
