0
SECTION
2
HEADER
9
$INSUNITS
70
1
9
$ACADVER
1
AC1014
9
$HANDSEED
5
FFFF
0
ENDSEC
0
SECTION
2
TABLES
0
TABLE
2
VPORT
5
8
100
AcDbSymbolTable
0
ENDTAB
0
TABLE
2
LTYPE
5
5
100
AcDbSymbolTable
0
LTYPE
5
14
100
AcDbSymbolTableRecord
100
AcDbLinetypeTableRecord
2
BYBLOCK
70
0
0
LTYPE
5
15
100
AcDbSymbolTableRecord
100
AcDbLinetypeTableRecord
2
BYLAYER
70
0
0
ENDTAB
0
TABLE
2
LAYER
5
2
100
AcDbSymbolTable
70
2
0
LAYER
5
50
100
AcDbSymbolTableRecord
100
AcDbLayerTableRecord
2
0
70
0
6
CONTINUOUS
0
ENDTAB
0
TABLE
2
STYLE
5
3
100
AcDbSymbolTable
70
1
0
STYLE
5
11
100
AcDbSymbolTableRecord
100
AcDbTextStyleTableRecord
2
STANDARD
70
0
0
ENDTAB
0
TABLE
2
VIEW
5
6
100
AcDbSymbolTable
70
0
0
ENDTAB
0
TABLE
2
UCS
5
7
100
AcDbSymbolTable
70
0
0
ENDTAB
0
TABLE
2
APPID
5
9
100
AcDbSymbolTable
70
2
0
APPID
5
12
100
AcDbSymbolTableRecord
100
AcDbRegAppTableRecord
2
ACAD
70
0
0
ENDTAB
0
TABLE
2
DIMSTYLE
5
A
100
AcDbSymbolTable
70
1
0
ENDTAB
0
TABLE
2
BLOCK_RECORD
5
1
100
AcDbSymbolTable
70
1
0
BLOCK_RECORD
5
1F
100
AcDbSymbolTableRecord
100
AcDbBlockTableRecord
2
*MODEL_SPACE
0
BLOCK_RECORD
5
1B
100
AcDbSymbolTableRecord
100
AcDbBlockTableRecord
2
*PAPER_SPACE
0
ENDTAB
0
ENDSEC
0
SECTION
2
BLOCKS
0
BLOCK
5
20
100
AcDbEntity
100
AcDbBlockBegin
2
*MODEL_SPACE
0
ENDBLK
5
21
100
AcDbEntity
100
AcDbBlockEnd
0
BLOCK
5
1C
100
AcDbEntity
100
AcDbBlockBegin
2
*PAPER_SPACE
0
ENDBLK
5
1D
100
AcDbEntity
100
AcDbBlockEnd
0
ENDSEC
0
SECTION
2
ENTITIES
0
CIRCLE
5
100
100
AcDbEntity
8
0
100
AcDbCircle
10
0
20
0
30
0
40
1.8500000000000001
210
0
220
0
230
1
0
LINE
5
101
100
AcDbEntity
8
0
100
AcDbLine
10
0
20
0.92500000000000004
30
0
11
0
21
1.4603302412941261
31
0
0
ARC
5
102
100
AcDbEntity
8
0
100
AcDbCircle
10
0.34863136516134891
20
1.4603302412941259
30
0
40
0.34863136516134885
210
0
220
-0
230
1
100
AcDbArc
50
76.632768946103951
51
180
0
ARC
5
103
100
AcDbEntity
8
0
100
AcDbCircle
10
0.11589315445671244
20
1.4968891138499534
30
0
40
0.34863136516134879
210
0
220
-0
230
1
100
AcDbArc
50
85.632768946103951
51
188.99999999999994
0
LINE
5
104
100
AcDbEntity
8
0
100
AcDbLine
10
-0.14470188016221355
20
0.91361171505050243
30
0
11
-0.22844598007891787
21
1.4423511527446926
31
0
0
ARC
5
105
100
AcDbEntity
8
0
100
AcDbCircle
10
-0.1196987303379765
20
1.4965896085326471
30
0
40
0.34863136516134896
210
0
220
0
230
1
100
AcDbArc
50
94.632768946103951
51
197.99999999999994
0
LINE
5
106
100
AcDbEntity
8
0
100
AcDbLine
10
-0.2858407197968264
20
0.87972727757301705
30
0
11
-0.45126686195955262
21
1.3888565919256526
31
0
0
ARC
5
107
100
AcDbEntity
8
0
100
AcDbCircle
10
-0.35234323513443394
20
1.4594391001571208
30
0
40
0.34863136516134885
210
0
220
0
230
1
100
AcDbArc
50
103.63276894610394
51
206.99999999999991
0
LINE
5
108
100
AcDbEntity
8
0
100
AcDbLine
10
-0.41994121225908077
20
0.82418103487424033
30
0
11
-0.66297605602989329
21
1.3011637724626399
31
0
0
ARC
5
109
100
AcDbEntity
8
0
100
AcDbCircle
10
-0.57631188012172652
20
1.386352357535048
30
0
40
0.34863136516134885
210
0
220
0
230
1
100
AcDbArc
50
112.63276894610394
51
215.99999999999991
0
LINE
5
110
100
AcDbEntity
8
0
100
AcDbLine
10
-0.54370135837053757
20
0.74834071979682648
30
0
11
-0.85836057930939591
21
1.1814319826066157
31
0
0
ARC
5
111
100
AcDbEntity
8
0
100
AcDbCircle
10
-0.78608981395095023
20
1.2791290188307767
30
0
40
0.34863136516134902
210
0
220
0
230
1
100
AcDbArc
50
121.63276894610399
51
224.99999999999991
0
LINE
5
112
100
AcDbEntity
8
0
100
AcDbLine
10
-0.6540737725975565
20
0.6540737725975565
30
0
11
-1.0326094163908639
21
1.0326094163908637
31
0
0
ARC
5
113
100
AcDbEntity
8
0
100
AcDbCircle
10
-0.97651160767818246
20
1.1404092784970652
30
0
40
0.34863136516134902
210
0
220
0
230
1
100
AcDbArc
50
130.63276894610394
51
233.99999999999997
0
LINE
5
114
100
AcDbEntity
8
0
100
AcDbLine
10
-0.74834071979682637
20
0.54370135837053768
30
0
11
-1.1814319826066155
21
0.85836057930939613
31
0
0
ARC
5
115
100
AcDbEntity
8
0
100
AcDbCircle
10
-1.142888444768158
20
0.97360887692535258
30
0
40
0.34863136516134902
210
0
220
0
230
1
100
AcDbArc
50
139.63276894610394
51
242.99999999999994
0
LINE
5
116
100
AcDbEntity
8
0
100
AcDbLine
10
-0.82418103487424021
20
0.41994121225908104
30
0
11
-1.3011637724626397
21
0.66297605602989351
31
0
0
ARC
5
117
100
AcDbEntity
8
0
100
AcDbCircle
10
-1.2811235753186576
20
0.78283499358112862
30
0
40
0.34863136516134896
210
0
220
0
230
1
100
AcDbArc
50
148.63276894610397
51
251.99999999999991
0
LINE
5
118
100
AcDbEntity
8
0
100
AcDbLine
10
-0.87972727757301716
20
0.2858407197968264
30
0
11
-1.3888565919256528
21
0.45126686195955262
31
0
0
ARC
5
119
100
AcDbEntity
8
0
100
AcDbCircle
10
-1.3878131916394314
20
0.57278511461454806
30
0
40
0.34863136516134885
210
0
220
0
230
1
100
AcDbArc
50
157.63276894610394
51
260.99999999999994
0
LINE
5
120
100
AcDbEntity
8
0
100
AcDbLine
10
-0.91361171505050243
20
0.14470188016221355
30
0
11
-1.4423511527446926
21
0.22844598007891787
31
0
0
ARC
5
121
100
AcDbEntity
8
0
100
AcDbCircle
10
-1.4603302412941261
20
0.34863136516134874
30
0
40
0.34863136516134896
210
0
220
0
230
1
100
AcDbArc
50
166.63276894610399
51
269.99999999999989
0
LINE
5
122
100
AcDbEntity
8
0
100
AcDbLine
10
-0.92500000000000027
20
-2.0539125955565397e-16
30
0
11
-1.4603302412941266
21
-3.2425845148822988e-16
31
0
0
ARC
5
123
100
AcDbEntity
8
0
100
AcDbCircle
10
-1.4968891138499534
20
0.11589315445671231
30
0
40
0.34863136516134879
210
0
220
0
230
1
100
AcDbArc
50
175.63276894610397
51
278.99999999999994
0
LINE
5
124
100
AcDbEntity
8
0
100
AcDbLine
10
-0.91361171505050243
20
-0.14470188016221364
30
0
11
-1.4423511527446926
21
-0.228445980078918
31
0
0
ARC
5
125
100
AcDbEntity
8
0
100
AcDbCircle
10
-1.4965896085326473
20
-0.11969873033797646
30
0
40
0.34863136516134879
210
0
220
0
230
1
100
AcDbArc
50
184.63276894610391
51
287.99999999999994
0
LINE
5
126
100
AcDbEntity
8
0
100
AcDbLine
10
-0.87972727757301716
20
-0.2858407197968264
30
0
11
-1.3888565919256528
21
-0.45126686195955262
31
0
0
ARC
5
127
100
AcDbEntity
8
0
100
AcDbCircle
10
-1.4594391001571208
20
-0.35234323513443394
30
0
40
0.34863136516134885
210
0
220
0
230
1
100
AcDbArc
50
193.63276894610391
51
296.99999999999994
0
LINE
5
128
100
AcDbEntity
8
0
100
AcDbLine
10
-0.82418103487424033
20
-0.41994121225908077
30
0
11
-1.3011637724626399
21
-0.66297605602989329
31
0
0
ARC
5
129
100
AcDbEntity
8
0
100
AcDbCircle
10
-1.386352357535048
20
-0.57631188012172629
30
0
40
0.34863136516134902
210
0
220
0
230
1
100
AcDbArc
50
202.63276894610397
51
305.99999999999994
0
LINE
5
130
100
AcDbEntity
8
0
100
AcDbLine
10
-0.74834071979682637
20
-0.54370135837053746
30
0
11
-1.1814319826066155
21
-0.8583605793093958
31
0
0
ARC
5
131
100
AcDbEntity
8
0
100
AcDbCircle
10
-1.2791290188307771
20
-0.78608981395095012
30
0
40
0.34863136516134891
210
0
220
0
230
1
100
AcDbArc
50
211.63276894610388
51
314.99999999999994
0
LINE
5
132
100
AcDbEntity
8
0
100
AcDbLine
10
-0.65407377259755661
20
-0.6540737725975565
30
0
11
-1.0326094163908641
21
-1.0326094163908637
31
0
0
ARC
5
133
100
AcDbEntity
8
0
100
AcDbCircle
10
-1.1404092784970652
20
-0.97651160767818224
30
0
40
0.34863136516134902
210
0
220
0
230
1
100
AcDbArc
50
220.63276894610397
51
323.99999999999989
0
LINE
5
134
100
AcDbEntity
8
0
100
AcDbLine
10
-0.54370135837053768
20
-0.74834071979682615
30
0
11
-0.85836057930939613
21
-1.1814319826066155
31
0
0
ARC
5
135
100
AcDbEntity
8
0
100
AcDbCircle
10
-0.97360887692535258
20
-1.142888444768158
30
0
40
0.34863136516134902
210
0
220
0
230
1
100
AcDbArc
50
229.63276894610394
51
332.99999999999994
0
LINE
5
136
100
AcDbEntity
8
0
100
AcDbLine
10
-0.41994121225908093
20
-0.82418103487424021
30
0
11
-0.66297605602989351
21
-1.3011637724626397
31
0
0
ARC
5
137
100
AcDbEntity
8
0
100
AcDbCircle
10
-0.78283499358112885
20
-1.2811235753186576
30
0
40
0.34863136516134896
210
0
220
0
230
1
100
AcDbArc
50
238.63276894610391
51
341.99999999999994
0
LINE
5
138
100
AcDbEntity
8
0
100
AcDbLine
10
-0.28584071979682651
20
-0.87972727757301716
30
0
11
-0.45126686195955279
21
-1.3888565919256528
31
0
0
ARC
5
139
100
AcDbEntity
8
0
100
AcDbCircle
10
-0.57278511461454817
20
-1.3878131916394314
30
0
40
0.34863136516134885
210
0
220
0
230
1
100
AcDbArc
50
247.63276894610394
51
350.99999999999994
0
LINE
5
140
100
AcDbEntity
8
0
100
AcDbLine
10
-0.14470188016221366
20
-0.91361171505050243
30
0
11
-0.22844598007891806
21
-1.4423511527446926
31
0
0
ARC
5
141
100
AcDbEntity
8
0
100
AcDbCircle
10
-0.34863136516134913
20
-1.4603302412941259
30
0
40
0.34863136516134902
210
0
220
0
230
1
100
AcDbArc
50
256.63276894610391
51
360
0
LINE
5
142
100
AcDbEntity
8
0
100
AcDbLine
10
-1.1327982892113018e-16
20
-0.92500000000000004
30
0
11
-1.7883887556989338e-16
21
-1.4603302412941261
31
0
0
ARC
5
143
100
AcDbEntity
8
0
100
AcDbCircle
10
-0.11589315445671261
20
-1.4968891138499534
30
0
40
0.34863136516134885
210
0
220
0
230
1
100
AcDbArc
50
-94.367231053896049
51
8.9999999999999432
0
LINE
5
144
100
AcDbEntity
8
0
100
AcDbLine
10
0.14470188016221344
20
-0.91361171505050243
30
0
11
0.2284459800789177
21
-1.4423511527446926
31
0
0
ARC
5
145
100
AcDbEntity
8
0
100
AcDbCircle
10
0.11969873033797628
20
-1.4965896085326473
30
0
40
0.34863136516134879
210
0
220
0
230
1
100
AcDbArc
50
-85.367231053896049
51
17.999999999999947
0
LINE
5
146
100
AcDbEntity
8
0
100
AcDbLine
10
0.28584071979682629
20
-0.87972727757301716
30
0
11
0.45126686195955246
21
-1.3888565919256528
31
0
0
ARC
5
147
100
AcDbEntity
8
0
100
AcDbCircle
10
0.35234323513443377
20
-1.459439100157121
30
0
40
0.34863136516134902
210
0
220
0
230
1
100
AcDbArc
50
-76.367231053896049
51
26.999999999999911
0
LINE
5
148
100
AcDbEntity
8
0
100
AcDbLine
10
0.41994121225908077
20
-0.82418103487424055
30
0
11
0.66297605602989318
21
-1.3011637724626401
31
0
0
ARC
5
149
100
AcDbEntity
8
0
100
AcDbCircle
10
0.57631188012172641
20
-1.3863523575350485
30
0
40
0.34863136516134918
210
0
220
0
230
1
100
AcDbArc
50
-67.367231053896106
51
35.999999999999936
0
LINE
5
150
100
AcDbEntity
8
0
100
AcDbLine
10
0.54370135837053757
20
-0.74834071979682659
30
0
11
0.85836057930939591
21
-1.181431982606616
31
0
0
ARC
5
151
100
AcDbEntity
8
0
100
AcDbCircle
10
0.78608981395095012
20
-1.2791290188307767
30
0
40
0.34863136516134891
210
0
220
0
230
1
100
AcDbArc
50
-58.367231053896049
51
44.999999999999936
0
LINE
5
152
100
AcDbEntity
8
0
100
AcDbLine
10
0.6540737725975565
20
-0.6540737725975565
30
0
11
1.0326094163908637
21
-1.0326094163908637
31
0
0
ARC
5
153
100
AcDbEntity
8
0
100
AcDbCircle
10
0.97651160767818246
20
-1.1404092784970656
30
0
40
0.34863136516134891
210
0
220
0
230
1
100
AcDbArc
50
-49.367231053896056
51
53.99999999999995
0
LINE
5
154
100
AcDbEntity
8
0
100
AcDbLine
10
0.74834071979682637
20
-0.5437013583705379
30
0
11
1.1814319826066155
21
-0.85836057930939647
31
0
0
ARC
5
155
100
AcDbEntity
8
0
100
AcDbCircle
10
1.142888444768158
20
-0.97360887692535258
30
0
40
0.34863136516134902
210
0
220
0
230
1
100
AcDbArc
50
-40.367231053896049
51
62.999999999999922
0
LINE
5
156
100
AcDbEntity
8
0
100
AcDbLine
10
0.82418103487424021
20
-0.41994121225908104
30
0
11
1.3011637724626397
21
-0.66297605602989351
31
0
0
ARC
5
157
100
AcDbEntity
8
0
100
AcDbCircle
10
1.2811235753186574
20
-0.78283499358112862
30
0
40
0.34863136516134885
210
0
220
0
230
1
100
AcDbArc
50
-31.367231053896052
51
71.999999999999972
0
LINE
5
158
100
AcDbEntity
8
0
100
AcDbLine
10
0.87972727757301705
20
-0.2858407197968264
30
0
11
1.3888565919256524
21
-0.45126686195955262
31
0
0
ARC
5
159
100
AcDbEntity
8
0
100
AcDbCircle
10
1.387813191639431
20
-0.57278511461454817
30
0
40
0.34863136516134885
210
0
220
0
230
1
100
AcDbArc
50
-22.367231053896052
51
80.999999999999929
0
LINE
5
160
100
AcDbEntity
8
0
100
AcDbLine
10
0.91361171505050232
20
-0.14470188016221364
30
0
11
1.4423511527446924
21
-0.228445980078918
31
0
0
ARC
5
161
100
AcDbEntity
8
0
100
AcDbCircle
10
1.4603302412941259
20
-0.34863136516134924
30
0
40
0.34863136516134907
210
0
220
0
230
1
100
AcDbArc
50
-13.367231053896052
51
89.999999999999972
0
LINE
5
162
100
AcDbEntity
8
0
100
AcDbLine
10
0.92500000000000004
20
-2.0539125955565397e-16
30
0
11
1.4603302412941261
21
-3.2425845148822988e-16
31
0
0
ARC
5
163
100
AcDbEntity
8
0
100
AcDbCircle
10
1.4968891138499534
20
-0.11589315445671279
30
0
40
0.34863136516134918
210
0
220
0
230
1
100
AcDbArc
50
-4.3672310538960515
51
98.999999999999957
0
LINE
5
164
100
AcDbEntity
8
0
100
AcDbLine
10
0.91361171505050265
20
0.14470188016221333
30
0
11
1.4423511527446926
21
0.22844598007891753
31
0
0
ARC
5
165
100
AcDbEntity
8
0
100
AcDbCircle
10
1.4965896085326471
20
0.11969873033797593
30
0
40
0.34863136516134896
210
0
220
-0
230
1
100
AcDbArc
50
4.632768946103913
51
107.99999999999993
0
LINE
5
166
100
AcDbEntity
8
0
100
AcDbLine
10
0.87972727757301716
20
0.28584071979682613
30
0
11
1.3888565919256528
21
0.45126686195955212
31
0
0
ARC
5
167
100
AcDbEntity
8
0
100
AcDbCircle
10
1.4594391001571208
20
0.35234323513443394
30
0
40
0.34863136516134885
210
0
220
-0
230
1
100
AcDbArc
50
13.632768946103919
51
116.99999999999993
0
LINE
5
168
100
AcDbEntity
8
0
100
AcDbLine
10
0.82418103487424033
20
0.41994121225908077
30
0
11
1.3011637724626399
21
0.66297605602989329
31
0
0
ARC
5
169
100
AcDbEntity
8
0
100
AcDbCircle
10
1.386352357535048
20
0.57631188012172652
30
0
40
0.34863136516134885
210
0
220
-0
230
1
100
AcDbArc
50
22.63276894610393
51
125.99999999999991
0
LINE
5
170
100
AcDbEntity
8
0
100
AcDbLine
10
0.74834071979682648
20
0.54370135837053757
30
0
11
1.1814319826066157
21
0.85836057930939591
31
0
0
ARC
5
171
100
AcDbEntity
8
0
100
AcDbCircle
10
1.2791290188307769
20
0.7860898139509499
30
0
40
0.34863136516134913
210
0
220
-0
230
1
100
AcDbArc
50
31.632768946103923
51
134.99999999999991
0
LINE
5
172
100
AcDbEntity
8
0
100
AcDbLine
10
0.65407377259755661
20
0.65407377259755639
30
0
11
1.0326094163908641
21
1.0326094163908637
31
0
0
ARC
5
173
100
AcDbEntity
8
0
100
AcDbCircle
10
1.1404092784970654
20
0.97651160767818246
30
0
40
0.34863136516134902
210
0
220
-0
230
1
100
AcDbArc
50
40.632768946103951
51
143.99999999999994
0
LINE
5
174
100
AcDbEntity
8
0
100
AcDbLine
10
0.54370135837053779
20
0.74834071979682637
30
0
11
0.85836057930939624
21
1.1814319826066155
31
0
0
ARC
5
175
100
AcDbEntity
8
0
100
AcDbCircle
10
0.97360887692535258
20
1.142888444768158
30
0
40
0.34863136516134913
210
0
220
-0
230
1
100
AcDbArc
50
49.632768946103944
51
152.99999999999991
0
LINE
5
176
100
AcDbEntity
8
0
100
AcDbLine
10
0.41994121225908104
20
0.82418103487424021
30
0
11
0.66297605602989362
21
1.3011637724626397
31
0
0
ARC
5
177
100
AcDbEntity
8
0
100
AcDbCircle
10
0.78283499358112885
20
1.2811235753186574
30
0
40
0.34863136516134913
210
0
220
-0
230
1
100
AcDbArc
50
58.632768946103958
51
161.99999999999994
0
LINE
5
178
100
AcDbEntity
8
0
100
AcDbLine
10
0.28584071979682657
20
0.87972727757301705
30
0
11
0.4512668619595529
21
1.3888565919256526
31
0
0
ARC
5
179
100
AcDbEntity
8
0
100
AcDbCircle
10
0.5727851146145484
20
1.387813191639431
30
0
40
0.34863136516134913
210
0
220
-0
230
1
100
AcDbArc
50
67.632768946103951
51
170.99999999999989
0
LINE
5
180
100
AcDbEntity
8
0
100
AcDbLine
10
0.1447018801622138
20
0.91361171505050243
30
0
11
0.22844598007891825
21
1.4423511527446926
31
0
0
ENDSEC
0
SECTION
2
OBJECTS
0
DICTIONARY
5
C
100
AcDbDictionary
3
ACAD_GROUP
350
D
3
ACAD_MLINESTYLE
350
17
0
DICTIONARY
5
D
100
AcDbDictionary
0
DICTIONARY
5
1A
330
C
100
AcDbDictionary
0
DICTIONARY
5
17
100
AcDbDictionary
0
ENDSEC
0
EOF
