0
SECTION
2
HEADER
9
$INSUNITS
70
4
9
$ACADVER
1
AC1014
9
$HANDSEED
5
FFFF
0
ENDSEC
0
SECTION
2
TABLES
0
TABLE
2
VPORT
5
8
100
AcDbSymbolTable
0
ENDTAB
0
TABLE
2
LTYPE
5
5
100
AcDbSymbolTable
0
LTYPE
5
14
100
AcDbSymbolTableRecord
100
AcDbLinetypeTableRecord
2
BYBLOCK
70
0
0
LTYPE
5
15
100
AcDbSymbolTableRecord
100
AcDbLinetypeTableRecord
2
BYLAYER
70
0
0
ENDTAB
0
TABLE
2
LAYER
5
2
100
AcDbSymbolTable
70
2
0
LAYER
5
50
100
AcDbSymbolTableRecord
100
AcDbLayerTableRecord
2
0
70
0
6
CONTINUOUS
0
ENDTAB
0
TABLE
2
STYLE
5
3
100
AcDbSymbolTable
70
1
0
STYLE
5
11
100
AcDbSymbolTableRecord
100
AcDbTextStyleTableRecord
2
STANDARD
70
0
0
ENDTAB
0
TABLE
2
VIEW
5
6
100
AcDbSymbolTable
70
0
0
ENDTAB
0
TABLE
2
UCS
5
7
100
AcDbSymbolTable
70
0
0
ENDTAB
0
TABLE
2
APPID
5
9
100
AcDbSymbolTable
70
2
0
APPID
5
12
100
AcDbSymbolTableRecord
100
AcDbRegAppTableRecord
2
ACAD
70
0
0
ENDTAB
0
TABLE
2
DIMSTYLE
5
A
100
AcDbSymbolTable
70
1
0
ENDTAB
0
TABLE
2
BLOCK_RECORD
5
1
100
AcDbSymbolTable
70
1
0
BLOCK_RECORD
5
1F
100
AcDbSymbolTableRecord
100
AcDbBlockTableRecord
2
*MODEL_SPACE
0
BLOCK_RECORD
5
1B
100
AcDbSymbolTableRecord
100
AcDbBlockTableRecord
2
*PAPER_SPACE
0
ENDTAB
0
ENDSEC
0
SECTION
2
BLOCKS
0
BLOCK
5
20
100
AcDbEntity
100
AcDbBlockBegin
2
*MODEL_SPACE
0
ENDBLK
5
21
100
AcDbEntity
100
AcDbBlockEnd
0
BLOCK
5
1C
100
AcDbEntity
100
AcDbBlockBegin
2
*PAPER_SPACE
0
ENDBLK
5
1D
100
AcDbEntity
100
AcDbBlockEnd
0
ENDSEC
0
SECTION
2
ENTITIES
0
LWPOLYLINE
5
100
100
AcDbEntity
8
0
100
AcDbPolyline
90
132
70
1
43
0.0
10
86.977514763299553
20
-156.20537828732805
10
86.977345742688087
20
-156.20537757090324
10
86.972433154219317
20
-157.36436715949952
10
86.97743310930386
20
-157.36438835271983
10
87.592944757304423
20
-158.23029790628325
42
-0.039565152729244261
10
88.165072913452946
20
-158.55372190420087
42
-0.016825024094511639
10
87.99007673286826
20
-160.21372421652848
42
-0.63897456094635718
10
87.637214875073568
20
-160.3209267328663
42
0.46897082089292286
10
83.9778021234291
20
-160.44836889285904
10
79.876475190128133
20
-159.49675402651638
10
78.720384358231925
20
-160.24425316597089
42
-0.0004503529015425863
10
78.714126832243579
20
-160.27122222748889
10
79.422939886633969
20
-161.4514277303567
10
83.532009561863063
20
-162.4048391148616
42
0.46874590589362464
10
86.773364446910136
20
-164.1057027509797
42
-0.63897456094623339
10
87.044768566821702
20
-164.35538990301296
42
-0.018009714080851388
10
86.438616089923599
20
-166.03608361042347
42
-0.092193291690962173
10
84.919181931580937
20
-165.96948951071397
10
83.994367408213606
20
-167.88743946585015
42
-0.092193291690899931
10
84.992640616457493
20
-169.03485636364968
42
-0.017760301574332296
10
84.068758456932414
20
-170.53513857261191
42
-0.63897456094593241
10
83.704327479757808
20
-170.47862368014125
42
0.46916453280924936
10
80.350662555725165
20
-169.00636137373436
10
77.041125580761914
20
-166.31241250151518
10
75.674119811100624
20
-166.47549591816241
42
-0.00045035290135773411
10
75.65664220161554
20
-166.49696729626515
10
75.774376879206983
20
-167.86862305510653
10
79.10110599325634
20
-170.57656625464463
42
0.46853719214815248
10
81.283872366995297
20
-173.51377839063758
42
-0.63897456094585003
10
81.420063834522537
20
-173.85649657569417
42
-0.01882032035739176
10
80.085233374801959
20
-175.16186709784932
42
-0.092193291690883236
10
78.747502979903871
20
-174.43827029975253
10
77.077814910914938
20
-175.75961646382663
42
-0.092193291690845738
10
77.474625587951138
20
-177.22783178258658
42
-0.016949726022588468
10
76.057478915378979
20
-178.13301534433194
42
-0.63897456094574978
10
75.753658843306383
20
-177.92397651061646
42
0.46929234960741839
10
73.369904170957696
20
-175.14242838961479
10
71.527487050761465
20
-171.17142428622606
10
70.227061382494909
20
-170.71954592162388
42
-0.00045035290208193275
10
70.201947334810541
20
-170.73119802527484
10
69.70726173164428
20
-172.01594980250405
10
71.563081103773698
20
-176.01584008852649
42
0.46839106794231594
10
72.255999865960632
20
-179.60836029935001
42
-0.63897456094569582
10
72.230004290680881
20
-179.97622997771717
42
-0.017885007549525198
10
70.54990554569406
20
-180.54666323396415
42
-0.092193291690824908
10
69.654006228027569
20
-179.31764763265835
10
67.578116161144607
20
-179.79145599397566
42
-0.09219329169081808
10
67.304188651680576
20
-181.28747693474165
42
-0.017885007549526308
10
65.54297027330756
20
-181.50250185520662
42
-0.63897456094554128
10
65.359936397719508
20
-181.18234178495641
42
0.46933454292286192
10
64.418817252612683
20
-177.64184281146609
10
64.490469794297923
20
-173.12391668283465
10
63.516316227595418
20
-172.15112389731775
42
-0.00045035290279069924
10
63.488634208756103
20
-172.1506848713239
10
62.484122103937771
20
-173.09209679303882
10
62.411913075191251
20
-177.64511124338418
42
0.46834125704807145
10
61.477827812227105
20
-181.18234178495666
42
-0.63897456094562233
10
61.294793936638925
20
-181.50250185520798
42
-0.016949726022582691
10
59.625244475042237
20
-181.30183654351029
42
-0.044977971796530618
10
59.419720098894864
20
-180.58388690949641
10
55.880300137633043
20
-179.7899525897783
42
-0.28826183741127293
10
39.418606837996904
20
-159.95922243807681
42
-0.27180458499673993
10
40.305699792540366
20
-159.43852243807672
10
49.131382104972971
20
-159.43852243807683
10
49.131382104972971
20
-161.54672243807678
10
50.718882104972778
20
-161.54672243807678
10
50.718882104975059
20
-157.29503397109755
10
50.7205432356103
20
-157.29504101210162
10
50.718882104974909
20
-156.9031431109986
10
50.718882104972778
20
-152.02172243807681
10
49.131382104972971
20
-152.02172243807681
10
49.131382104972971
20
-154.12992243807682
10
40.305699792540366
20
-154.12992243807358
42
-0.27180458499606358
10
39.418606837976434
20
-153.60922243807406
42
-0.2882618374112314
10
55.880300137627984
20
-133.77849228635992
10
59.419720098894857
20
-132.98455796665715
42
-0.044977971796579787
10
59.625244475042578
20
-132.26660833264432
42
-0.016949726022577362
10
61.294793936639032
20
-132.06594302094672
42
-0.6389745609457903
10
61.477827812227076
20
-132.38610309119696
42
0.46834125704806234
10
62.411913075191279
20
-135.9233336327693
10
62.484122103937771
20
-140.47634808311474
10
63.488634208757404
20
-141.41776000482966
42
-0.00045035290143478359
10
63.516316227591865
20
-141.41732097883587
10
64.490469794297923
20
-140.44452819331894
10
64.418817252612726
20
-135.92660206468773
42
0.46933454292285576
10
65.359936397719522
20
-132.38610309119719
42
-0.63897456094575134
10
65.542970273307617
20
-132.065943020948
42
-0.017885007549520091
10
67.30418865168032
20
-132.28096794141294
42
-0.092193291690827378
10
67.57811616114455
20
-133.77698888217793
10
69.654006228027498
20
-134.25079724349524
42
-0.092193291690816734
10
70.549905545693775
20
-133.02178164219043
42
-0.017885007549520868
10
72.230004290680483
20
-133.59221489843725
42
-0.63897456094569149
10
72.255999865960632
20
-133.96008457680358
42
0.46839106794229768
10
71.563081103773726
20
-137.55260478762708
10
69.70726173164428
20
-141.5524950736496
10
70.201947334810811
20
-142.8372468508789
42
-0.00045035290149640097
10
70.227061382500438
20
-142.8488989545323
10
71.527487050761479
20
-142.39702058992754
10
73.369904170957696
20
-138.42601648653886
42
0.46929234960744992
10
75.753658843306425
20
-135.64446836553714
42
-0.63897456094586957
10
76.057478915378567
20
-135.43542953182236
42
-0.016949726022586022
10
77.47462558795084
20
-136.34061309356758
42
-0.092193291690848875
10
77.077814910914952
20
-137.80882841232693
10
78.747502979903857
20
-139.13017457640106
42
-0.092193291690854468
10
80.085233374801419
20
-138.40657777830484
42
-0.018820320357388426
10
81.420063834522139
20
-139.71194830045974
42
-0.63897456094591853
10
81.283872366995254
20
-140.05466648551601
42
0.46853719214815021
10
79.101105993256354
20
-142.9918786215089
10
75.774376879206983
20
-145.69982182104704
10
75.656642201616833
20
-147.07147757988997
42
-0.00045035290166593208
10
75.674119811100709
20
-147.0929489579913
10
77.041125580761914
20
-147.25603237463838
10
80.350662555725151
20
-144.56208350241928
42
0.46916453280923831
10
83.704327479757822
20
-143.08982119601234
42
-0.63897456094587313
10
84.068758456932017
20
-143.03330630354208
42
-0.01776030157432841
10
84.992640616457308
20
-144.53358851250391
42
-0.092193291690919638
10
83.994367408213634
20
-145.68100541030347
10
84.919181931580937
20
-147.59895536543956
42
-0.092193291690956136
10
86.438616089923386
20
-147.53236126573023
42
-0.018009714080850944
10
87.044768566821901
20
-149.21305497314069
42
-0.63897456094625371
10
86.773364446910136
20
-149.46274212517386
42
0.46874590589361426
10
83.532009561863063
20
-151.16360576129205
10
79.422939886633969
20
-152.11701714579686
10
78.71412683224365
20
-153.29722264866501
42
-0.0004503529012190672
10
78.720384358232778
20
-153.32419171018631
10
79.876475190128133
20
-154.07169084963721
10
83.9778021234291
20
-153.12007598329453
42
0.46897082089294201
10
87.637214875073553
20
-153.24751814328727
42
-0.63897456094625094
10
87.99007673286836
20
-153.35472065962503
42
-0.016825024094512416
10
88.165072913453386
20
-155.01472297195278
42
-0.03956515272923581
10
87.592944757304437
20
-155.33814696987037
10
86.977520889271261
20
-156.20393303346793
0
LINE
5
101
100
AcDbEntity
8
0
100
AcDbLine
10
84.456774669897271
20
-166.92846448828206
30
0
11
75.446008237829602
21
-162.59187546215276
31
0
0
LINE
5
102
100
AcDbEntity
8
0
100
AcDbLine
10
77.912658945409405
20
-175.09894338178958
30
0
11
71.701183749123757
21
-167.26201209711249
31
0
0
LINE
5
103
100
AcDbEntity
8
0
100
AcDbLine
10
68.616061194586081
20
-179.554551813317
30
0
11
66.383560971292056
21
-169.80694396175593
31
0
0
LINE
5
104
100
AcDbEntity
8
0
100
AcDbLine
10
58.380542815039711
20
-180.35078698946336
30
0
11
60.569274458542608
21
-170.59325380772481
31
0
0
LINE
5
105
100
AcDbEntity
8
0
100
AcDbLine
10
58.380542815039711
20
-133.21765788669029
30
0
11
60.569274458542608
21
-142.97519106842884
31
0
0
LINE
5
106
100
AcDbEntity
8
0
100
AcDbLine
10
68.616061194586081
20
-134.01389306283664
30
0
11
66.383560971292056
21
-143.76150091439771
31
0
0
LINE
5
107
100
AcDbEntity
8
0
100
AcDbLine
10
77.912658945409405
20
-138.46950149436407
30
0
11
71.701183749123757
21
-146.30643277904116
31
0
0
LINE
5
108
100
AcDbEntity
8
0
100
AcDbLine
10
84.456774669897271
20
-146.63998038787159
30
0
11
75.446008237829602
21
-150.97656941400089
31
0
0
LINE
5
109
100
AcDbEntity
8
0
100
AcDbLine
10
86.97743310930386
20
-157.36438835271983
30
0
11
86.977520889271261
21
-156.20393303346793
31
0
0
LINE
5
110
100
AcDbEntity
8
0
100
AcDbLine
10
86.97747699928756
20
-156.7841606930939
30
0
11
76.977477027896654
21
-156.78340426614926
31
0
0
ENDSEC
0
SECTION
2
OBJECTS
0
DICTIONARY
5
C
100
AcDbDictionary
3
ACAD_GROUP
350
D
3
ACAD_MLINESTYLE
350
17
0
DICTIONARY
5
D
100
AcDbDictionary
0
DICTIONARY
5
1A
330
C
100
AcDbDictionary
0
DICTIONARY
5
17
100
AcDbDictionary
0
ENDSEC
0
EOF
