  0
SECTION
  2
HEADER
  9
$ACADVER
  1
AC1009
  0
ENDSEC
  0
SECTION
  2
ENTITIES
  0
POLYLINE
  5
90
  8
Layer_0
  62
3
  66
1
  10
0
  20
0
  30
0
  0
VERTEX
  5
90
  8
Layer_0
  10
51.665573
  20
576.34595
  0
VERTEX
  5
91
  8
Layer_0
  10
42.654808
  20
572.0094
  0
SEQEND
  0
POLYLINE
  5
93
  8
Layer_0
  62
3
  66
1
  10
0
  20
0
  30
0
  0
VERTEX
  5
93
  8
Layer_0
  10
35.82486
  20
588.97205
  0
VERTEX
  5
94
  8
Layer_0
  10
33.592361
  20
579.22449
  0
SEQEND
  0
POLYLINE
  5
96
  8
Layer_0
  62
3
  66
1
  10
0
  20
0
  30
0
  0
VERTEX
  5
96
  8
Layer_0
  10
45.12146
  20
547.88702
  0
VERTEX
  5
97
  8
Layer_0
  10
38.909988
  20
555.72394
  0
SEQEND
  0
POLYLINE
  5
99
  8
Layer_0
  62
3
  66
1
  10
0
  20
0
  30
0
  0
VERTEX
  5
99
  8
Layer_0
  10
54.186279
  20
566.20178
  0
VERTEX
  5
9a
  8
Layer_0
  10
44.186279
  20
566.20258
  0
SEQEND
  0
POLYLINE
  5
9c
  8
Layer_1
  62
0
  66
1
  10
0
  20
0
  30
0
  0
VERTEX
  5
9c
  8
Layer_1
  10
54.185745
  20
565.62158
  0
VERTEX
  5
9d
  8
Layer_1
  10
54.185837
  20
566.78204
  0
SEQEND
  0
POLYLINE
  5
9f
  8
Layer_1
  62
0
  70
1
  66
1
  10
0
  20
0
  30
0
  0
VERTEX
  5
9f
  8
Layer_1
  10
16.339552
  20
561.43945
  0
VERTEX
  5
a0
  8
Layer_1
  10
16.339552
  20
563.54767
  0
VERTEX
  5
a1
  8
Layer_1
  10
7.5138674
  20
563.54767
  0
VERTEX
  5
a2
  8
Layer_1
  10
7.2451677
  20
563.51147
  0
VERTEX
  5
a3
  8
Layer_1
  10
6.9995584
  20
563.40784
  0
VERTEX
  5
a4
  8
Layer_1
  10
6.7893343
  20
563.2439
  0
VERTEX
  5
a5
  8
Layer_1
  10
6.6267748
  20
563.02692
  0
VERTEX
  5
a6
  8
Layer_1
  10
6.7562685
  20
562.16669
  0
VERTEX
  5
a7
  8
Layer_1
  10
6.9156055
  20
561.31592
  0
VERTEX
  5
a8
  8
Layer_1
  10
7.1042833
  20
560.47522
  0
VERTEX
  5
a9
  8
Layer_1
  10
7.321805
  20
559.6452
  0
VERTEX
  5
aa
  8
Layer_1
  10
7.567668
  20
558.82654
  0
VERTEX
  5
ab
  8
Layer_1
  10
7.8413715
  20
558.01971
  0
VERTEX
  5
ac
  8
Layer_1
  10
8.1424131
  20
557.22546
  0
VERTEX
  5
ad
  8
Layer_1
  10
8.4702921
  20
556.44427
  0
VERTEX
  5
ae
  8
Layer_1
  10
8.8245106
  20
555.67676
  0
VERTEX
  5
af
  8
Layer_1
  10
9.2045641
  20
554.92358
  0
VERTEX
  5
b0
  8
Layer_1
  10
9.609952
  20
554.18536
  0
VERTEX
  5
b1
  8
Layer_1
  10
10.040177
  20
553.46259
  0
VERTEX
  5
b2
  8
Layer_1
  10
10.494737
  20
552.75598
  0
VERTEX
  5
b3
  8
Layer_1
  10
10.973125
  20
552.0661
  0
VERTEX
  5
b4
  8
Layer_1
  10
11.474847
  20
551.39355
  0
VERTEX
  5
b5
  8
Layer_1
  10
11.999398
  20
550.73895
  0
VERTEX
  5
b6
  8
Layer_1
  10
12.546281
  20
550.10284
  0
VERTEX
  5
b7
  8
Layer_1
  10
13.114991
  20
549.4859
  0
VERTEX
  5
b8
  8
Layer_1
  10
13.705033
  20
548.88867
  0
VERTEX
  5
b9
  8
Layer_1
  10
14.315901
  20
548.31183
  0
VERTEX
  5
ba
  8
Layer_1
  10
14.947091
  20
547.75592
  0
VERTEX
  5
bb
  8
Layer_1
  10
15.598111
  20
547.22156
  0
VERTEX
  5
bc
  8
Layer_1
  10
16.268454
  20
546.70935
  0
VERTEX
  5
bd
  8
Layer_1
  10
16.957617
  20
546.21991
  0
VERTEX
  5
be
  8
Layer_1
  10
17.665106
  20
545.75385
  0
VERTEX
  5
bf
  8
Layer_1
  10
18.390415
  20
545.31171
  0
VERTEX
  5
c0
  8
Layer_1
  10
19.133047
  20
544.89423
  0
VERTEX
  5
c1
  8
Layer_1
  10
19.892496
  20
544.50183
  0
VERTEX
  5
c2
  8
Layer_1
  10
20.668262
  20
544.13525
  0
VERTEX
  5
c3
  8
Layer_1
  10
21.459846
  20
543.79504
  0
VERTEX
  5
c4
  8
Layer_1
  10
22.26675
  20
543.48181
  0
VERTEX
  5
c5
  8
Layer_1
  10
23.088469
  20
543.19623
  0
VERTEX
  5
c6
  8
Layer_1
  10
26.62789
  20
542.40228
  0
VERTEX
  5
c7
  8
Layer_1
  10
26.714504
  20
542.03864
  0
VERTEX
  5
c8
  8
Layer_1
  10
26.833412
  20
541.68433
  0
VERTEX
  5
c9
  8
Layer_1
  10
27.732952
  20
541.56195
  0
VERTEX
  5
ca
  8
Layer_1
  10
28.63637
  20
541.47253
  0
VERTEX
  5
cb
  8
Layer_1
  10
28.749298
  20
541.49634
  0
VERTEX
  5
cc
  8
Layer_1
  10
28.831059
  20
541.57776
  0
VERTEX
  5
cd
  8
Layer_1
  10
28.855282
  20
541.69061
  0
VERTEX
  5
ce
  8
Layer_1
  10
28.814156
  20
541.79846
  0
VERTEX
  5
cf
  8
Layer_1
  10
28.671341
  20
542.00873
  0
VERTEX
  5
d0
  8
Layer_1
  10
28.553797
  20
542.23145
  0
VERTEX
  5
d1
  8
Layer_1
  10
28.46199
  20
542.46442
  0
VERTEX
  5
d2
  8
Layer_1
  10
28.396414
  20
542.70532
  0
VERTEX
  5
d3
  8
Layer_1
  10
28.357546
  20
542.95197
  0
VERTEX
  5
d4
  8
Layer_1
  10
28.345863
  20
543.20209
  0
VERTEX
  5
d5
  8
Layer_1
  10
28.361855
  20
543.45343
  0
VERTEX
  5
d6
  8
Layer_1
  10
28.405998
  20
543.7038
  0
VERTEX
  5
d7
  8
Layer_1
  10
28.47769
  20
543.94763
  0
VERTEX
  5
d8
  8
Layer_1
  10
28.57505
  20
544.17993
  0
VERTEX
  5
d9
  8
Layer_1
  10
28.696655
  20
544.3988
  0
VERTEX
  5
da
  8
Layer_1
  10
28.841076
  20
544.60248
  0
VERTEX
  5
db
  8
Layer_1
  10
29.006884
  20
544.78918
  0
VERTEX
  5
dc
  8
Layer_1
  10
29.192642
  20
544.95709
  0
VERTEX
  5
dd
  8
Layer_1
  10
29.396927
  20
545.10437
  0
VERTEX
  5
de
  8
Layer_1
  10
30.021973
  20
545.45709
  0
VERTEX
  5
df
  8
Layer_1
  10
30.089554
  20
549.71814
  0
VERTEX
  5
e0
  8
Layer_1
  10
30.702042
  20
550.29218
  0
VERTEX
  5
e1
  8
Layer_1
  10
31.296001
  20
549.69904
  0
VERTEX
  5
e2
  8
Layer_1
  10
31.228703
  20
545.45557
  0
VERTEX
  5
e3
  8
Layer_1
  10
31.847904
  20
545.11029
  0
VERTEX
  5
e4
  8
Layer_1
  10
32.053474
  20
544.9635
  0
VERTEX
  5
e5
  8
Layer_1
  10
32.240498
  20
544.7959
  0
VERTEX
  5
e6
  8
Layer_1
  10
32.407532
  20
544.60938
  0
VERTEX
  5
e7
  8
Layer_1
  10
32.553123
  20
544.40564
  0
VERTEX
  5
e8
  8
Layer_1
  10
32.675823
  20
544.18652
  0
VERTEX
  5
e9
  8
Layer_1
  10
32.774185
  20
543.95392
  0
VERTEX
  5
ea
  8
Layer_1
  10
32.846764
  20
543.70947
  0
VERTEX
  5
eb
  8
Layer_1
  10
32.891644
  20
543.4585
  0
VERTEX
  5
ec
  8
Layer_1
  10
32.908203
  20
543.20648
  0
VERTEX
  5
ed
  8
Layer_1
  10
32.896935
  20
542.95563
  0
VERTEX
  5
ee
  8
Layer_1
  10
32.858315
  20
542.70819
  0
VERTEX
  5
ef
  8
Layer_1
  10
32.79282
  20
542.46649
  0
VERTEX
  5
f0
  8
Layer_1
  10
32.700939
  20
542.23285
  0
VERTEX
  5
f1
  8
Layer_1
  10
32.583153
  20
542.0094
  0
VERTEX
  5
f2
  8
Layer_1
  10
32.439949
  20
541.79846
  0
VERTEX
  5
f3
  8
Layer_1
  10
32.398823
  20
541.69061
  0
VERTEX
  5
f4
  8
Layer_1
  10
32.423042
  20
541.57782
  0
VERTEX
  5
f5
  8
Layer_1
  10
32.504807
  20
541.49634
  0
VERTEX
  5
f6
  8
Layer_1
  10
32.617729
  20
541.47253
  0
VERTEX
  5
f7
  8
Layer_1
  10
33.567219
  20
541.56738
  0
VERTEX
  5
f8
  8
Layer_1
  10
34.51236
  20
541.69867
  0
VERTEX
  5
f9
  8
Layer_1
  10
34.632343
  20
542.06201
  0
VERTEX
  5
fa
  8
Layer_1
  10
34.718285
  20
542.43408
  0
VERTEX
  5
fb
  8
Layer_1
  10
34.769737
  20
542.81244
  0
VERTEX
  5
fc
  8
Layer_1
  10
34.786285
  20
543.1947
  0
VERTEX
  5
fd
  8
Layer_1
  10
36.862175
  20
543.66852
  0
VERTEX
  5
fe
  8
Layer_1
  10
37.042946
  20
543.33124
  0
VERTEX
  5
ff
  8
Layer_1
  10
37.253479
  20
543.0127
  0
VERTEX
  5
100
  8
Layer_1
  10
37.492332
  20
542.71478
  0
VERTEX
  5
101
  8
Layer_1
  10
37.758072
  20
542.43951
  0
VERTEX
  5
102
  8
Layer_1
  10
38.666573
  20
542.73126
  0
VERTEX
  5
103
  8
Layer_1
  10
39.563187
  20
543.0578
  0
VERTEX
  5
104
  8
Layer_1
  10
39.654613
  20
543.12823
  0
VERTEX
  5
105
  8
Layer_1
  10
39.69294
  20
543.23706
  0
VERTEX
  5
106
  8
Layer_1
  10
39.66581
  20
543.34924
  0
VERTEX
  5
107
  8
Layer_1
  10
39.581963
  20
543.42853
  0
VERTEX
  5
108
  8
Layer_1
  10
39.362022
  20
543.55609
  0
VERTEX
  5
109
  8
Layer_1
  10
39.159447
  20
543.70575
  0
VERTEX
  5
10a
  8
Layer_1
  10
38.975647
  20
543.87585
  0
VERTEX
  5
10b
  8
Layer_1
  10
38.812019
  20
544.06451
  0
VERTEX
  5
10c
  8
Layer_1
  10
38.669983
  20
544.2699
  0
VERTEX
  5
10d
  8
Layer_1
  10
38.550941
  20
544.49023
  0
VERTEX
  5
10e
  8
Layer_1
  10
38.456306
  20
544.72369
  0
VERTEX
  5
10f
  8
Layer_1
  10
38.387482
  20
544.96838
  0
VERTEX
  5
110
  8
Layer_1
  10
38.346291
  20
545.21924
  0
VERTEX
  5
111
  8
Layer_1
  10
38.333267
  20
545.47083
  0
VERTEX
  5
112
  8
Layer_1
  10
38.347908
  20
545.72083
  0
VERTEX
  5
113
  8
Layer_1
  10
38.389702
  20
545.96704
  0
VERTEX
  5
114
  8
Layer_1
  10
38.458138
  20
546.20715
  0
VERTEX
  5
115
  8
Layer_1
  10
38.552719
  20
546.43903
  0
VERTEX
  5
116
  8
Layer_1
  10
38.672928
  20
546.6604
  0
VERTEX
  5
117
  8
Layer_1
  10
39.082932
  20
547.24896
  0
VERTEX
  5
118
  8
Layer_1
  10
37.349648
  20
550.98474
  0
VERTEX
  5
119
  8
Layer_1
  10
37.651276
  20
551.76807
  0
VERTEX
  5
11a
  8
Layer_1
  10
38.444183
  20
551.49261
  0
VERTEX
  5
11b
  8
Layer_1
  10
40.170723
  20
547.7713
  0
VERTEX
  5
11c
  8
Layer_1
  10
40.878807
  20
547.72864
  0
VERTEX
  5
11d
  8
Layer_1
  10
41.127655
  20
547.68555
  0
VERTEX
  5
11e
  8
Layer_1
  10
41.368828
  20
547.61572
  0
VERTEX
  5
11f
  8
Layer_1
  10
41.600212
  20
547.52008
  0
VERTEX
  5
120
  8
Layer_1
  10
41.819733
  20
547.39966
  0
VERTEX
  5
121
  8
Layer_1
  10
42.025299
  20
547.25549
  0
VERTEX
  5
122
  8
Layer_1
  10
42.214821
  20
547.08856
  0
VERTEX
  5
123
  8
Layer_1
  10
42.3862
  20
546.89984
  0
VERTEX
  5
124
  8
Layer_1
  10
42.535484
  20
546.69324
  0
VERTEX
  5
125
  8
Layer_1
  10
42.659729
  20
546.47333
  0
VERTEX
  5
126
  8
Layer_1
  10
42.758392
  20
546.24243
  0
VERTEX
  5
127
  8
Layer_1
  10
42.830917
  20
546.00281
  0
VERTEX
  5
128
  8
Layer_1
  10
42.876755
  20
545.75665
  0
VERTEX
  5
129
  8
Layer_1
  10
42.89537
  20
545.50629
  0
VERTEX
  5
12a
  8
Layer_1
  10
42.886192
  20
545.25391
  0
VERTEX
  5
12b
  8
Layer_1
  10
42.848694
  20
545.00177
  0
VERTEX
  5
12c
  8
Layer_1
  10
42.858421
  20
544.88672
  0
VERTEX
  5
12d
  8
Layer_1
  10
42.929199
  20
544.79559
  0
VERTEX
  5
12e
  8
Layer_1
  10
43.0382
  20
544.75769
  0
VERTEX
  5
12f
  8
Layer_1
  10
43.150269
  20
544.78522
  0
VERTEX
  5
130
  8
Layer_1
  10
43.925438
  20
545.25775
  0
VERTEX
  5
131
  8
Layer_1
  10
44.682793
  20
545.7583
  0
VERTEX
  5
132
  8
Layer_1
  10
44.634666
  20
546.13794
  0
VERTEX
  5
133
  8
Layer_1
  10
44.552063
  20
546.51068
  0
VERTEX
  5
134
  8
Layer_1
  10
44.435623
  20
546.87439
  0
VERTEX
  5
135
  8
Layer_1
  10
44.28598
  20
547.2265
  0
VERTEX
  5
136
  8
Layer_1
  10
45.955673
  20
548.54791
  0
VERTEX
  5
137
  8
Layer_1
  10
46.264015
  20
548.32129
  0
VERTEX
  5
138
  8
Layer_1
  10
46.591179
  20
548.12445
  0
VERTEX
  5
139
  8
Layer_1
  10
46.93502
  20
547.95837
  0
VERTEX
  5
13a
  8
Layer_1
  10
47.293404
  20
547.82428
  0
VERTEX
  5
13b
  8
Layer_1
  10
48.020897
  20
548.51129
  0
VERTEX
  5
13c
  8
Layer_1
  10
48.720085
  20
549.22705
  0
VERTEX
  5
13d
  8
Layer_1
  10
48.771896
  20
549.33014
  0
VERTEX
  5
13e
  8
Layer_1
  10
48.759209
  20
549.44489
  0
VERTEX
  5
13f
  8
Layer_1
  10
48.686104
  20
549.53418
  0
VERTEX
  5
140
  8
Layer_1
  10
48.576149
  20
549.56921
  0
VERTEX
  5
141
  8
Layer_1
  10
48.322556
  20
549.58868
  0
VERTEX
  5
142
  8
Layer_1
  10
48.074974
  20
549.63574
  0
VERTEX
  5
143
  8
Layer_1
  10
47.83548
  20
549.70929
  0
VERTEX
  5
144
  8
Layer_1
  10
47.606133
  20
549.80829
  0
VERTEX
  5
145
  8
Layer_1
  10
47.388977
  20
549.93182
  0
VERTEX
  5
146
  8
Layer_1
  10
47.186073
  20
550.0788
  0
VERTEX
  5
147
  8
Layer_1
  10
46.999496
  20
550.24817
  0
VERTEX
  5
148
  8
Layer_1
  10
46.831299
  20
550.43896
  0
VERTEX
  5
149
  8
Layer_1
  10
46.685356
  20
550.64728
  0
VERTEX
  5
14a
  8
Layer_1
  10
46.564529
  20
550.86841
  0
VERTEX
  5
14b
  8
Layer_1
  10
46.469322
  20
551.10016
  0
VERTEX
  5
14c
  8
Layer_1
  10
46.400261
  20
551.34021
  0
VERTEX
  5
14d
  8
Layer_1
  10
46.357849
  20
551.58643
  0
VERTEX
  5
14e
  8
Layer_1
  10
46.342606
  20
551.83649
  0
VERTEX
  5
14f
  8
Layer_1
  10
46.355049
  20
552.0882
  0
VERTEX
  5
150
  8
Layer_1
  10
46.469414
  20
552.79504
  0
VERTEX
  5
151
  8
Layer_1
  10
43.366577
  20
555.32074
  0
VERTEX
  5
152
  8
Layer_1
  10
43.294788
  20
556.1571
  0
VERTEX
  5
153
  8
Layer_1
  10
44.128288
  20
556.25653
  0
VERTEX
  5
154
  8
Layer_1
  10
47.222443
  20
553.73785
  0
VERTEX
  5
155
  8
Layer_1
  10
47.88018
  20
554.00659
  0
VERTEX
  5
156
  8
Layer_1
  10
48.123039
  20
554.07556
  0
VERTEX
  5
157
  8
Layer_1
  10
48.370567
  20
554.11713
  0
VERTEX
  5
158
  8
Layer_1
  10
48.620445
  20
554.13123
  0
VERTEX
  5
159
  8
Layer_1
  10
48.870369
  20
554.11786
  0
VERTEX
  5
15a
  8
Layer_1
  10
49.118011
  20
554.07709
  0
VERTEX
  5
15b
  8
Layer_1
  10
49.361076
  20
554.00879
  0
VERTEX
  5
15c
  8
Layer_1
  10
49.597237
  20
553.91309
  0
VERTEX
  5
15d
  8
Layer_1
  10
49.821266
  20
553.79169
  0
VERTEX
  5
15e
  8
Layer_1
  10
50.028496
  20
553.64746
  0
VERTEX
  5
15f
  8
Layer_1
  10
50.217453
  20
553.4823
  0
VERTEX
  5
160
  8
Layer_1
  10
50.386673
  20
553.29791
  0
VERTEX
  5
161
  8
Layer_1
  10
50.534683
  20
553.09607
  0
VERTEX
  5
162
  8
Layer_1
  10
50.660019
  20
552.8786
  0
VERTEX
  5
163
  8
Layer_1
  10
50.761208
  20
552.64734
  0
VERTEX
  5
164
  8
Layer_1
  10
50.836792
  20
552.40399
  0
VERTEX
  5
165
  8
Layer_1
  10
50.895454
  20
552.30463
  0
VERTEX
  5
166
  8
Layer_1
  10
50.998779
  20
552.25317
  0
VERTEX
  5
167
  8
Layer_1
  10
51.113434
  20
552.26636
  0
VERTEX
  5
168
  8
Layer_1
  10
51.202431
  20
552.33978
  0
VERTEX
  5
169
  8
Layer_1
  10
51.717018
  20
553.13599
  0
VERTEX
  5
16a
  8
Layer_1
  10
52.200806
  20
553.95129
  0
VERTEX
  5
16b
  8
Layer_1
  10
51.991707
  20
554.27173
  0
VERTEX
  5
16c
  8
Layer_1
  10
51.75457
  20
554.57104
  0
VERTEX
  5
16d
  8
Layer_1
  10
51.490982
  20
554.84729
  0
VERTEX
  5
16e
  8
Layer_1
  10
51.202538
  20
555.09869
  0
VERTEX
  5
16f
  8
Layer_1
  10
52.12735
  20
557.01666
  0
VERTEX
  5
170
  8
Layer_1
  10
52.503693
  20
556.94757
  0
VERTEX
  5
171
  8
Layer_1
  10
52.883995
  20
556.91333
  0
VERTEX
  5
172
  8
Layer_1
  10
53.265839
  20
556.91412
  0
VERTEX
  5
173
  8
Layer_1
  10
53.646782
  20
556.95007
  0
VERTEX
  5
174
  8
Layer_1
  10
53.987617
  20
557.84796
  0
VERTEX
  5
175
  8
Layer_1
  10
54.293442
  20
558.75836
  0
VERTEX
  5
176
  8
Layer_1
  10
54.295372
  20
558.87372
  0
VERTEX
  5
177
  8
Layer_1
  10
54.234169
  20
558.97156
  0
VERTEX
  5
178
  8
Layer_1
  10
54.129562
  20
559.02032
  0
VERTEX
  5
179
  8
Layer_1
  10
54.015289
  20
559.00421
  0
VERTEX
  5
17a
  8
Layer_1
  10
53.778221
  20
558.91168
  0
VERTEX
  5
17b
  8
Layer_1
  10
53.534599
  20
558.84662
  0
VERTEX
  5
17c
  8
Layer_1
  10
53.286751
  20
558.80896
  0
VERTEX
  5
17d
  8
Layer_1
  10
53.036987
  20
558.79877
  0
VERTEX
  5
17e
  8
Layer_1
  10
52.787598
  20
558.81592
  0
VERTEX
  5
17f
  8
Layer_1
  10
52.540901
  20
558.86041
  0
VERTEX
  5
180
  8
Layer_1
  10
52.299187
  20
558.93219
  0
VERTEX
  5
181
  8
Layer_1
  10
52.064774
  20
559.03131
  0
VERTEX
  5
182
  8
Layer_1
  10
51.842842
  20
559.15582
  0
VERTEX
  5
183
  8
Layer_1
  10
51.638
  20
559.30286
  0
VERTEX
  5
184
  8
Layer_1
  10
51.451683
  20
559.47058
  0
VERTEX
  5
185
  8
Layer_1
  10
51.285324
  20
559.65717
  0
VERTEX
  5
186
  8
Layer_1
  10
51.140373
  20
559.86084
  0
VERTEX
  5
187
  8
Layer_1
  10
51.018272
  20
560.07977
  0
VERTEX
  5
188
  8
Layer_1
  10
50.920433
  20
560.31219
  0
VERTEX
  5
189
  8
Layer_1
  10
50.718018
  20
560.99707
  0
VERTEX
  5
18a
  8
Layer_1
  10
46.886711
  20
561.88605
  0
VERTEX
  5
18b
  8
Layer_1
  10
46.454521
  20
562.60565
  0
VERTEX
  5
18c
  8
Layer_1
  10
47.159424
  20
563.0614
  0
VERTEX
  5
18d
  8
Layer_1
  10
50.986923
  20
562.17334
  0
VERTEX
  5
18e
  8
Layer_1
  10
51.464462
  20
562.70172
  0
VERTEX
  5
18f
  8
Layer_1
  10
51.653389
  20
562.86896
  0
VERTEX
  5
190
  8
Layer_1
  10
51.858391
  20
563.01349
  0
VERTEX
  5
191
  8
Layer_1
  10
52.077385
  20
563.1344
  0
VERTEX
  5
192
  8
Layer_1
  10
52.308281
  20
563.23059
  0
VERTEX
  5
193
  8
Layer_1
  10
52.549026
  20
563.30109
  0
VERTEX
  5
194
  8
Layer_1
  10
52.797516
  20
563.34485
  0
VERTEX
  5
195
  8
Layer_1
  10
53.051674
  20
563.36096
  0
VERTEX
  5
196
  8
Layer_1
  10
53.306046
  20
563.34863
  0
VERTEX
  5
197
  8
Layer_1
  10
53.555161
  20
563.30859
  0
VERTEX
  5
198
  8
Layer_1
  10
53.796921
  20
563.2417
  0
VERTEX
  5
199
  8
Layer_1
  10
54.029228
  20
563.14893
  0
VERTEX
  5
19a
  8
Layer_1
  10
54.25
  20
563.03131
  0
VERTEX
  5
19b
  8
Layer_1
  10
54.45713
  20
562.88983
  0
VERTEX
  5
19c
  8
Layer_1
  10
54.648537
  20
562.72546
  0
VERTEX
  5
19d
  8
Layer_1
  10
54.822105
  20
562.53912
  0
VERTEX
  5
19e
  8
Layer_1
  10
54.918068
  20
562.47498
  0
VERTEX
  5
19f
  8
Layer_1
  10
55.033463
  20
562.47351
  0
VERTEX
  5
1a0
  8
Layer_1
  10
55.131065
  20
562.5351
  0
VERTEX
  5
1a1
  8
Layer_1
  10
55.179382
  20
562.63989
  0
VERTEX
  5
1a2
  8
Layer_1
  10
55.29261
  20
563.53442
  0
VERTEX
  5
1a3
  8
Layer_1
  10
55.373238
  20
564.43243
  0
VERTEX
  5
1a4
  8
Layer_1
  10
55.093575
  20
564.60547
  0
VERTEX
  5
1a5
  8
Layer_1
  10
54.801109
  20
564.75586
  0
VERTEX
  5
1a6
  8
Layer_1
  10
54.185692
  20
565.62207
  0
VERTEX
  5
1a7
  8
Layer_1
  10
54.1856
  20
566.7821
  0
VERTEX
  5
1a8
  8
Layer_1
  10
54.801109
  20
567.64801
  0
VERTEX
  5
1a9
  8
Layer_1
  10
55.093575
  20
567.7984
  0
VERTEX
  5
1aa
  8
Layer_1
  10
55.373238
  20
567.97144
  0
VERTEX
  5
1ab
  8
Layer_1
  10
55.292603
  20
568.86945
  0
VERTEX
  5
1ac
  8
Layer_1
  10
55.179382
  20
569.76398
  0
VERTEX
  5
1ad
  8
Layer_1
  10
55.131065
  20
569.86877
  0
VERTEX
  5
1ae
  8
Layer_1
  10
55.03347
  20
569.93036
  0
VERTEX
  5
1af
  8
Layer_1
  10
54.918068
  20
569.92889
  0
VERTEX
  5
1b0
  8
Layer_1
  10
54.822105
  20
569.86481
  0
VERTEX
  5
1b1
  8
Layer_1
  10
54.648537
  20
569.67841
  0
VERTEX
  5
1b2
  8
Layer_1
  10
54.457138
  20
569.51404
  0
VERTEX
  5
1b3
  8
Layer_1
  10
54.250008
  20
569.3725
  0
VERTEX
  5
1b4
  8
Layer_1
  10
54.029236
  20
569.25494
  0
VERTEX
  5
1b5
  8
Layer_1
  10
53.796928
  20
569.16217
  0
VERTEX
  5
1b6
  8
Layer_1
  10
53.555161
  20
569.09528
  0
VERTEX
  5
1b7
  8
Layer_1
  10
53.306046
  20
569.05518
  0
VERTEX
  5
1b8
  8
Layer_1
  10
53.051674
  20
569.04291
  0
VERTEX
  5
1b9
  8
Layer_1
  10
52.797516
  20
569.05896
  0
VERTEX
  5
1ba
  8
Layer_1
  10
52.549026
  20
569.10278
  0
VERTEX
  5
1bb
  8
Layer_1
  10
52.308281
  20
569.17328
  0
VERTEX
  5
1bc
  8
Layer_1
  10
52.077385
  20
569.26947
  0
VERTEX
  5
1bd
  8
Layer_1
  10
51.858391
  20
569.39032
  0
VERTEX
  5
1be
  8
Layer_1
  10
51.653389
  20
569.53491
  0
VERTEX
  5
1bf
  8
Layer_1
  10
51.464462
  20
569.70215
  0
VERTEX
  5
1c0
  8
Layer_1
  10
50.986839
  20
570.23047
  0
VERTEX
  5
1c1
  8
Layer_1
  10
47.159416
  20
569.34247
  0
VERTEX
  5
1c2
  8
Layer_1
  10
46.454521
  20
569.79822
  0
VERTEX
  5
1c3
  8
Layer_1
  10
46.886711
  20
570.51782
  0
VERTEX
  5
1c4
  8
Layer_1
  10
50.718018
  20
571.4068
  0
VERTEX
  5
1c5
  8
Layer_1
  10
50.920433
  20
572.09167
  0
VERTEX
  5
1c6
  8
Layer_1
  10
51.018272
  20
572.3241
  0
VERTEX
  5
1c7
  8
Layer_1
  10
51.140381
  20
572.54303
  0
VERTEX
  5
1c8
  8
Layer_1
  10
51.285332
  20
572.7467
  0
VERTEX
  5
1c9
  8
Layer_1
  10
51.451683
  20
572.93329
  0
VERTEX
  5
1ca
  8
Layer_1
  10
51.638
  20
573.10095
  0
VERTEX
  5
1cb
  8
Layer_1
  10
51.842842
  20
573.24799
  0
VERTEX
  5
1cc
  8
Layer_1
  10
52.064781
  20
573.37256
  0
VERTEX
  5
1cd
  8
Layer_1
  10
52.299202
  20
573.47162
  0
VERTEX
  5
1ce
  8
Layer_1
  10
52.540901
  20
573.54346
  0
VERTEX
  5
1cf
  8
Layer_1
  10
52.787605
  20
573.58795
  0
VERTEX
  5
1d0
  8
Layer_1
  10
53.036995
  20
573.6051
  0
VERTEX
  5
1d1
  8
Layer_1
  10
53.286766
  20
573.59485
  0
VERTEX
  5
1d2
  8
Layer_1
  10
53.534599
  20
573.55725
  0
VERTEX
  5
1d3
  8
Layer_1
  10
53.778221
  20
573.49219
  0
VERTEX
  5
1d4
  8
Layer_1
  10
54.015289
  20
573.39966
  0
VERTEX
  5
1d5
  8
Layer_1
  10
54.129562
  20
573.38354
  0
VERTEX
  5
1d6
  8
Layer_1
  10
54.234177
  20
573.43231
  0
VERTEX
  5
1d7
  8
Layer_1
  10
54.29538
  20
573.53009
  0
VERTEX
  5
1d8
  8
Layer_1
  10
54.293442
  20
573.64551
  0
VERTEX
  5
1d9
  8
Layer_1
  10
53.987617
  20
574.55591
  0
VERTEX
  5
1da
  8
Layer_1
  10
53.646782
  20
575.4538
  0
VERTEX
  5
1db
  8
Layer_1
  10
53.265839
  20
575.48975
  0
VERTEX
  5
1dc
  8
Layer_1
  10
52.883995
  20
575.49054
  0
VERTEX
  5
1dd
  8
Layer_1
  10
52.5037
  20
575.4563
  0
VERTEX
  5
1de
  8
Layer_1
  10
52.12735
  20
575.38721
  0
VERTEX
  5
1df
  8
Layer_1
  10
51.202538
  20
577.30511
  0
VERTEX
  5
1e0
  8
Layer_1
  10
51.490974
  20
577.55658
  0
VERTEX
  5
1e1
  8
Layer_1
  10
51.754555
  20
577.83282
  0
VERTEX
  5
1e2
  8
Layer_1
  10
51.991692
  20
578.13214
  0
VERTEX
  5
1e3
  8
Layer_1
  10
52.200806
  20
578.45258
  0
VERTEX
  5
1e4
  8
Layer_1
  10
51.717018
  20
579.26788
  0
VERTEX
  5
1e5
  8
Layer_1
  10
51.202431
  20
580.06409
  0
VERTEX
  5
1e6
  8
Layer_1
  10
51.113426
  20
580.13751
  0
VERTEX
  5
1e7
  8
Layer_1
  10
50.998779
  20
580.1507
  0
VERTEX
  5
1e8
  8
Layer_1
  10
50.895454
  20
580.09924
  0
VERTEX
  5
1e9
  8
Layer_1
  10
50.836792
  20
579.99988
  0
VERTEX
  5
1ea
  8
Layer_1
  10
50.761208
  20
579.75653
  0
VERTEX
  5
1eb
  8
Layer_1
  10
50.660027
  20
579.52521
  0
VERTEX
  5
1ec
  8
Layer_1
  10
50.534691
  20
579.3078
  0
VERTEX
  5
1ed
  8
Layer_1
  10
50.386681
  20
579.10596
  0
VERTEX
  5
1ee
  8
Layer_1
  10
50.217461
  20
578.92157
  0
VERTEX
  5
1ef
  8
Layer_1
  10
50.028503
  20
578.75635
  0
VERTEX
  5
1f0
  8
Layer_1
  10
49.821274
  20
578.61218
  0
VERTEX
  5
1f1
  8
Layer_1
  10
49.597244
  20
578.49072
  0
VERTEX
  5
1f2
  8
Layer_1
  10
49.361084
  20
578.39502
  0
VERTEX
  5
1f3
  8
Layer_1
  10
49.118019
  20
578.32678
  0
VERTEX
  5
1f4
  8
Layer_1
  10
48.870369
  20
578.28601
  0
VERTEX
  5
1f5
  8
Layer_1
  10
48.620445
  20
578.27264
  0
VERTEX
  5
1f6
  8
Layer_1
  10
48.370567
  20
578.28674
  0
VERTEX
  5
1f7
  8
Layer_1
  10
48.123039
  20
578.32825
  0
VERTEX
  5
1f8
  8
Layer_1
  10
47.88018
  20
578.39722
  0
VERTEX
  5
1f9
  8
Layer_1
  10
47.22253
  20
578.66614
  0
VERTEX
  5
1fa
  8
Layer_1
  10
44.128288
  20
576.1474
  0
VERTEX
  5
1fb
  8
Layer_1
  10
43.294788
  20
576.24683
  0
VERTEX
  5
1fc
  8
Layer_1
  10
43.366577
  20
577.08319
  0
VERTEX
  5
1fd
  8
Layer_1
  10
46.469429
  20
579.60889
  0
VERTEX
  5
1fe
  8
Layer_1
  10
46.355049
  20
580.31567
  0
VERTEX
  5
1ff
  8
Layer_1
  10
46.342606
  20
580.56738
  0
VERTEX
  5
200
  8
Layer_1
  10
46.357849
  20
580.81744
  0
VERTEX
  5
201
  8
Layer_1
  10
46.400261
  20
581.06366
  0
VERTEX
  5
202
  8
Layer_1
  10
46.469322
  20
581.30371
  0
VERTEX
  5
203
  8
Layer_1
  10
46.564537
  20
581.53546
  0
VERTEX
  5
204
  8
Layer_1
  10
46.685364
  20
581.75659
  0
VERTEX
  5
205
  8
Layer_1
  10
46.831306
  20
581.9649
  0
VERTEX
  5
206
  8
Layer_1
  10
46.999504
  20
582.1557
  0
VERTEX
  5
207
  8
Layer_1
  10
47.186089
  20
582.32507
  0
VERTEX
  5
208
  8
Layer_1
  10
47.388977
  20
582.47205
  0
VERTEX
  5
209
  8
Layer_1
  10
47.606133
  20
582.59558
  0
VERTEX
  5
20a
  8
Layer_1
  10
47.83548
  20
582.69464
  0
VERTEX
  5
20b
  8
Layer_1
  10
48.074974
  20
582.76813
  0
VERTEX
  5
20c
  8
Layer_1
  10
48.322556
  20
582.81519
  0
VERTEX
  5
20d
  8
Layer_1
  10
48.576149
  20
582.83466
  0
VERTEX
  5
20e
  8
Layer_1
  10
48.686104
  20
582.86969
  0
VERTEX
  5
20f
  8
Layer_1
  10
48.759209
  20
582.95905
  0
VERTEX
  5
210
  8
Layer_1
  10
48.771896
  20
583.07373
  0
VERTEX
  5
211
  8
Layer_1
  10
48.720085
  20
583.17682
  0
VERTEX
  5
212
  8
Layer_1
  10
48.020889
  20
583.89258
  0
VERTEX
  5
213
  8
Layer_1
  10
47.293404
  20
584.57959
  0
VERTEX
  5
214
  8
Layer_1
  10
46.93502
  20
584.4455
  0
VERTEX
  5
215
  8
Layer_1
  10
46.591179
  20
584.27942
  0
VERTEX
  5
216
  8
Layer_1
  10
46.264015
  20
584.08252
  0
VERTEX
  5
217
  8
Layer_1
  10
45.955673
  20
583.85596
  0
VERTEX
  5
218
  8
Layer_1
  10
44.28598
  20
585.17731
  0
VERTEX
  5
219
  8
Layer_1
  10
44.435623
  20
585.52948
  0
VERTEX
  5
21a
  8
Layer_1
  10
44.552063
  20
585.89313
  0
VERTEX
  5
21b
  8
Layer_1
  10
44.634666
  20
586.26593
  0
VERTEX
  5
21c
  8
Layer_1
  10
44.682793
  20
586.64557
  0
VERTEX
  5
21d
  8
Layer_1
  10
43.925438
  20
587.14606
  0
VERTEX
  5
21e
  8
Layer_1
  10
43.150269
  20
587.61859
  0
VERTEX
  5
21f
  8
Layer_1
  10
43.038208
  20
587.64618
  0
VERTEX
  5
220
  8
Layer_1
  10
42.929207
  20
587.60828
  0
VERTEX
  5
221
  8
Layer_1
  10
42.858429
  20
587.51715
  0
VERTEX
  5
222
  8
Layer_1
  10
42.848694
  20
587.40216
  0
VERTEX
  5
223
  8
Layer_1
  10
42.886189
  20
587.14996
  0
VERTEX
  5
224
  8
Layer_1
  10
42.895363
  20
586.89758
  0
VERTEX
  5
225
  8
Layer_1
  10
42.876747
  20
586.64722
  0
VERTEX
  5
226
  8
Layer_1
  10
42.83091
  20
586.40106
  0
VERTEX
  5
227
  8
Layer_1
  10
42.758385
  20
586.16144
  0
VERTEX
  5
228
  8
Layer_1
  10
42.659729
  20
585.93054
  0
VERTEX
  5
229
  8
Layer_1
  10
42.535484
  20
585.71063
  0
VERTEX
  5
22a
  8
Layer_1
  10
42.3862
  20
585.50403
  0
VERTEX
  5
22b
  8
Layer_1
  10
42.214813
  20
585.31531
  0
VERTEX
  5
22c
  8
Layer_1
  10
42.025299
  20
585.14838
  0
VERTEX
  5
22d
  8
Layer_1
  10
41.819733
  20
585.00421
  0
VERTEX
  5
22e
  8
Layer_1
  10
41.600212
  20
584.88379
  0
VERTEX
  5
22f
  8
Layer_1
  10
41.368828
  20
584.78815
  0
VERTEX
  5
230
  8
Layer_1
  10
41.127655
  20
584.71832
  0
VERTEX
  5
231
  8
Layer_1
  10
40.878807
  20
584.67523
  0
VERTEX
  5
232
  8
Layer_1
  10
40.170673
  20
584.63245
  0
VERTEX
  5
233
  8
Layer_1
  10
38.444183
  20
580.91132
  0
VERTEX
  5
234
  8
Layer_1
  10
37.651276
  20
580.6358
  0
VERTEX
  5
235
  8
Layer_1
  10
37.349648
  20
581.41913
  0
VERTEX
  5
236
  8
Layer_1
  10
39.082932
  20
585.15491
  0
VERTEX
  5
237
  8
Layer_1
  10
38.672928
  20
585.74347
  0
VERTEX
  5
238
  8
Layer_1
  10
38.552711
  20
585.96478
  0
VERTEX
  5
239
  8
Layer_1
  10
38.458138
  20
586.19672
  0
VERTEX
  5
23a
  8
Layer_1
  10
38.389694
  20
586.43683
  0
VERTEX
  5
23b
  8
Layer_1
  10
38.347897
  20
586.68304
  0
VERTEX
  5
23c
  8
Layer_1
  10
38.33326
  20
586.93304
  0
VERTEX
  5
23d
  8
Layer_1
  10
38.346275
  20
587.18463
  0
VERTEX
  5
23e
  8
Layer_1
  10
38.387466
  20
587.43549
  0
VERTEX
  5
23f
  8
Layer_1
  10
38.456291
  20
587.68024
  0
VERTEX
  5
240
  8
Layer_1
  10
38.550926
  20
587.91364
  0
VERTEX
  5
241
  8
Layer_1
  10
38.669968
  20
588.13397
  0
VERTEX
  5
242
  8
Layer_1
  10
38.812012
  20
588.33936
  0
VERTEX
  5
243
  8
Layer_1
  10
38.975639
  20
588.52802
  0
VERTEX
  5
244
  8
Layer_1
  10
39.159447
  20
588.69812
  0
VERTEX
  5
245
  8
Layer_1
  10
39.362022
  20
588.84778
  0
VERTEX
  5
246
  8
Layer_1
  10
39.581963
  20
588.97528
  0
VERTEX
  5
247
  8
Layer_1
  10
39.665802
  20
589.05463
  0
VERTEX
  5
248
  8
Layer_1
  10
39.692932
  20
589.16681
  0
VERTEX
  5
249
  8
Layer_1
  10
39.65461
  20
589.27563
  0
VERTEX
  5
24a
  8
Layer_1
  10
39.563187
  20
589.34607
  0
VERTEX
  5
24b
  8
Layer_1
  10
38.666573
  20
589.67255
  0
VERTEX
  5
24c
  8
Layer_1
  10
37.758072
  20
589.96436
  0
VERTEX
  5
24d
  8
Layer_1
  10
37.492325
  20
589.68909
  0
VERTEX
  5
24e
  8
Layer_1
  10
37.253468
  20
589.39117
  0
VERTEX
  5
24f
  8
Layer_1
  10
37.042946
  20
589.07257
  0
VERTEX
  5
250
  8
Layer_1
  10
36.862175
  20
588.73535
  0
VERTEX
  5
251
  8
Layer_1
  10
34.786285
  20
589.20917
  0
VERTEX
  5
252
  8
Layer_1
  10
34.769745
  20
589.59143
  0
VERTEX
  5
253
  8
Layer_1
  10
34.718285
  20
589.96979
  0
VERTEX
  5
254
  8
Layer_1
  10
34.632343
  20
590.34186
  0
VERTEX
  5
255
  8
Layer_1
  10
34.51236
  20
590.7052
  0
VERTEX
  5
256
  8
Layer_1
  10
33.567219
  20
590.83649
  0
VERTEX
  5
257
  8
Layer_1
  10
32.617729
  20
590.93134
  0
VERTEX
  5
258
  8
Layer_1
  10
32.504807
  20
590.90753
  0
VERTEX
  5
259
  8
Layer_1
  10
32.42305
  20
590.82611
  0
VERTEX
  5
25a
  8
Layer_1
  10
32.398823
  20
590.71326
  0
VERTEX
  5
25b
  8
Layer_1
  10
32.439949
  20
590.60541
  0
VERTEX
  5
25c
  8
Layer_1
  10
32.583153
  20
590.39447
  0
VERTEX
  5
25d
  8
Layer_1
  10
32.700939
  20
590.17108
  0
VERTEX
  5
25e
  8
Layer_1
  10
32.79282
  20
589.93732
  0
VERTEX
  5
25f
  8
Layer_1
  10
32.858315
  20
589.69568
  0
VERTEX
  5
260
  8
Layer_1
  10
32.896935
  20
589.44824
  0
VERTEX
  5
261
  8
Layer_1
  10
32.908203
  20
589.19739
  0
VERTEX
  5
262
  8
Layer_1
  10
32.891644
  20
588.94537
  0
VERTEX
  5
263
  8
Layer_1
  10
32.846764
  20
588.6944
  0
VERTEX
  5
264
  8
Layer_1
  10
32.774185
  20
588.44995
  0
VERTEX
  5
265
  8
Layer_1
  10
32.675823
  20
588.21735
  0
VERTEX
  5
266
  8
Layer_1
  10
32.553123
  20
587.99823
  0
VERTEX
  5
267
  8
Layer_1
  10
32.407532
  20
587.79449
  0
VERTEX
  5
268
  8
Layer_1
  10
32.240498
  20
587.60797
  0
VERTEX
  5
269
  8
Layer_1
  10
32.053474
  20
587.44037
  0
VERTEX
  5
26a
  8
Layer_1
  10
31.847904
  20
587.29358
  0
VERTEX
  5
26b
  8
Layer_1
  10
31.228703
  20
586.94836
  0
VERTEX
  5
26c
  8
Layer_1
  10
31.296001
  20
582.70483
  0
VERTEX
  5
26d
  8
Layer_1
  10
30.702042
  20
582.11176
  0
VERTEX
  5
26e
  8
Layer_1
  10
30.089554
  20
582.68573
  0
VERTEX
  5
26f
  8
Layer_1
  10
30.021973
  20
586.94678
  0
VERTEX
  5
270
  8
Layer_1
  10
29.396927
  20
587.2995
  0
VERTEX
  5
271
  8
Layer_1
  10
29.192642
  20
587.44678
  0
VERTEX
  5
272
  8
Layer_1
  10
29.006884
  20
587.61469
  0
VERTEX
  5
273
  8
Layer_1
  10
28.841076
  20
587.80139
  0
VERTEX
  5
274
  8
Layer_1
  10
28.696655
  20
588.00507
  0
VERTEX
  5
275
  8
Layer_1
  10
28.57505
  20
588.22394
  0
VERTEX
  5
276
  8
Layer_1
  10
28.47769
  20
588.45624
  0
VERTEX
  5
277
  8
Layer_1
  10
28.405994
  20
588.70007
  0
VERTEX
  5
278
  8
Layer_1
  10
28.361855
  20
588.95038
  0
VERTEX
  5
279
  8
Layer_1
  10
28.345863
  20
589.20178
  0
VERTEX
  5
27a
  8
Layer_1
  10
28.357546
  20
589.45184
  0
VERTEX
  5
27b
  8
Layer_1
  10
28.396408
  20
589.69855
  0
VERTEX
  5
27c
  8
Layer_1
  10
28.46199
  20
589.93945
  0
VERTEX
  5
27d
  8
Layer_1
  10
28.553797
  20
590.17242
  0
VERTEX
  5
27e
  8
Layer_1
  10
28.671341
  20
590.39514
  0
VERTEX
  5
27f
  8
Layer_1
  10
28.814156
  20
590.60541
  0
VERTEX
  5
280
  8
Layer_1
  10
28.855278
  20
590.71326
  0
VERTEX
  5
281
  8
Layer_1
  10
28.831051
  20
590.82611
  0
VERTEX
  5
282
  8
Layer_1
  10
28.74929
  20
590.90753
  0
VERTEX
  5
283
  8
Layer_1
  10
28.63637
  20
590.93134
  0
VERTEX
  5
284
  8
Layer_1
  10
27.732952
  20
590.84192
  0
VERTEX
  5
285
  8
Layer_1
  10
26.833412
  20
590.71954
  0
VERTEX
  5
286
  8
Layer_1
  10
26.714504
  20
590.36517
  0
VERTEX
  5
287
  8
Layer_1
  10
26.62789
  20
590.00159
  0
VERTEX
  5
288
  8
Layer_1
  10
23.088469
  20
589.20764
  0
VERTEX
  5
289
  8
Layer_1
  10
22.26675
  20
588.92206
  0
VERTEX
  5
28a
  8
Layer_1
  10
21.459846
  20
588.60883
  0
VERTEX
  5
28b
  8
Layer_1
  10
20.668262
  20
588.26862
  0
VERTEX
  5
28c
  8
Layer_1
  10
19.892496
  20
587.90204
  0
VERTEX
  5
28d
  8
Layer_1
  10
19.133047
  20
587.50964
  0
VERTEX
  5
28e
  8
Layer_1
  10
18.390415
  20
587.0921
  0
VERTEX
  5
28f
  8
Layer_1
  10
17.665106
  20
586.65002
  0
VERTEX
  5
290
  8
Layer_1
  10
16.957621
  20
586.18396
  0
VERTEX
  5
291
  8
Layer_1
  10
16.268454
  20
585.69452
  0
VERTEX
  5
292
  8
Layer_1
  10
15.598111
  20
585.18231
  0
VERTEX
  5
293
  8
Layer_1
  10
14.947091
  20
584.64795
  0
VERTEX
  5
294
  8
Layer_1
  10
14.315901
  20
584.09204
  0
VERTEX
  5
295
  8
Layer_1
  10
13.705033
  20
583.5152
  0
VERTEX
  5
296
  8
Layer_1
  10
13.115
  20
582.91797
  0
VERTEX
  5
297
  8
Layer_1
  10
12.546288
  20
582.30103
  0
VERTEX
  5
298
  8
Layer_1
  10
11.999402
  20
581.66492
  0
VERTEX
  5
299
  8
Layer_1
  10
11.47485
  20
581.01031
  0
VERTEX
  5
29a
  8
Layer_1
  10
10.973126
  20
580.33777
  0
VERTEX
  5
29b
  8
Layer_1
  10
10.494738
  20
579.64789
  0
VERTEX
  5
29c
  8
Layer_1
  10
10.040179
  20
578.94122
  0
VERTEX
  5
29d
  8
Layer_1
  10
9.6099558
  20
578.21851
  0
VERTEX
  5
29e
  8
Layer_1
  10
9.204566
  20
577.48029
  0
VERTEX
  5
29f
  8
Layer_1
  10
8.8245134
  20
576.72711
  0
VERTEX
  5
2a0
  8
Layer_1
  10
8.470294
  20
575.95959
  0
VERTEX
  5
2a1
  8
Layer_1
  10
8.1424131
  20
575.17841
  0
VERTEX
  5
2a2
  8
Layer_1
  10
7.8413715
  20
574.38416
  0
VERTEX
  5
2a3
  8
Layer_1
  10
7.567668
  20
573.57733
  0
VERTEX
  5
2a4
  8
Layer_1
  10
7.321805
  20
572.75861
  0
VERTEX
  5
2a5
  8
Layer_1
  10
7.1042833
  20
571.92865
  0
VERTEX
  5
2a6
  8
Layer_1
  10
6.9156055
  20
571.08795
  0
VERTEX
  5
2a7
  8
Layer_1
  10
6.7562685
  20
570.23718
  0
VERTEX
  5
2a8
  8
Layer_1
  10
6.6267748
  20
569.37695
  0
VERTEX
  5
2a9
  8
Layer_1
  10
6.7893343
  20
569.15997
  0
VERTEX
  5
2aa
  8
Layer_1
  10
6.9995584
  20
568.99603
  0
VERTEX
  5
2ab
  8
Layer_1
  10
7.2451677
  20
568.8924
  0
VERTEX
  5
2ac
  8
Layer_1
  10
7.5138674
  20
568.85626
  0
VERTEX
  5
2ad
  8
Layer_1
  10
16.339552
  20
568.85626
  0
VERTEX
  5
2ae
  8
Layer_1
  10
16.339552
  20
570.96442
  0
VERTEX
  5
2af
  8
Layer_1
  10
17.927052
  20
570.96442
  0
VERTEX
  5
2b0
  8
Layer_1
  10
17.927052
  20
561.43945
  0
VERTEX
  5
2b1
  8
Layer_1
  10
16.339552
  20
561.43945
  0
SEQEND
  0
POLYLINE
  5
2b3
  8
Layer_0
  62
3
  66
1
  10
0
  20
0
  30
0
  0
VERTEX
  5
2b3
  8
Layer_0
  10
35.82486
  20
543.4314
  0
VERTEX
  5
2b4
  8
Layer_0
  10
33.592361
  20
553.17902
  0
SEQEND
  0
POLYLINE
  5
2b6
  8
Layer_0
  62
3
  66
1
  10
0
  20
0
  30
0
  0
VERTEX
  5
2b6
  8
Layer_0
  10
51.665573
  20
556.0575
  0
VERTEX
  5
2b7
  8
Layer_0
  10
42.654808
  20
560.3941
  0
SEQEND
  0
POLYLINE
  5
2b9
  8
Layer_0
  62
3
  66
1
  10
0
  20
0
  30
0
  0
VERTEX
  5
2b9
  8
Layer_0
  10
25.589344
  20
589.76831
  0
VERTEX
  5
2ba
  8
Layer_0
  10
27.778076
  20
580.01074
  0
SEQEND
  0
POLYLINE
  5
2bc
  8
Layer_0
  62
3
  66
1
  10
0
  20
0
  30
0
  0
VERTEX
  5
2bc
  8
Layer_0
  10
25.589344
  20
542.63519
  0
VERTEX
  5
2bd
  8
Layer_0
  10
27.778076
  20
552.3927
  0
SEQEND
  0
POLYLINE
  5
2bf
  8
Layer_0
  62
3
  66
1
  10
0
  20
0
  30
0
  0
VERTEX
  5
2bf
  8
Layer_0
  10
45.12146
  20
584.51648
  0
VERTEX
  5
2c0
  8
Layer_0
  10
38.909988
  20
576.67957
  0
SEQEND
  0
ENDSEC
  0
EOF
