0
SECTION
2
HEADER
9
$INSUNITS
70
1
9
$ACADVER
1
AC1014
9
$HANDSEED
5
FFFF
0
ENDSEC
0
SECTION
2
TABLES
0
TABLE
2
VPORT
5
8
100
AcDbSymbolTable
0
ENDTAB
0
TABLE
2
LTYPE
5
5
100
AcDbSymbolTable
0
LTYPE
5
14
100
AcDbSymbolTableRecord
100
AcDbLinetypeTableRecord
2
BYBLOCK
70
0
0
LTYPE
5
15
100
AcDbSymbolTableRecord
100
AcDbLinetypeTableRecord
2
BYLAYER
70
0
0
ENDTAB
0
TABLE
2
LAYER
5
2
100
AcDbSymbolTable
70
2
0
LAYER
5
50
100
AcDbSymbolTableRecord
100
AcDbLayerTableRecord
2
0
70
0
6
CONTINUOUS
0
ENDTAB
0
TABLE
2
STYLE
5
3
100
AcDbSymbolTable
70
1
0
STYLE
5
11
100
AcDbSymbolTableRecord
100
AcDbTextStyleTableRecord
2
STANDARD
70
0
0
ENDTAB
0
TABLE
2
VIEW
5
6
100
AcDbSymbolTable
70
0
0
ENDTAB
0
TABLE
2
UCS
5
7
100
AcDbSymbolTable
70
0
0
ENDTAB
0
TABLE
2
APPID
5
9
100
AcDbSymbolTable
70
2
0
APPID
5
12
100
AcDbSymbolTableRecord
100
AcDbRegAppTableRecord
2
ACAD
70
0
0
ENDTAB
0
TABLE
2
DIMSTYLE
5
A
100
AcDbSymbolTable
70
1
0
ENDTAB
0
TABLE
2
BLOCK_RECORD
5
1
100
AcDbSymbolTable
70
1
0
BLOCK_RECORD
5
1F
100
AcDbSymbolTableRecord
100
AcDbBlockTableRecord
2
*MODEL_SPACE
0
BLOCK_RECORD
5
1B
100
AcDbSymbolTableRecord
100
AcDbBlockTableRecord
2
*PAPER_SPACE
0
ENDTAB
0
ENDSEC
0
SECTION
2
BLOCKS
0
BLOCK
5
20
100
AcDbEntity
100
AcDbBlockBegin
2
*MODEL_SPACE
0
ENDBLK
5
21
100
AcDbEntity
100
AcDbBlockEnd
0
BLOCK
5
1C
100
AcDbEntity
100
AcDbBlockBegin
2
*PAPER_SPACE
0
ENDBLK
5
1D
100
AcDbEntity
100
AcDbBlockEnd
0
ENDSEC
0
SECTION
2
ENTITIES
0
LWPOLYLINE
5
100
100
AcDbEntity
8
0
100
AcDbPolyline
90
4
70
1
43
0.0
10
-0.33906025018646274
20
-2.9391584770479779
10
-0.33146846603948182
20
-2.68829270637436
42
-0.13583508923947307
10
-1.6665264024056228
20
-2.135293602577669
10
-1.8385470879648937
20
-2.3180506922402078
42
0.1398242482450045
0
CIRCLE
5
101
100
AcDbEntity
8
0
100
AcDbCircle
10
-2.2433766427076445
20
-0.92923703092052823
30
0
40
0.12500000000000031
210
-0
220
0
230
1
0
LWPOLYLINE
5
102
100
AcDbEntity
8
0
100
AcDbPolyline
90
8
70
1
43
0.0
10
0.12500000000000094
20
-1.8145506816784662
42
-2.4142135623730674
10
0.10550000000000101
20
-1.8340506816784665
10
-0.10549999999999891
20
-1.8340506816784647
42
-2.4142135623730767
10
-0.12499999999999906
20
-1.8145506816784647
10
-0.1249999999999991
20
-1.6445506816784659
42
-2.4142135623730874
10
-0.10549999999999915
20
-1.625050681678466
10
0.10550000000000043
20
-1.625050681678466
42
-2.4142135623730856
10
0.12500000000000047
20
-1.6445506816784659
0
LWPOLYLINE
5
103
100
AcDbEntity
8
0
100
AcDbPolyline
90
8
70
1
43
0.0
10
1.8145506816784662
20
0.12500000000000086
42
-2.4142135623730674
10
1.8340506816784665
20
0.10550000000000093
10
1.8340506816784647
20
-0.105499999999999
42
-2.4142135623730767
10
1.8145506816784647
20
-0.12499999999999914
10
1.6445506816784659
20
-0.12499999999999918
42
-2.4142135623730874
10
1.625050681678466
20
-0.10549999999999925
10
1.625050681678466
20
0.10550000000000033
42
-2.4142135623730856
10
1.6445506816784659
20
0.12500000000000039
0
LWPOLYLINE
5
104
100
AcDbEntity
8
0
100
AcDbPolyline
90
8
70
1
43
0.0
10
-0.12500000000000072
20
1.8145506816784662
42
-2.4142135623730674
10
-0.10550000000000079
20
1.8340506816784665
10
0.10549999999999914
20
1.8340506816784647
42
-2.4142135623730767
10
0.12499999999999926
20
1.8145506816784647
10
0.12499999999999929
20
1.6445506816784659
42
-2.4142135623730856
10
0.10549999999999936
20
1.625050681678466
10
-0.1055000000000002
20
1.625050681678466
42
-2.4142135623730825
10
-0.12500000000000028
20
1.6445506816784659
0
CIRCLE
5
105
100
AcDbEntity
8
0
100
AcDbCircle
10
5.3325672836326409e-15
20
1.3287708641182974e-14
30
0
40
3.8015624999999993
210
3.0189874454731109e-48
220
-2.4651903288156619e-32
230
1
0
CIRCLE
5
106
100
AcDbEntity
8
0
100
AcDbCircle
10
3.0103805558850403
20
-0.20859415787747959
30
0
40
0.019685039370078667
210
-0
220
0
230
1
0
CIRCLE
5
107
100
AcDbEntity
8
0
100
AcDbCircle
10
3.3253411858062991
20
-0.20859415787747948
30
0
40
0.019685039370079017
210
-0
220
0
230
1
0
CIRCLE
5
108
100
AcDbEntity
8
0
100
AcDbCircle
10
2.0368398607734046
20
-2.3318365478755312
30
0
40
0.019685039370078667
210
-0
220
0
230
1
0
CIRCLE
5
109
100
AcDbEntity
8
0
100
AcDbCircle
10
2.2595506579975129
20
-2.5545473450996394
30
0
40
0.019685039370078667
210
-0
220
0
230
1
0
CIRCLE
5
110
100
AcDbEntity
8
0
100
AcDbCircle
10
-0.20859415787747923
20
-3.0891207133653551
30
0
40
0.019685039370078625
210
-3.0189874454731121e-48
220
2.4651903288156619e-32
230
1
0
CIRCLE
5
111
100
AcDbEntity
8
0
100
AcDbCircle
10
-0.20859415787747915
20
-3.4040813432866139
30
0
40
0.019685039370078757
210
2.7369110631344083e-48
220
3.3517493730185327e-64
230
1
0
CIRCLE
5
112
100
AcDbEntity
8
0
100
AcDbCircle
10
-2.1481952593854587
20
2.4431919464875858
30
0
40
0.019685039370078667
210
-0
220
0
230
1
0
CIRCLE
5
113
100
AcDbEntity
8
0
100
AcDbCircle
10
0.20859415787748067
20
3.2466010283259852
30
0
40
0.019685039370078733
210
-0
220
0
230
1
0
CIRCLE
5
114
100
AcDbEntity
8
0
100
AcDbCircle
10
2.3875142471815578
20
2.0925175600794321
30
0
40
0.019685039370078667
210
-0
220
0
230
1
0
CIRCLE
5
115
100
AcDbEntity
8
0
100
AcDbCircle
10
2.5545473450996394
20
2.2595506579975138
30
0
40
0.019685039370078667
210
-0
220
0
230
1
0
CIRCLE
5
116
100
AcDbEntity
8
0
100
AcDbCircle
10
2.3318365478755312
20
2.0368398607734051
30
0
40
0.019685039370078667
210
-0
220
0
230
1
0
CIRCLE
5
117
100
AcDbEntity
8
0
100
AcDbCircle
10
0.20859415787748067
20
3.1678608708456708
30
0
40
0.019685039370078691
210
2.7369110631344083e-48
220
3.3517493730185327e-64
230
1
0
CIRCLE
5
118
100
AcDbEntity
8
0
100
AcDbCircle
10
-3.3253411858062991
20
0.20859415787747998
30
0
40
0.019685039370079017
210
-0
220
0
230
1
0
CIRCLE
5
119
100
AcDbEntity
8
0
100
AcDbCircle
10
-0.20859415787747917
20
-3.3253411858062991
30
0
40
0.019685039370078799
210
-0
220
0
230
1
0
CIRCLE
5
120
100
AcDbEntity
8
0
100
AcDbCircle
10
-0.20859415787747931
20
-3.0103805558850403
30
0
40
0.019685039370078712
210
2.7369110631344083e-48
220
3.3517493730185327e-64
230
1
0
CIRCLE
5
121
100
AcDbEntity
8
0
100
AcDbCircle
10
2.2038729586914858
20
-2.4988696457936124
30
0
40
0.019685039370078667
210
-0
220
0
230
1
0
CIRCLE
5
122
100
AcDbEntity
8
0
100
AcDbCircle
10
1.9811621614673771
20
-2.2761588485695037
30
0
40
0.019685039370078667
210
-0
220
0
230
1
0
CIRCLE
5
123
100
AcDbEntity
8
0
100
AcDbCircle
10
3.2466010283259847
20
-0.20859415787747948
30
0
40
0.019685039370079017
210
-0
220
0
230
1
0
CIRCLE
5
124
100
AcDbEntity
8
0
100
AcDbCircle
10
3.0891207133653551
20
-0.20859415787747948
30
0
40
0.019685039370078667
210
-0
220
0
230
1
0
CIRCLE
5
125
100
AcDbEntity
8
0
100
AcDbCircle
10
3.4040813432866139
20
-0.2085941578774794
30
0
40
0.019685039370079017
210
-0
220
0
230
1
0
CIRCLE
5
126
100
AcDbEntity
8
0
100
AcDbCircle
10
2.0925175600794317
20
-2.3875142471815578
30
0
40
0.019685039370078667
210
-0
220
0
230
1
0
CIRCLE
5
127
100
AcDbEntity
8
0
100
AcDbCircle
10
-0.20859415787747937
20
-2.8529002409244102
30
0
40
0.019685039370078712
210
2.7369110631344083e-48
220
3.3517493730185327e-64
230
1
0
CIRCLE
5
128
100
AcDbEntity
8
0
100
AcDbCircle
10
-0.20859415787747923
20
-3.1678608708456699
30
0
40
0.019685039370078712
210
2.7369110631344083e-48
220
3.3517493730185327e-64
230
1
0
CIRCLE
5
129
100
AcDbEntity
8
0
100
AcDbCircle
10
-2.554547345099639
20
-2.2595506579975138
30
0
40
0.019685039370078667
210
-0
220
0
230
1
0
CIRCLE
5
130
100
AcDbEntity
8
0
100
AcDbCircle
10
-2.2038729586914858
20
2.4988696457936128
30
0
40
0.019685039370078667
210
-0
220
0
230
1
0
CIRCLE
5
131
100
AcDbEntity
8
0
100
AcDbCircle
10
0.20859415787748073
20
3.3253411858063
30
0
40
0.019685039370078823
210
-0
220
0
230
1
0
CIRCLE
5
132
100
AcDbEntity
8
0
100
AcDbCircle
10
2.4431919464875853
20
2.1481952593854596
30
0
40
0.019685039370078667
210
-0
220
0
230
1
0
CIRCLE
5
133
100
AcDbEntity
8
0
100
AcDbCircle
10
5.3325672836326409e-15
20
1.3287708641182974e-14
30
0
40
0.12499999999999997
210
-2.8207638233870376e-49
220
2.4651903288156624e-32
230
1
0
CIRCLE
5
134
100
AcDbEntity
8
0
100
AcDbCircle
10
2.4988696457936124
20
2.2038729586914867
30
0
40
0.019685039370078667
210
-0
220
0
230
1
0
CIRCLE
5
135
100
AcDbEntity
8
0
100
AcDbCircle
10
0.20859415787748067
20
3.4040813432866148
30
0
40
0.019685039370078757
210
2.7369110631344083e-48
220
3.3517493730185327e-64
230
1
0
CIRCLE
5
136
100
AcDbEntity
8
0
100
AcDbCircle
10
-2.2595506579975129
20
2.5545473450996399
30
0
40
0.019685039370078667
210
-0
220
0
230
1
0
CIRCLE
5
137
100
AcDbEntity
8
0
100
AcDbCircle
10
-3.4040813432866139
20
0.20859415787747992
30
0
40
0.019685039370079017
210
-0
220
0
230
1
0
CIRCLE
5
138
100
AcDbEntity
8
0
100
AcDbCircle
10
-0.20859415787747923
20
-3.2466010283259847
30
0
40
0.019685039370078757
210
2.7369110631344083e-48
220
3.3517493730185327e-64
230
1
0
CIRCLE
5
139
100
AcDbEntity
8
0
100
AcDbCircle
10
-0.20859415787747931
20
-2.9316403984047255
30
0
40
0.019685039370078757
210
2.7369110631344083e-48
220
3.3517493730185327e-64
230
1
0
CIRCLE
5
140
100
AcDbEntity
8
0
100
AcDbCircle
10
2.1481952593854587
20
-2.4431919464875853
30
0
40
0.019685039370078667
210
-0
220
0
230
1
0
CIRCLE
5
141
100
AcDbEntity
8
0
100
AcDbCircle
10
1.9254844621613498
20
-2.2204811492634762
30
0
40
0.019685039370078667
210
-0
220
0
230
1
0
CIRCLE
5
142
100
AcDbEntity
8
0
100
AcDbCircle
10
3.1678608708456699
20
-0.20859415787747948
30
0
40
0.019685039370078667
210
-0
220
0
230
1
0
LWPOLYLINE
5
143
100
AcDbEntity
8
0
100
AcDbPolyline
90
8
70
1
43
0.0
10
1.9037879626236005
20
-2.0515732798915862
42
-2.4142135623731371
10
1.9037879626236001
20
-2.0237344302385734
10
2.0237344302385747
20
-1.9037879626235981
42
-2.4142135623730949
10
2.0515732798915884
20
-1.9037879626235981
10
2.5156294620592763
20
-2.3678441447912855
42
-2.4142135623731158
10
2.5156294620592767
20
-2.3956829944442988
10
2.3956829944443014
20
-2.5156294620592745
42
-2.4142135623730736
10
2.3678441447912877
20
-2.5156294620592745
0
LWPOLYLINE
5
144
100
AcDbEntity
8
0
100
AcDbPolyline
90
8
70
1
43
0.0
10
2.7968627566249373
20
-0.10449999999999833
10
3.4531373031495605
20
-0.10449999999999861
42
2.4142135623731251
10
3.4728223425196396
20
-0.084814960629919958
10
3.4728223425196396
20
0.084814960629923233
42
2.4142135623731251
10
3.4531373031495605
20
0.10450000000000159
10
2.7968627566249369
20
0.10450000000000152
42
2.4142135623731251
10
2.7771777172548586
20
0.084814960629922651
10
2.7771777172548591
20
-0.084814960629920153
42
2.4142135623731704
0
LWPOLYLINE
5
145
100
AcDbEntity
8
0
100
AcDbPolyline
90
8
70
1
43
0.0
10
2.0515732798915862
20
1.9037879626236005
10
2.5156294620592745
20
2.3678441447912881
42
2.4142135623730949
10
2.5156294620592745
20
2.3956829944443019
10
2.3956829944442988
20
2.5156294620592767
42
2.4142135623731158
10
2.3678441447912855
20
2.5156294620592763
10
1.9037879626235981
20
2.0515732798915884
42
2.4142135623730949
10
1.9037879626235981
20
2.0237344302385747
10
2.0237344302385734
20
1.9037879626236001
42
2.4142135623731371
0
LWPOLYLINE
5
146
100
AcDbEntity
8
0
100
AcDbPolyline
90
8
70
1
43
0.0
10
0.10449999999999871
20
2.7968627566249369
10
0.10449999999999898
20
3.4531373031495605
42
2.4142135623731251
10
0.084814960629919958
20
3.4728223425196396
10
-0.084814960629922859
20
3.4728223425196396
42
2.4142135623731251
10
-0.10450000000000122
20
3.4531373031495596
10
-0.10450000000000115
20
2.7968627566249364
42
2.4142135623730949
10
-0.08481496062992229
20
2.7771777172548577
10
0.084814960629920347
20
2.7771777172548586
42
2.4142135623731553
0
LWPOLYLINE
5
147
100
AcDbEntity
8
0
100
AcDbPolyline
90
8
70
1
43
0.0
10
-1.9037879626236001
20
2.0515732798915867
10
-2.3678441447912877
20
2.515629462059275
42
2.4142135623730949
10
-2.3956829944443014
20
2.515629462059275
10
-2.5156294620592763
20
2.3956829944442988
42
2.4142135623731371
10
-2.5156294620592758
20
2.3678441447912855
10
-2.051573279891588
20
1.9037879626235983
42
2.4142135623730949
10
-2.0237344302385747
20
1.9037879626235983
10
-1.9037879626236001
20
2.0237344302385742
42
2.4142135623732024
0
LWPOLYLINE
5
148
100
AcDbEntity
8
0
100
AcDbPolyline
90
8
70
1
43
0.0
10
-2.7968627566249373
20
0.1044999999999989
10
-3.4531373031495605
20
0.10449999999999936
42
2.4142135623731251
10
-3.4728223425196396
20
0.084814960629920305
10
-3.4728223425196396
20
-0.084814960629922845
42
2.4142135623731553
10
-3.4531373031495605
20
-0.10450000000000084
10
-2.7968627566249369
20
-0.10450000000000077
42
2.4142135623730949
10
-2.7771777172548582
20
-0.084814960629922123
10
-2.7771777172548591
20
0.084814960629920721
42
2.4142135623731704
0
LWPOLYLINE
5
149
100
AcDbEntity
8
0
100
AcDbPolyline
90
8
70
1
43
0.0
10
-2.0515732798915867
20
-1.9037879626236001
10
-2.515629462059275
20
-2.3678441447912877
42
2.4142135623730949
10
-2.515629462059275
20
-2.3956829944443014
10
-2.3956829944442988
20
-2.5156294620592763
42
2.4142135623731371
10
-2.3678441447912855
20
-2.5156294620592758
10
-1.9037879626235983
20
-2.051573279891588
42
2.4142135623730949
10
-1.9037879626235983
20
-2.0237344302385747
10
-2.0237344302385742
20
-1.9037879626236001
42
2.4142135623732024
0
LWPOLYLINE
5
150
100
AcDbEntity
8
0
100
AcDbPolyline
90
8
70
1
43
0.0
10
-0.10449999999999905
20
-2.7968627566249369
10
-0.10449999999999933
20
-3.4531373031495605
42
2.4142135623731251
10
-0.084814960629920652
20
-3.4728223425196396
10
0.084814960629922512
20
-3.4728223425196387
42
2.4142135623731251
10
0.10450000000000087
20
-3.4531373031495605
10
0.10450000000000062
20
-2.7968627566249364
42
2.4142135623730949
10
0.084814960629921943
20
-2.7771777172548577
10
-0.084814960629920874
20
-2.7771777172548586
42
2.4142135623731704
0
LWPOLYLINE
5
151
100
AcDbEntity
8
0
100
AcDbPolyline
90
8
70
1
43
0.0
10
-1.8145506816784662
20
-0.12500000000000061
42
-2.4142135623730674
10
-1.8340506816784665
20
-0.10550000000000066
10
-1.8340506816784647
20
0.10549999999999926
42
-2.4142135623730767
10
-1.8145506816784647
20
0.1249999999999994
10
-1.6445506816784659
20
0.12499999999999942
42
-2.4142135623730856
10
-1.625050681678466
20
0.10549999999999948
10
-1.625050681678466
20
-0.10550000000000008
42
-2.4142135623730825
10
-1.6445506816784659
20
-0.12500000000000014
0
ENDSEC
0
SECTION
2
OBJECTS
0
DICTIONARY
5
C
100
AcDbDictionary
3
ACAD_GROUP
350
D
3
ACAD_MLINESTYLE
350
17
0
DICTIONARY
5
D
100
AcDbDictionary
0
DICTIONARY
5
1A
330
C
100
AcDbDictionary
0
DICTIONARY
5
17
100
AcDbDictionary
0
ENDSEC
0
EOF
