0
SECTION
2
HEADER
9
$INSUNITS
70
1
9
$ACADVER
1
AC1014
9
$HANDSEED
5
FFFF
0
ENDSEC
0
SECTION
2
TABLES
0
TABLE
2
VPORT
5
8
100
AcDbSymbolTable
0
ENDTAB
0
TABLE
2
LTYPE
5
5
100
AcDbSymbolTable
0
LTYPE
5
14
100
AcDbSymbolTableRecord
100
AcDbLinetypeTableRecord
2
BYBLOCK
70
0
0
LTYPE
5
15
100
AcDbSymbolTableRecord
100
AcDbLinetypeTableRecord
2
BYLAYER
70
0
0
ENDTAB
0
TABLE
2
LAYER
5
2
100
AcDbSymbolTable
70
2
0
LAYER
5
50
100
AcDbSymbolTableRecord
100
AcDbLayerTableRecord
2
0
70
0
6
CONTINUOUS
0
ENDTAB
0
TABLE
2
STYLE
5
3
100
AcDbSymbolTable
70
1
0
STYLE
5
11
100
AcDbSymbolTableRecord
100
AcDbTextStyleTableRecord
2
STANDARD
70
0
0
ENDTAB
0
TABLE
2
VIEW
5
6
100
AcDbSymbolTable
70
0
0
ENDTAB
0
TABLE
2
UCS
5
7
100
AcDbSymbolTable
70
0
0
ENDTAB
0
TABLE
2
APPID
5
9
100
AcDbSymbolTable
70
2
0
APPID
5
12
100
AcDbSymbolTableRecord
100
AcDbRegAppTableRecord
2
ACAD
70
0
0
ENDTAB
0
TABLE
2
DIMSTYLE
5
A
100
AcDbSymbolTable
70
1
0
ENDTAB
0
TABLE
2
BLOCK_RECORD
5
1
100
AcDbSymbolTable
70
1
0
BLOCK_RECORD
5
1F
100
AcDbSymbolTableRecord
100
AcDbBlockTableRecord
2
*MODEL_SPACE
0
BLOCK_RECORD
5
1B
100
AcDbSymbolTableRecord
100
AcDbBlockTableRecord
2
*PAPER_SPACE
0
ENDTAB
0
ENDSEC
0
SECTION
2
BLOCKS
0
BLOCK
5
20
100
AcDbEntity
100
AcDbBlockBegin
2
*MODEL_SPACE
0
ENDBLK
5
21
100
AcDbEntity
100
AcDbBlockEnd
0
BLOCK
5
1C
100
AcDbEntity
100
AcDbBlockBegin
2
*PAPER_SPACE
0
ENDBLK
5
1D
100
AcDbEntity
100
AcDbBlockEnd
0
ENDSEC
0
SECTION
2
ENTITIES
0
CIRCLE
5
100
100
AcDbEntity
8
0
100
AcDbCircle
10
0
20
0
30
0
40
0.12849999999999998
210
0
220
-0
230
1
0
CIRCLE
5
101
100
AcDbEntity
8
0
100
AcDbCircle
10
-0.44180974497577052
20
0.44180974497577069
30
0
40
0.053503937007873974
210
0
220
0
230
1
0
CIRCLE
5
102
100
AcDbEntity
8
0
100
AcDbCircle
10
0.44180974497577064
20
0.4418097449757708
30
0
40
0.053503937007873974
210
0
220
0
230
1
0
CIRCLE
5
103
100
AcDbEntity
8
0
100
AcDbCircle
10
-0.44180974497577069
20
-0.44180974497577052
30
0
40
0.053503937007873974
210
0
220
0
230
1
0
CIRCLE
5
104
100
AcDbEntity
8
0
100
AcDbCircle
10
0.44180974497577064
20
-0.44180974497577064
30
0
40
0.053503937007873974
210
0
220
0
230
1
0
SPLINE
5
105
100
AcDbEntity
8
0
100
AcDbSpline
70
0
71
3
72
18
73
14
74
0
42
0.000000001
43
0.0000000001
44
0.0000000001
40
0.10842166828783617
40
0.10842166828783617
40
0.10842166828783617
40
0.10842166828783617
40
2.0071537391954135
40
2.0071537391954135
40
3.17028691811861
40
3.17028691811861
40
4.1641033370238247
40
4.1641033370238247
40
6.0439403145179114
40
6.0439403145179114
40
11.29659931800731
40
11.29659931800731
40
13.643532239846511
40
13.643532239846511
40
13.643532239846511
40
13.643532239846511
10
-0.43747489402153722
20
-3.4725517587360515
30
0
10
-0.51386305848728664
20
-3.2393855310328146
30
0
10
-0.60343133401572935
20
-3.0457841443263769
30
0
10
-0.7627644774257567
20
-2.8079500047821053
30
0
10
-0.84284488125310875
20
-2.7101366128782529
30
0
10
-1.0351507025464064
20
-2.5765182945612919
30
0
10
-1.1163320153898812
20
-2.5511946006832131
30
0
10
-1.2807087774440418
20
-2.5159935236634507
30
0
10
-1.3845574724582943
20
-2.522112581090179
30
0
10
-1.6516377013119365
20
-2.5540753482477014
30
0
10
-1.8450107293837494
20
-2.6272079104511432
30
0
10
-2.0362580621837338
20
-2.7107761671758537
30
0
10
-2.0767970972546865
20
-2.729677527115506
30
0
10
-2.1461284196203674
20
-2.7648024895998944
30
0
0
ARC
5
106
100
AcDbEntity
8
0
100
AcDbCircle
10
0
20
0
30
0
40
3.5
210
0
220
0
230
1
100
AcDbArc
50
262.81965845779905
51
266.37446554873515
0
ARC
5
107
100
AcDbEntity
8
0
100
AcDbCircle
10
-0.2150000000000003
20
-3.3931953966725814
30
0
40
0.10000000000000017
210
0
220
0
230
1
100
AcDbArc
50
-93.625534451264343
51
0
0
LINE
5
108
100
AcDbEntity
8
0
100
AcDbLine
10
-0.11500000000000009
20
-3.3931953966725814
30
0
11
-0.115
21
-2.7500000000000004
31
0
0
LINE
5
109
100
AcDbEntity
8
0
100
AcDbLine
10
-0.115
20
-2.7500000000000004
30
0
11
0.1149999999999993
21
-2.7500000000000004
31
0
0
LINE
5
110
100
AcDbEntity
8
0
100
AcDbLine
10
0.1149999999999993
20
-2.7500000000000004
30
0
11
0.11499999999999963
21
-3.3931953966725814
31
0
0
ARC
5
111
100
AcDbEntity
8
0
100
AcDbCircle
10
0.21499999999999991
20
-3.3931953966725814
30
0
40
0.10000000000000028
210
0
220
0
230
1
100
AcDbArc
50
180
51
273.6255344512648
0
ARC
5
112
100
AcDbEntity
8
0
100
AcDbCircle
10
0
20
0
30
0
40
3.5
210
-0
220
0
230
1
100
AcDbArc
50
273.62553445126485
51
277.18023819198879
0
SPLINE
5
113
100
AcDbEntity
8
0
100
AcDbSpline
70
0
71
3
72
20
73
16
74
0
42
0.000000001
43
0.0000000001
44
0.0000000001
40
-0.97538865707299705
40
-0.97538865707299705
40
-0.97538865707299705
40
-0.97538865707299705
40
-0.86934123086413573
40
-0.86934123086413573
40
-0.86934123086413573
40
-0.62853170187154717
40
-0.62853170187154717
40
-0.62853170187154717
40
-0.43572120476283827
40
-0.43572120476283827
40
-0.43572120476283827
40
-0.25
40
-0.25
40
-0.25
40
-0.02460781515311258
40
-0.02460781515311258
40
-0.02460781515311258
40
-0.02460781515311258
10
0.43746863022680516
20
-3.4725525478482644
30
0
10
0.47373970594267334
20
-3.3617912207166016
30
0
10
0.51294754635774276
20
-3.2599993653011214
30
0
10
0.55478420418586982
20
-3.1677343560873106
30
0
10
0.64978571649389372
20
-2.9582215540744121
30
0
10
0.75850748225667364
20
-2.7994138731279898
30
0
10
0.87368696268562152
20
-2.6959462335393289
30
0
10
0.96590844981336621
20
-2.6131021405035906
30
0
10
1.0605071784018845
20
-2.563949665415612
30
0
10
1.1714073962103271
20
-2.539639016177814
30
0
10
1.2782300141108065
20
-2.5162222254287867
30
0
10
1.4029898063418482
20
-2.516928871221169
30
0
10
1.5475446250814757
20
-2.5449249628693309
30
0
10
1.7229770775441673
20
-2.5789011599966902
30
0
10
1.9250644442723304
20
-2.6528480074023331
30
0
10
2.1461234324620251
20
-2.7648063607850211
30
0
0
ARC
5
114
100
AcDbEntity
8
0
100
AcDbCircle
10
0
20
0
30
0
40
3.4999999999999853
210
-0
220
0
230
1
100
AcDbArc
50
307.81965845779894
51
311.37446554873515
0
ARC
5
115
100
AcDbEntity
8
0
100
AcDbCircle
10
2.2473235169230512
20
-2.5513794328332673
30
0
40
0.099999999999999978
210
0
220
0
230
1
100
AcDbArc
50
-48.625534451264706
51
45.000000000000185
0
LINE
5
116
100
AcDbEntity
8
0
100
AcDbLine
10
2.3180341950417058
20
-2.4806687547146122
30
0
11
1.8632263684265533
21
-2.0258609280994588
31
0
0
LINE
5
117
100
AcDbEntity
8
0
100
AcDbLine
10
1.8632263684265533
20
-2.0258609280994588
30
0
11
2.0258609280994588
21
-1.8632263684265538
31
0
0
LINE
5
118
100
AcDbEntity
8
0
100
AcDbLine
10
2.0258609280994588
20
-1.8632263684265538
30
0
11
2.4806687547146118
21
-2.3180341950417063
31
0
0
ARC
5
119
100
AcDbEntity
8
0
100
AcDbCircle
10
2.5513794328332673
20
-2.2473235169230525
30
0
40
0.099999999999999603
210
0
220
0
230
1
100
AcDbArc
50
224.99999999999926
51
318.62553445126508
0
ARC
5
120
100
AcDbEntity
8
0
100
AcDbCircle
10
0
20
0
30
0
40
3.4999999999999991
210
-0
220
0
230
1
100
AcDbArc
50
318.62553445126485
51
322.18023819198879
0
SPLINE
5
121
100
AcDbEntity
8
0
100
AcDbSpline
70
0
71
3
72
18
73
14
74
0
42
0.000000001
43
0.0000000001
44
0.0000000001
40
0.10842166828783362
40
0.10842166828783362
40
0.10842166828783362
40
0.10842166828783362
40
2.0071537391954521
40
2.0071537391954521
40
3.170286918114984
40
3.170286918114984
40
4.164103337015538
40
4.164103337015538
40
6.0439403145047592
40
6.0439403145047592
40
11.296599318002608
40
11.296599318002608
40
13.643532239846937
40
13.643532239846937
40
13.643532239846937
40
13.643532239846937
10
3.4725517587360515
20
-0.43747489402153639
30
0
10
3.2393855310328106
20
-0.51386305848728731
30
0
10
3.0457841443263747
20
-0.60343133401573101
30
0
10
2.8079500047823927
20
-0.76276447742556319
30
0
10
2.710136612878379
20
-0.84284488125292689
30
0
10
2.5765182945612808
20
-1.0351507025464228
30
0
10
2.5511946006832074
20
-1.1163320153899103
30
0
10
2.5159935236634157
20
-1.2807087774442178
30
0
10
2.5221125810902136
20
-1.3845574724585732
30
0
10
2.554075348247697
20
-1.6516377013119208
30
0
10
2.6272079104511392
20
-1.8450107293837328
30
0
10
2.7107761671758439
20
-2.0362580621837116
30
0
10
2.7296775271155047
20
-2.0767970972546825
30
0
10
2.7648024895998957
20
-2.1461284196203669
30
0
0
ARC
5
122
100
AcDbEntity
8
0
100
AcDbCircle
10
0
20
0
30
0
40
3.5
210
-0
220
0
230
1
100
AcDbArc
50
352.81965845779911
51
356.3744655487352
0
ARC
5
123
100
AcDbEntity
8
0
100
AcDbCircle
10
3.3931953966725814
20
-0.21500000000000047
30
0
40
0.10000000000000021
210
0
220
0
230
1
100
AcDbArc
50
-3.6255344512648109
51
90
0
LINE
5
124
100
AcDbEntity
8
0
100
AcDbLine
10
3.3931953966725814
20
-0.11500000000000027
30
0
11
2.7500000000000004
21
-0.11500000000000017
31
0
0
LINE
5
125
100
AcDbEntity
8
0
100
AcDbLine
10
2.7500000000000004
20
-0.11500000000000017
30
0
11
2.7500000000000004
21
0.11499999999999913
31
0
0
LINE
5
126
100
AcDbEntity
8
0
100
AcDbLine
10
2.7500000000000004
20
0.11499999999999913
30
0
11
3.3931953966725814
21
0.11499999999999939
31
0
0
ARC
5
127
100
AcDbEntity
8
0
100
AcDbCircle
10
3.3931953966725814
20
0.21499999999999894
30
0
40
0.099999999999999561
210
0
220
0
230
1
100
AcDbArc
50
-90
51
3.6255344512648029
0
ARC
5
128
100
AcDbEntity
8
0
100
AcDbCircle
10
0
20
0
30
0
40
3.5
210
0
220
-0
230
1
100
AcDbArc
50
3.6255344512648029
51
7.1802381919887104
0
SPLINE
5
129
100
AcDbEntity
8
0
100
AcDbSpline
70
0
71
3
72
18
73
14
74
0
42
0.000000001
43
0.0000000001
44
0.0000000001
40
4.3193011203483991
40
4.3193011203483991
40
4.3193011203483991
40
4.3193011203483991
40
5.4764540057537747
40
5.4764540057537747
40
8.9295104791622588
40
8.9295104791622588
40
11.481701811958414
40
11.481701811958414
40
13.752275853314551
40
13.752275853314551
40
15.646744607865941
40
15.646744607865941
40
17.89340057860877
40
17.89340057860877
40
17.89340057860877
40
17.89340057860877
10
2.7648063607850286
20
2.1461234324620393
30
0
10
2.731935118199043
20
2.0812199803564324
30
0
10
2.7081366914580731
20
2.0310106956938077
30
0
10
2.5917984705281034
20
1.760800016654622
30
0
10
2.5421696077578457
20
1.5832539990686159
30
0
10
2.516652527672079
20
1.3132806063230964
30
0
10
2.5252962896596203
20
1.2131774117924614
30
0
10
2.5754073909347026
20
1.04490540516081
30
0
10
2.6133918534151892
20
0.97376475642780214
30
0
10
2.7160496546117883
20
0.84724977840233273
30
0
10
2.7929757038334611
20
0.76864180882356425
30
0
10
3.0941270003419397
20
0.5777701338387603
30
0
10
3.2876090680083903
20
0.49803217830035085
30
0
10
3.4725525478482644
20
0.43746863022680499
30
0
0
ARC
5
130
100
AcDbEntity
8
0
100
AcDbCircle
10
0
20
0
30
0
40
3.5
210
0
220
-0
230
1
100
AcDbArc
50
37.819658457799051
51
41.374465548735159
0
ARC
5
131
100
AcDbEntity
8
0
100
AcDbCircle
10
2.5513794328332668
20
2.2473235169230521
30
0
40
0.099999999999999714
210
0
220
-0
230
1
100
AcDbArc
50
41.374465548735309
51
135.00000000000037
0
LINE
5
132
100
AcDbEntity
8
0
100
AcDbLine
10
2.4806687547146118
20
2.3180341950417063
30
0
11
2.0258609280994588
21
1.8632263684265529
31
0
0
LINE
5
133
100
AcDbEntity
8
0
100
AcDbLine
10
2.0258609280994588
20
1.8632263684265529
30
0
11
1.8632263684265538
21
2.0258609280994584
31
0
0
LINE
5
134
100
AcDbEntity
8
0
100
AcDbLine
10
1.8632263684265538
20
2.0258609280994584
30
0
11
2.3180341950417067
21
2.4806687547146118
31
0
0
ARC
5
135
100
AcDbEntity
8
0
100
AcDbCircle
10
2.2473235169230517
20
2.5513794328332673
30
0
40
0.10000000000000085
210
-0
220
0
230
1
100
AcDbArc
50
-45.000000000000156
51
48.625534451265416
0
ARC
5
136
100
AcDbEntity
8
0
100
AcDbCircle
10
0
20
0
30
0
40
3.4999999999999991
210
0
220
-0
230
1
100
AcDbArc
50
48.625534451264883
51
52.180238191988742
0
SPLINE
5
137
100
AcDbEntity
8
0
100
AcDbSpline
70
0
71
3
72
18
73
14
74
0
42
0.000000001
43
0.0000000001
44
0.0000000001
40
0.10842166828783573
40
0.10842166828783573
40
0.10842166828783573
40
0.10842166828783573
40
2.0071537391954113
40
2.0071537391954113
40
3.1702869181134852
40
3.1702869181134852
40
4.1641033370120786
40
4.1641033370120786
40
6.043940314495007
40
6.043940314495007
40
11.296599317961421
40
11.296599317961421
40
13.643532239796416
40
13.643532239796416
40
13.643532239796416
40
13.643532239796416
10
0.43747489402153672
20
3.472551758736051
30
0
10
0.51386305848728586
20
3.2393855310328155
30
0
10
0.60343133401572935
20
3.0457841443263769
30
0
10
0.76276447742549003
20
2.8079500047825015
30
0
10
0.84284488125285872
20
2.7101366128784252
30
0
10
1.0351507025464228
20
2.5765182945612808
30
0
10
1.1163320153899081
20
2.5511946006832078
30
0
10
1.2807087774440726
20
2.5159935236634445
30
0
10
1.3845574724583438
20
2.5221125810901843
30
0
10
1.6516377013121231
20
2.554075348247725
30
0
10
1.8450107293840601
20
2.6272079104512773
30
0
10
2.0362580621837711
20
2.7107761671758714
30
0
10
2.0767970972547376
20
2.7296775271155322
30
0
10
2.1461284196203674
20
2.7648024895998948
30
0
0
ARC
5
138
100
AcDbEntity
8
0
100
AcDbCircle
10
0
20
0
30
0
40
3.4999999999999991
210
0
220
-0
230
1
100
AcDbArc
50
82.819658457799051
51
86.374465548735117
0
ARC
5
139
100
AcDbEntity
8
0
100
AcDbCircle
10
0.21500000000000066
20
3.3931953966725814
30
0
40
0.099999999999999617
210
0
220
-0
230
1
100
AcDbArc
50
86.374465548734349
51
180
0
LINE
5
140
100
AcDbEntity
8
0
100
AcDbLine
10
0.11500000000000044
20
3.3931953966725814
30
0
11
0.11500000000000032
21
2.7500000000000004
31
0
0
LINE
5
141
100
AcDbEntity
8
0
100
AcDbLine
10
0.11500000000000032
20
2.7500000000000004
30
0
11
-0.11499999999999898
21
2.7500000000000004
31
0
0
LINE
5
142
100
AcDbEntity
8
0
100
AcDbLine
10
-0.11499999999999898
20
2.7500000000000004
30
0
11
-0.11499999999999921
21
3.3931953966725814
31
0
0
ARC
5
143
100
AcDbEntity
8
0
100
AcDbCircle
10
-0.21499999999999955
20
3.3931953966725814
30
0
40
0.10000000000000034
210
0
220
0
230
1
100
AcDbArc
50
0
51
93.625534451264812
0
ARC
5
144
100
AcDbEntity
8
0
100
AcDbCircle
10
0
20
0
30
0
40
3.5
210
0
220
0
230
1
100
AcDbArc
50
93.625534451264855
51
97.180238191988778
0
SPLINE
5
145
100
AcDbEntity
8
0
100
AcDbSpline
70
0
71
3
72
18
73
14
74
0
42
0.000000001
43
0.0000000001
44
0.0000000001
40
4.3184720486263748
40
4.3184720486263748
40
4.3184720486263748
40
4.3184720486263748
40
5.4779342064121384
40
5.4779342064121384
40
8.9220374844319572
40
8.9220374844319572
40
11.445493709934688
40
11.445493709934688
40
13.669901148599871
40
13.669901148599871
40
15.526847428816545
40
15.526847428816545
40
17.726291444084033
40
17.726291444084033
40
17.726291444084033
40
17.726291444084033
10
-2.1461234324620388
20
2.7648063607850291
30
0
10
-2.080993083876054
20
2.7318202033677599
30
0
10
-2.0306169560179694
20
2.70794683028614
30
0
10
-1.7602290989488159
20
2.5916134768406391
30
0
10
-1.5827855329454474
20
2.5420712962439356
30
0
10
-1.3139648003167821
20
2.5167568997412819
30
0
10
-1.213734761176231
20
2.5250938729134491
30
0
10
-1.0447136074754124
20
2.5754967155379189
30
0
10
-0.97360001918285366
20
2.6134983158247111
30
0
10
-0.8470948200024887
20
2.716198158921074
30
0
10
-0.76846519645270761
20
2.7931813535977135
30
0
10
-0.57766988635753613
20
3.0943718190432881
30
0
10
-0.49799512504043708
20
3.2877222178988084
30
0
10
-0.43746863022680477
20
3.4725525478482644
30
0
0
ARC
5
146
100
AcDbEntity
8
0
100
AcDbCircle
10
0
20
0
30
0
40
3.5
210
0
220
0
230
1
100
AcDbArc
50
127.81965845779905
51
131.37446554873515
0
ARC
5
147
100
AcDbEntity
8
0
100
AcDbCircle
10
-2.2473235169230521
20
2.5513794328332673
30
0
40
0.099999999999999201
210
0
220
0
230
1
100
AcDbArc
50
131.37446554873529
51
225.00000000000037
0
LINE
5
148
100
AcDbEntity
8
0
100
AcDbLine
10
-2.3180341950417058
20
2.4806687547146127
30
0
11
-1.8632263684265529
21
2.0258609280994593
31
0
0
LINE
5
149
100
AcDbEntity
8
0
100
AcDbLine
10
-1.8632263684265529
20
2.0258609280994593
30
0
11
-2.0258609280994584
21
1.863226368426554
31
0
0
LINE
5
150
100
AcDbEntity
8
0
100
AcDbLine
10
-2.0258609280994584
20
1.863226368426554
30
0
11
-2.4806687547146118
21
2.3180341950417072
31
0
0
ARC
5
151
100
AcDbEntity
8
0
100
AcDbCircle
10
-2.5513794328332664
20
2.2473235169230517
30
0
40
0.10000000000000034
210
0
220
-0
230
1
100
AcDbArc
50
45.000000000000355
51
138.62553445126505
0
ARC
5
152
100
AcDbEntity
8
0
100
AcDbCircle
10
0
20
0
30
0
40
3.4999999999999987
210
0
220
0
230
1
100
AcDbArc
50
138.62553445126485
51
142.18023819198871
0
SPLINE
5
153
100
AcDbEntity
8
0
100
AcDbSpline
70
0
71
3
72
18
73
14
74
0
42
0.000000001
43
0.0000000001
44
0.0000000001
40
0.10842166828783821
40
0.10842166828783821
40
0.10842166828783821
40
0.10842166828783821
40
2.0071537391953149
40
2.0071537391953149
40
3.1702869181146163
40
3.1702869181146163
40
4.1641033370139624
40
4.1641033370139624
40
6.0439403144941037
40
6.0439403144941037
40
11.296599317948028
40
11.296599317948028
40
13.643532239773188
40
13.643532239773188
40
13.643532239773188
40
13.643532239773188
10
-3.4725517587360515
20
0.43747489402153705
30
0
10
-3.2393855310328266
20
0.51386305848728331
30
0
10
-3.0457841443263884
20
0.60343133401572346
30
0
10
-2.8079500047824055
20
0.7627644774255542
30
0
10
-2.7101366128783875
20
0.84284488125291745
30
0
10
-2.5765182945613372
20
1.0351507025463382
30
0
10
-2.551194600683238
20
1.1163320153897729
30
0
10
-2.5159935236634468
20
1.2807087774440551
30
0
10
-2.5221125810901839
20
1.3845574724583207
30
0
10
-2.5540753482476988
20
1.6516377013119317
30
0
10
-2.6272079104511441
20
1.8450107293837461
30
0
10
-2.7107761671758523
20
2.0362580621837316
30
0
10
-2.7296775271155171
20
2.0767970972547092
30
0
10
-2.7648024895998948
20
2.1461284196203674
30
0
0
ARC
5
154
100
AcDbEntity
8
0
100
AcDbCircle
10
0
20
0
30
0
40
3.5
210
0
220
0
230
1
100
AcDbArc
50
172.81965845779908
51
176.3744655487352
0
ARC
5
155
100
AcDbEntity
8
0
100
AcDbCircle
10
-3.3931953966725814
20
0.21500000000000069
30
0
40
0.099999999999999603
210
0
220
0
230
1
100
AcDbArc
50
176.37446554873452
51
270
0
LINE
5
156
100
AcDbEntity
8
0
100
AcDbLine
10
-3.3931953966725814
20
0.11500000000000048
30
0
11
-2.7500000000000004
21
0.1150000000000005
31
0
0
LINE
5
157
100
AcDbEntity
8
0
100
AcDbLine
10
-2.7500000000000004
20
0.1150000000000005
30
0
11
-2.7500000000000004
21
-0.1149999999999988
31
0
0
LINE
5
158
100
AcDbEntity
8
0
100
AcDbLine
10
-2.7500000000000004
20
-0.1149999999999988
30
0
11
-3.3931953966725814
21
-0.11499999999999902
31
0
0
ARC
5
159
100
AcDbEntity
8
0
100
AcDbCircle
10
-3.3931953966725814
20
-0.21499999999999911
30
0
40
0.1000000000000001
210
0
220
-0
230
1
100
AcDbArc
50
90
51
183.6255344512648
0
ARC
5
160
100
AcDbEntity
8
0
100
AcDbCircle
10
0
20
0
30
0
40
3.5
210
0
220
0
230
1
100
AcDbArc
50
183.6255344512648
51
187.18023819198871
0
SPLINE
5
161
100
AcDbEntity
8
0
100
AcDbSpline
70
0
71
3
72
18
73
14
74
0
42
0.000000001
43
0.0000000001
44
0.0000000001
40
4.3193641551772508
40
4.3193641551772508
40
4.3193641551772508
40
4.3193641551772508
40
5.4766915075049774
40
5.4766915075049774
40
8.9301018271246608
40
8.9301018271246608
40
11.48255469146739
40
11.48255469146739
40
13.753361406097934
40
13.753361406097934
40
15.648024293167115
40
15.648024293167115
40
17.894910486220255
40
17.894910486220255
40
17.894910486220255
40
17.894910486220255
10
-2.7648063607850291
20
-2.1461234324620388
30
0
10
-2.7319343688702231
20
-2.0812185008252864
30
0
10
-2.7081381016824384
20
-2.0310139711237341
30
0
10
-2.5917984705277228
20
-1.7608000166535545
30
0
10
-2.5421696077576907
20
-1.5832539990677448
30
0
10
-2.5166525276721514
20
-1.3132806063232978
30
0
10
-2.5252962896595372
20
-1.2131774117925787
30
0
10
-2.5754073909348421
20
-1.0449054051604891
30
0
10
-2.6133918534153784
20
-0.97376475642752247
30
0
10
-2.7160496546119952
20
-0.84724977840211468
30
0
10
-2.7929757038337457
20
-0.76864180882332167
30
0
10
-3.0941270003422661
20
-0.57777013383862708
30
0
10
-3.2876090680085333
20
-0.4980321783003035
30
0
10
-3.4725525478482644
20
-0.43746863022680454
30
0
0
ARC
5
162
100
AcDbEntity
8
0
100
AcDbCircle
10
0
20
0
30
0
40
3.5
210
0
220
0
230
1
100
AcDbArc
50
217.81965845779905
51
221.37446554873509
0
ARC
5
163
100
AcDbEntity
8
0
100
AcDbCircle
10
-2.5513794328332673
20
-2.2473235169230517
30
0
40
0.099999999999999381
210
0
220
0
230
1
100
AcDbArc
50
221.37446554873401
51
315.00000000000017
0
LINE
5
164
100
AcDbEntity
8
0
100
AcDbLine
10
-2.4806687547146127
20
-2.3180341950417058
30
0
11
-2.0258609280994593
21
-1.8632263684265526
31
0
0
LINE
5
165
100
AcDbEntity
8
0
100
AcDbLine
10
-2.0258609280994593
20
-1.8632263684265526
30
0
11
-1.863226368426554
21
-2.0258609280994579
31
0
0
LINE
5
166
100
AcDbEntity
8
0
100
AcDbLine
10
-1.863226368426554
20
-2.0258609280994579
30
0
11
-2.3180341950417076
21
-2.4806687547146118
31
0
0
ARC
5
167
100
AcDbEntity
8
0
100
AcDbCircle
10
-2.247323516923053
20
-2.5513794328332664
30
0
40
0.099999999999999867
210
0
220
0
230
1
100
AcDbArc
50
135
51
228.62553445126542
0
ARC
5
168
100
AcDbEntity
8
0
100
AcDbCircle
10
0
20
0
30
0
40
3.5
210
0
220
0
230
1
100
AcDbArc
50
228.62553445126483
51
232.18023819198874
0
ENDSEC
0
SECTION
2
OBJECTS
0
DICTIONARY
5
C
100
AcDbDictionary
3
ACAD_GROUP
350
D
3
ACAD_MLINESTYLE
350
17
0
DICTIONARY
5
D
100
AcDbDictionary
0
DICTIONARY
5
1A
330
C
100
AcDbDictionary
0
DICTIONARY
5
17
100
AcDbDictionary
0
ENDSEC
0
EOF
