0
SECTION
2
HEADER
9
$INSUNITS
70
1
9
$ACADVER
1
AC1014
9
$HANDSEED
5
FFFF
0
ENDSEC
0
SECTION
2
TABLES
0
TABLE
2
VPORT
5
8
100
AcDbSymbolTable
0
ENDTAB
0
TABLE
2
LTYPE
5
5
100
AcDbSymbolTable
0
LTYPE
5
14
100
AcDbSymbolTableRecord
100
AcDbLinetypeTableRecord
2
BYBLOCK
70
0
0
LTYPE
5
15
100
AcDbSymbolTableRecord
100
AcDbLinetypeTableRecord
2
BYLAYER
70
0
0
ENDTAB
0
TABLE
2
LAYER
5
2
100
AcDbSymbolTable
70
2
0
LAYER
5
50
100
AcDbSymbolTableRecord
100
AcDbLayerTableRecord
2
0
70
0
6
CONTINUOUS
0
ENDTAB
0
TABLE
2
STYLE
5
3
100
AcDbSymbolTable
70
1
0
STYLE
5
11
100
AcDbSymbolTableRecord
100
AcDbTextStyleTableRecord
2
STANDARD
70
0
0
ENDTAB
0
TABLE
2
VIEW
5
6
100
AcDbSymbolTable
70
0
0
ENDTAB
0
TABLE
2
UCS
5
7
100
AcDbSymbolTable
70
0
0
ENDTAB
0
TABLE
2
APPID
5
9
100
AcDbSymbolTable
70
2
0
APPID
5
12
100
AcDbSymbolTableRecord
100
AcDbRegAppTableRecord
2
ACAD
70
0
0
ENDTAB
0
TABLE
2
DIMSTYLE
5
A
100
AcDbSymbolTable
70
1
0
ENDTAB
0
TABLE
2
BLOCK_RECORD
5
1
100
AcDbSymbolTable
70
1
0
BLOCK_RECORD
5
1F
100
AcDbSymbolTableRecord
100
AcDbBlockTableRecord
2
*MODEL_SPACE
0
BLOCK_RECORD
5
1B
100
AcDbSymbolTableRecord
100
AcDbBlockTableRecord
2
*PAPER_SPACE
0
ENDTAB
0
ENDSEC
0
SECTION
2
BLOCKS
0
BLOCK
5
20
100
AcDbEntity
100
AcDbBlockBegin
2
*MODEL_SPACE
0
ENDBLK
5
21
100
AcDbEntity
100
AcDbBlockEnd
0
BLOCK
5
1C
100
AcDbEntity
100
AcDbBlockBegin
2
*PAPER_SPACE
0
ENDBLK
5
1D
100
AcDbEntity
100
AcDbBlockEnd
0
ENDSEC
0
SECTION
2
ENTITIES
0
CIRCLE
5
100
100
AcDbEntity
8
0
100
AcDbCircle
10
0
20
0
30
0
40
0.12849999999999998
210
0
220
-0
230
1
0
CIRCLE
5
101
100
AcDbEntity
8
0
100
AcDbCircle
10
-0.44180974497577052
20
0.44180974497577069
30
0
40
0.053503937007873974
210
0
220
0
230
1
0
CIRCLE
5
102
100
AcDbEntity
8
0
100
AcDbCircle
10
0.44180974497577064
20
0.4418097449757708
30
0
40
0.053503937007873974
210
0
220
0
230
1
0
CIRCLE
5
103
100
AcDbEntity
8
0
100
AcDbCircle
10
-0.44180974497577069
20
-0.44180974497577052
30
0
40
0.053503937007873974
210
0
220
0
230
1
0
CIRCLE
5
104
100
AcDbEntity
8
0
100
AcDbCircle
10
0.44180974497577064
20
-0.44180974497577064
30
0
40
0.053503937007873974
210
0
220
0
230
1
0
SPLINE
5
105
100
AcDbEntity
8
0
100
AcDbSpline
70
0
71
3
72
18
73
14
74
0
42
0.000000001
43
0.0000000001
44
0.0000000001
40
0.11015447718955952
40
0.11015447718955952
40
0.11015447718955952
40
0.11015447718955952
40
2.0176218105703727
40
2.0176218105703727
40
3.1901451327349033
40
3.1901451327349033
40
4.1945511468503804
40
4.1945511468503804
40
6.0861985156004241
40
6.0861985156004241
40
11.342918024049421
40
11.342918024049421
40
13.505716120905227
40
13.505716120905227
40
13.505716120905227
40
13.505716120905227
10
-0.43756275302140757
20
-3.4725406890587074
30
0
10
-0.51451308531745055
20
-3.2384103215224269
30
0
10
-0.60471648236215114
20
-3.0440002366164913
30
0
10
-0.76542504886648932
20
-2.804788816751846
30
0
10
-0.84614865028248831
20
-2.7065938056381027
30
0
10
-1.0400529363040758
20
-2.5722984461475202
30
0
10
-1.1221282696685169
20
-2.546783567710786
30
0
10
-1.2885833369364392
20
-2.5114015746381111
30
0
10
-1.3937226484536729
20
-2.5176320104482452
30
0
10
-1.6652554744910315
20
-2.550478920813648
30
0
10
-1.8615547185589607
20
-2.624960325004825
30
0
10
-2.0509993372354476
20
-2.7079761777341309
30
0
10
-2.0891359384076269
20
-2.7257090347199773
30
0
10
-2.154266868188242
20
-2.7584659252248183
30
0
0
ARC
5
106
100
AcDbEntity
8
0
100
AcDbCircle
10
0
20
0
30
0
40
3.4999999999999991
210
0
220
0
230
1
100
AcDbArc
50
262.81820881550203
51
266.37446554873515
0
ARC
5
107
100
AcDbEntity
8
0
100
AcDbCircle
10
-0.2150000000000003
20
-3.3931953966725814
30
0
40
0.10000000000000017
210
0
220
0
230
1
100
AcDbArc
50
-93.625534451264343
51
0
0
LINE
5
108
100
AcDbEntity
8
0
100
AcDbLine
10
-0.11500000000000009
20
-3.3931953966725814
30
0
11
-0.115
21
-2.7499964285696086
31
0
0
LINE
5
109
100
AcDbEntity
8
0
100
AcDbLine
10
-0.115
20
-2.7499964285696086
30
0
11
0.10499999999999944
21
-2.7499964285696086
31
0
0
LINE
5
110
100
AcDbEntity
8
0
100
AcDbLine
10
0.10499999999999944
20
-2.7499964285696086
30
0
11
0.10499999999999968
21
-3.3938142259116062
31
0
0
ARC
5
111
100
AcDbEntity
8
0
100
AcDbCircle
10
0.20499999999999882
20
-3.3938142259116066
30
0
40
0.099999999999999145
210
0
220
0
230
1
100
AcDbArc
50
180
51
273.45669503232273
0
ARC
5
112
100
AcDbEntity
8
0
100
AcDbCircle
10
0
20
0
30
0
40
3.4999999999999987
210
-0
220
0
230
1
100
AcDbArc
50
273.45669503232244
51
277.0113894661136
0
SPLINE
5
113
100
AcDbEntity
8
0
100
AcDbSpline
70
0
71
3
72
20
73
16
74
0
42
0.000000001
43
0.0000000001
44
0.0000000001
40
-0.9754304816633842
40
-0.9754304816633842
40
-0.9754304816633842
40
-0.9754304816633842
40
-0.87243486595006314
40
-0.87243486595006314
40
-0.87243486595006314
40
-0.62954360463170267
40
-0.62954360463170267
40
-0.62954360463170267
40
-0.43622063659683913
40
-0.43622063659683913
40
-0.43622063659683913
40
-0.25
40
-0.25
40
-0.25
40
-0.024616236382173598
40
-0.024616236382173598
40
-0.024616236382173598
40
-0.024616236382173598
10
0.42723325041708177
20
-3.4738266723799045
30
0
10
0.46283882941095472
20
-3.3661678013931162
30
0
10
0.50120805037284044
20
-3.2669742606912964
30
0
10
0.54206057250811857
20
-3.1767483221501434
30
0
10
0.6384017668468458
20
-2.963971381460822
30
0
10
0.7487334151236249
20
-2.8026301655197829
30
0
10
0.86572350990025171
20
-2.6975991397288626
30
0
10
0.95883872627377642
20
-2.6140024325791842
30
0
10
1.0544059755399726
20
-2.5643165527293847
30
0
10
1.1662937871524701
20
-2.5397307875270285
30
0
10
1.2740710456836395
20
-2.5160482582665753
30
0
10
1.3998124205720954
20
-2.5167067135019026
30
0
10
1.5453906240325057
20
-2.5448151514822275
30
0
10
1.7215846484770871
20
-2.5788349339145005
30
0
10
1.9243507863993725
20
-2.6528407326775105
30
0
10
2.146053479323514
20
-2.764860659035703
30
0
0
ARC
5
114
100
AcDbEntity
8
0
100
AcDbCircle
10
0
20
0
30
0
40
3.4999999999999858
210
-0
220
0
230
1
100
AcDbArc
50
307.81820881550192
51
311.37446554873515
0
ARC
5
115
100
AcDbEntity
8
0
100
AcDbCircle
10
2.2473235169230512
20
-2.5513794328332673
30
0
40
0.099999999999999978
210
0
220
0
230
1
100
AcDbArc
50
-48.625534451264706
51
45.000000000000185
0
LINE
5
116
100
AcDbEntity
8
0
100
AcDbLine
10
2.3180341950417058
20
-2.4806687547146122
30
0
11
1.8632238430439045
21
-2.0258584027168101
31
0
0
LINE
5
117
100
AcDbEntity
8
0
100
AcDbLine
10
1.8632238430439045
20
-2.0258584027168101
30
0
11
2.0187873349049448
21
-1.8702949108557703
31
0
0
LINE
5
118
100
AcDbEntity
8
0
100
AcDbLine
10
2.0187873349049448
20
-1.8702949108557703
30
0
11
2.4740352652540576
21
-2.3255428412048831
31
0
0
ARC
5
119
100
AcDbEntity
8
0
100
AcDbCircle
10
2.5447459433727122
20
-2.2548321630862285
30
0
40
0.099999999999999867
210
0
220
0
230
1
100
AcDbArc
50
225
51
318.45669503232273
0
ARC
5
120
100
AcDbEntity
8
0
100
AcDbCircle
10
0
20
0
30
0
40
3.4999999999999991
210
-0
220
0
230
1
100
AcDbArc
50
318.45669503232244
51
322.01138946611354
0
SPLINE
5
121
100
AcDbEntity
8
0
100
AcDbSpline
70
0
71
3
72
18
73
14
74
0
42
0.000000001
43
0.0000000001
44
0.0000000001
40
0.11015447718956202
40
0.11015447718956202
40
0.11015447718956202
40
0.11015447718956202
40
2.017621810570565
40
2.017621810570565
40
3.1901451327347843
40
3.1901451327347843
40
4.1945511468492382
40
4.1945511468492382
40
6.0861985155988201
40
6.0861985155988201
40
11.342918024071206
40
11.342918024071206
40
13.505716120936469
40
13.505716120936469
40
13.505716120936469
40
13.505716120936469
10
3.4725406890587074
20
-0.43756275302140668
30
0
10
3.2384103215224069
20
-0.51451308531745654
30
0
10
3.044000236616478
20
-0.60471648236215925
30
0
10
2.8047888167518864
20
-0.7654250488664619
30
0
10
2.7065938056381205
20
-0.84614865028246244
30
0
10
2.5722984461475504
20
-1.0400529363040305
30
0
10
2.5467835677108028
20
-1.1221282696684443
30
0
10
2.5114015746380685
20
-1.2885833369366511
30
0
10
2.5176320104482879
20
-1.3937226484540133
30
0
10
2.5504789208136347
20
-1.6652554744909427
30
0
10
2.6249603250047744
20
-1.8615547185588397
30
0
10
2.7079761777341442
20
-2.0509993372354756
30
0
10
2.7257090347200057
20
-2.0891359384076806
30
0
10
2.7584659252248191
20
-2.1542668681882415
30
0
0
ARC
5
122
100
AcDbEntity
8
0
100
AcDbCircle
10
0
20
0
30
0
40
3.4999999999999991
210
-0
220
0
230
1
100
AcDbArc
50
352.81820881550209
51
356.3744655487352
0
ARC
5
123
100
AcDbEntity
8
0
100
AcDbCircle
10
3.3931953966725814
20
-0.21500000000000047
30
0
40
0.10000000000000021
210
0
220
0
230
1
100
AcDbArc
50
-3.6255344512648109
51
90
0
LINE
5
124
100
AcDbEntity
8
0
100
AcDbLine
10
3.3931953966725814
20
-0.11500000000000027
30
0
11
2.7499964285696086
21
-0.11500000000000017
31
0
0
LINE
5
125
100
AcDbEntity
8
0
100
AcDbLine
10
2.7499964285696086
20
-0.11500000000000017
30
0
11
2.7499964285696086
21
0.10499999999999926
31
0
0
LINE
5
126
100
AcDbEntity
8
0
100
AcDbLine
10
2.7499964285696086
20
0.10499999999999926
30
0
11
3.3938142259116062
21
0.10499999999999944
31
0
0
ARC
5
127
100
AcDbEntity
8
0
100
AcDbCircle
10
3.3938142259116066
20
0.2049999999999994
30
0
40
0.09999999999999995
210
0
220
0
230
1
100
AcDbArc
50
-90.000000000000256
51
3.4566950323227754
0
ARC
5
128
100
AcDbEntity
8
0
100
AcDbCircle
10
0
20
0
30
0
40
3.4999999999999991
210
0
220
-0
230
1
100
AcDbArc
50
3.4566950323224588
51
7.0113894661135099
0
SPLINE
5
129
100
AcDbEntity
8
0
100
AcDbSpline
70
0
71
3
72
18
73
14
74
0
42
0.000000001
43
0.0000000001
44
0.0000000001
40
4.3148347786998134
40
4.3148347786998134
40
4.3148347786998134
40
4.3148347786998134
40
5.4657754780356544
40
5.4657754780356544
40
7.9965352191677423
40
7.9965352191677423
40
9.4882455438401063
40
9.4882455438401063
40
10.80225185654505
40
10.80225185654505
40
11.900016740875953
40
11.900016740875953
40
13.177471310030077
40
13.177471310030077
40
13.177471310030077
40
13.177471310030077
10
2.7648606590357097
20
2.1460534793235269
30
0
10
2.7320597661177852
20
2.0811360443042677
30
0
10
2.7082356009764883
20
2.0307652038915043
30
0
10
2.6147999292933477
20
1.813246286305672
30
0
10
2.5453598847836152
20
1.6183431290463122
30
0
10
2.5165935768769447
20
1.3098339722753574
30
0
10
2.5250555296589003
20
1.2087366388540015
30
0
10
2.576139559921975
20
1.0380887276364665
30
0
10
2.6146031253548618
20
0.96626083274512198
30
0
10
2.7184355869183721
20
0.83845708260780338
30
0
10
2.7963592413238088
20
0.75888973031996121
30
0
10
3.0984707881590703
20
0.56756592882219514
30
0
10
3.2901664044264551
20
0.48797446123151439
30
0
10
3.4738266723799054
20
0.42723325041708154
30
0
0
ARC
5
130
100
AcDbEntity
8
0
100
AcDbCircle
10
0
20
0
30
0
40
3.4999999999999991
210
0
220
-0
230
1
100
AcDbArc
50
37.818208815502018
51
41.374465548735159
0
ARC
5
131
100
AcDbEntity
8
0
100
AcDbCircle
10
2.5513794328332668
20
2.2473235169230521
30
0
40
0.099999999999999714
210
0
220
-0
230
1
100
AcDbArc
50
41.374465548735309
51
135.00000000000037
0
LINE
5
132
100
AcDbEntity
8
0
100
AcDbLine
10
2.4806687547146118
20
2.3180341950417063
30
0
11
2.0258584027168101
21
1.8632238430439041
31
0
0
LINE
5
133
100
AcDbEntity
8
0
100
AcDbLine
10
2.0258584027168101
20
1.8632238430439041
30
0
11
1.8702949108557703
21
2.0187873349049443
31
0
0
LINE
5
134
100
AcDbEntity
8
0
100
AcDbLine
10
1.8702949108557703
20
2.0187873349049443
30
0
11
2.325542841204884
21
2.4740352652540576
31
0
0
ARC
5
135
100
AcDbEntity
8
0
100
AcDbCircle
10
2.2548321630862298
20
2.5447459433727118
30
0
40
0.099999999999999117
210
-0
220
0
230
1
100
AcDbArc
50
-45
51
48.456695032322578
0
ARC
5
136
100
AcDbEntity
8
0
100
AcDbCircle
10
0
20
0
30
0
40
3.4999999999999991
210
0
220
-0
230
1
100
AcDbArc
50
48.456695032322408
51
52.011389466113584
0
SPLINE
5
137
100
AcDbEntity
8
0
100
AcDbSpline
70
0
71
3
72
18
73
14
74
0
42
0.000000001
43
0.0000000001
44
0.0000000001
40
0.11015447718955984
40
0.11015447718955984
40
0.11015447718955984
40
0.11015447718955984
40
2.0176218105705508
40
2.0176218105705508
40
3.1901451327307218
40
3.1901451327307218
40
4.1945511468400642
40
4.1945511468400642
40
6.0861985155772587
40
6.0861985155772587
40
11.342918023990549
40
11.342918023990549
40
13.505716120833945
40
13.505716120833945
40
13.505716120833945
40
13.505716120833945
10
0.43756275302140707
20
3.4725406890587074
30
0
10
0.5145130853174561
20
3.2384103215224083
30
0
10
0.60471648236215914
20
3.044000236616478
30
0
10
0.76542504886625384
20
2.804788816752195
30
0
10
0.84614865028226582
20
2.7065938056382564
30
0
10
1.0400529363040505
20
2.5722984461475362
30
0
10
1.1221282696684785
20
2.5467835677107944
30
0
10
1.2885833369364259
20
2.5114015746381138
30
0
10
1.3937226484536516
20
2.5176320104482448
30
0
10
1.6652554744910297
20
2.5504789208136454
30
0
10
1.861554718558968
20
2.6249603250048317
30
0
10
2.0509993372354365
20
2.7079761777341256
30
0
10
2.0891359384076398
20
2.7257090347199848
30
0
10
2.1542668681882415
20
2.7584659252248187
30
0
0
ARC
5
138
100
AcDbEntity
8
0
100
AcDbCircle
10
0
20
0
30
0
40
3.4999999999999991
210
0
220
-0
230
1
100
AcDbArc
50
82.818208815502047
51
86.374465548735117
0
ARC
5
139
100
AcDbEntity
8
0
100
AcDbCircle
10
0.21500000000000066
20
3.3931953966725814
30
0
40
0.099999999999999617
210
0
220
-0
230
1
100
AcDbArc
50
86.374465548734349
51
180
0
LINE
5
140
100
AcDbEntity
8
0
100
AcDbLine
10
0.11500000000000044
20
3.3931953966725814
30
0
11
0.11500000000000032
21
2.7499964285696086
31
0
0
LINE
5
141
100
AcDbEntity
8
0
100
AcDbLine
10
0.11500000000000032
20
2.7499964285696086
30
0
11
-0.10499999999999911
21
2.7499964285696086
31
0
0
LINE
5
142
100
AcDbEntity
8
0
100
AcDbLine
10
-0.10499999999999911
20
2.7499964285696086
30
0
11
-0.10499999999999925
21
3.3938142259116062
31
0
0
ARC
5
143
100
AcDbEntity
8
0
100
AcDbCircle
10
-0.20499999999999846
20
3.3938142259116066
30
0
40
0.099999999999999228
210
0
220
0
230
1
100
AcDbArc
50
0
51
93.456695032322784
0
ARC
5
144
100
AcDbEntity
8
0
100
AcDbCircle
10
0
20
0
30
0
40
3.4999999999999987
210
0
220
0
230
1
100
AcDbArc
50
93.456695032322429
51
97.011389466113556
0
SPLINE
5
145
100
AcDbEntity
8
0
100
AcDbSpline
70
0
71
3
72
18
73
14
74
0
42
0.000000001
43
0.0000000001
44
0.0000000001
40
4.3143866837811453
40
4.3143866837811453
40
4.3143866837811453
40
4.3143866837811453
40
5.4663447419085323
40
5.4663447419085323
40
7.993775475105009
40
7.993775475105009
40
9.4812143493367937
40
9.4812143493367937
40
10.789515891545019
40
10.789515891545019
40
11.882464667845884
40
11.882464667845884
40
13.153372567590543
40
13.153372567590543
40
13.153372567590543
40
13.153372567590543
10
-2.1460534793235269
20
2.7648606590357101
30
0
10
-2.0810252680511883
20
2.7320037940971105
30
0
10
-2.0305687872487681
20
2.7081412184795646
30
0
10
-1.8129474553801697
20
2.6146936090310429
30
0
10
-1.6180999749678728
20
2.5453040412901768
30
0
10
-1.309857602489257
20
2.5166153273951801
30
0
10
-1.2087392658946985
20
2.5250366364773305
30
0
10
-1.0379934678798488
20
2.5761840234423476
30
0
10
-0.96617876176294115
20
2.6146562157681084
30
0
10
-0.83839749799686691
20
2.7184953589870293
30
0
10
-0.75881269496171411
20
2.7964443770836107
30
0
10
-0.56751558672765778
20
3.0985927778717008
30
0
10
-0.48795574527370666
20
3.2902229949649016
30
0
10
-0.42723325041708127
20
3.4738266723799054
30
0
0
ARC
5
146
100
AcDbEntity
8
0
100
AcDbCircle
10
0
20
0
30
0
40
3.4999999999999991
210
0
220
0
230
1
100
AcDbArc
50
127.81820881550203
51
131.37446554873515
0
ARC
5
147
100
AcDbEntity
8
0
100
AcDbCircle
10
-2.2473235169230521
20
2.5513794328332673
30
0
40
0.099999999999999201
210
0
220
0
230
1
100
AcDbArc
50
131.37446554873529
51
225.00000000000037
0
LINE
5
148
100
AcDbEntity
8
0
100
AcDbLine
10
-2.3180341950417058
20
2.4806687547146127
30
0
11
-1.8632238430439041
21
2.0258584027168105
31
0
0
LINE
5
149
100
AcDbEntity
8
0
100
AcDbLine
10
-1.8632238430439041
20
2.0258584027168105
30
0
11
-2.0187873349049443
21
1.8702949108557707
31
0
0
LINE
5
150
100
AcDbEntity
8
0
100
AcDbLine
10
-2.0187873349049443
20
1.8702949108557707
30
0
11
-2.4740352652540567
21
2.3255428412048835
31
0
0
ARC
5
151
100
AcDbEntity
8
0
100
AcDbCircle
10
-2.5447459433727118
20
2.2548321630862285
30
0
40
0.1000000000000001
210
0
220
-0
230
1
100
AcDbArc
50
45
51
138.45669503232219
0
ARC
5
152
100
AcDbEntity
8
0
100
AcDbCircle
10
0
20
0
30
0
40
3.4999999999999991
210
0
220
0
230
1
100
AcDbArc
50
138.45669503232241
51
142.01138946611354
0
SPLINE
5
153
100
AcDbEntity
8
0
100
AcDbSpline
70
0
71
3
72
18
73
14
74
0
42
0.000000001
43
0.0000000001
44
0.0000000001
40
0.11015447718955877
40
0.11015447718955877
40
0.11015447718955877
40
0.11015447718955877
40
2.017621810571006
40
2.017621810571006
40
3.1901451327306276
40
3.1901451327306276
40
4.1945511468387444
40
4.1945511468387444
40
6.086198515573173
40
6.086198515573173
40
11.342918023981349
40
11.342918023981349
40
13.505716120819951
40
13.505716120819951
40
13.505716120819951
40
13.505716120819951
10
-3.4725406890587074
20
0.4375627530214074
30
0
10
-3.2384103215223585
20
0.51451308531747286
30
0
10
-3.0440002366164456
20
0.60471648236218167
30
0
10
-2.8047888167522799
20
0.76542504886619722
30
0
10
-2.7065938056382959
20
0.8461486502822112
30
0
10
-2.5722984461475531
20
1.0400529363040267
30
0
10
-2.5467835677108042
20
1.1221282696684398
30
0
10
-2.5114015746381071
20
1.2885833369364625
30
0
10
-2.5176320104482524
20
1.3937226484537153
30
0
10
-2.5504789208136431
20
1.6652554744909887
30
0
10
-2.6249603250047988
20
1.8615547185588992
30
0
10
-2.7079761777341447
20
2.0509993372354773
30
0
10
-2.7257090347200008
20
2.0891359384076713
30
0
10
-2.7584659252248187
20
2.154266868188242
30
0
0
ARC
5
154
100
AcDbEntity
8
0
100
AcDbCircle
10
0
20
0
30
0
40
3.4999999999999991
210
0
220
0
230
1
100
AcDbArc
50
172.818208815502
51
176.3744655487352
0
ARC
5
155
100
AcDbEntity
8
0
100
AcDbCircle
10
-3.3931953966725814
20
0.21500000000000069
30
0
40
0.099999999999999603
210
0
220
0
230
1
100
AcDbArc
50
176.37446554873452
51
270
0
LINE
5
156
100
AcDbEntity
8
0
100
AcDbLine
10
-3.3931953966725814
20
0.11500000000000048
30
0
11
-2.7499964285696086
21
0.1150000000000005
31
0
0
LINE
5
157
100
AcDbEntity
8
0
100
AcDbLine
10
-2.7499964285696086
20
0.1150000000000005
30
0
11
-2.7499964285696086
21
-0.10499999999999894
31
0
0
LINE
5
158
100
AcDbEntity
8
0
100
AcDbLine
10
-2.7499964285696086
20
-0.10499999999999894
30
0
11
-3.3938142259116062
21
-0.10499999999999907
31
0
0
ARC
5
159
100
AcDbEntity
8
0
100
AcDbCircle
10
-3.3938142259116066
20
-0.20499999999999843
30
0
40
0.099999999999999353
210
0
220
-0
230
1
100
AcDbArc
50
89.999999999999744
51
183.45669503232278
0
ARC
5
160
100
AcDbEntity
8
0
100
AcDbCircle
10
0
20
0
30
0
40
3.4999999999999987
210
0
220
0
230
1
100
AcDbArc
50
183.45669503232233
51
187.01138946611351
0
SPLINE
5
161
100
AcDbEntity
8
0
100
AcDbSpline
70
0
71
3
72
18
73
14
74
0
42
0.000000001
43
0.0000000001
44
0.0000000001
40
4.4931186205465661
40
4.4931186205465661
40
4.4931186205465661
40
4.4931186205465661
40
5.4101499638579504
40
5.4101499638579504
40
8.6839661323331772
40
8.6839661323331772
40
11.002366364447504
40
11.002366364447504
40
13.740550620626074
40
13.740550620626074
40
17.160859330423598
40
17.160859330423598
40
23.707894408873035
40
23.707894408873035
40
23.707894408873035
40
23.707894408873035
10
-2.7648606590357101
20
-2.1460534793235269
30
0
10
-2.7454871430169008
20
-2.1077106521818192
30
0
10
-2.7304273958303247
20
-2.076785719664989
30
0
10
-2.6409129722016655
20
-1.8823459560661826
30
0
10
-2.5586885244684239
20
-1.6736421390680218
30
0
10
-2.5126767298385739
20
-1.3165689493708903
30
0
10
-2.5271711873022236
20
-1.2130724578361558
30
0
10
-2.5672238076852576
20
-1.0580304781196734
30
0
10
-2.6036307909678693
20
-0.98486577001430609
30
0
10
-2.72126530240797
20
-0.83002324435979147
30
0
10
-2.8060632926907458
20
-0.75775355259467292
30
0
10
-3.0666070766855249
20
-0.58079636226656595
30
0
10
-3.2755078261488064
20
-0.49282243299657907
30
0
10
-3.4738266723799054
20
-0.4272332504170811
30
0
0
ARC
5
162
100
AcDbEntity
8
0
100
AcDbCircle
10
0
20
0
30
0
40
3.4999999999999991
210
0
220
0
230
1
100
AcDbArc
50
217.81820881550203
51
221.37446554873509
0
ARC
5
163
100
AcDbEntity
8
0
100
AcDbCircle
10
-2.5513794328332673
20
-2.2473235169230517
30
0
40
0.099999999999999381
210
0
220
0
230
1
100
AcDbArc
50
221.37446554873401
51
315.00000000000017
0
LINE
5
164
100
AcDbEntity
8
0
100
AcDbLine
10
-2.4806687547146127
20
-2.3180341950417058
30
0
11
-2.0258584027168105
21
-1.8632238430439041
31
0
0
LINE
5
165
100
AcDbEntity
8
0
100
AcDbLine
10
-2.0258584027168105
20
-1.8632238430439041
30
0
11
-1.8702949108557707
21
-2.0187873349049443
31
0
0
LINE
5
166
100
AcDbEntity
8
0
100
AcDbLine
10
-1.8702949108557707
20
-2.0187873349049443
30
0
11
-2.325542841204884
21
-2.4740352652540567
31
0
0
ARC
5
167
100
AcDbEntity
8
0
100
AcDbCircle
10
-2.2548321630862285
20
-2.5447459433727109
30
0
40
0.1000000000000001
210
0
220
0
230
1
100
AcDbArc
50
135.00000000000057
51
228.45669503232182
0
ARC
5
168
100
AcDbEntity
8
0
100
AcDbCircle
10
0
20
0
30
0
40
3.4999999999999987
210
0
220
0
230
1
100
AcDbArc
50
228.45669503232236
51
232.01138946611354
0
ENDSEC
0
SECTION
2
OBJECTS
0
DICTIONARY
5
C
100
AcDbDictionary
3
ACAD_GROUP
350
D
3
ACAD_MLINESTYLE
350
17
0
DICTIONARY
5
D
100
AcDbDictionary
0
DICTIONARY
5
1A
330
C
100
AcDbDictionary
0
DICTIONARY
5
17
100
AcDbDictionary
0
ENDSEC
0
EOF
