0
SECTION
2
HEADER
9
$INSUNITS
70
1
9
$ACADVER
1
AC1014
9
$HANDSEED
5
FFFF
0
ENDSEC
0
SECTION
2
TABLES
0
TABLE
2
VPORT
5
8
100
AcDbSymbolTable
0
ENDTAB
0
TABLE
2
LTYPE
5
5
100
AcDbSymbolTable
0
LTYPE
5
14
100
AcDbSymbolTableRecord
100
AcDbLinetypeTableRecord
2
BYBLOCK
70
0
0
LTYPE
5
15
100
AcDbSymbolTableRecord
100
AcDbLinetypeTableRecord
2
BYLAYER
70
0
0
ENDTAB
0
TABLE
2
LAYER
5
2
100
AcDbSymbolTable
70
2
0
LAYER
5
50
100
AcDbSymbolTableRecord
100
AcDbLayerTableRecord
2
0
70
0
6
CONTINUOUS
0
ENDTAB
0
TABLE
2
STYLE
5
3
100
AcDbSymbolTable
70
1
0
STYLE
5
11
100
AcDbSymbolTableRecord
100
AcDbTextStyleTableRecord
2
STANDARD
70
0
0
ENDTAB
0
TABLE
2
VIEW
5
6
100
AcDbSymbolTable
70
0
0
ENDTAB
0
TABLE
2
UCS
5
7
100
AcDbSymbolTable
70
0
0
ENDTAB
0
TABLE
2
APPID
5
9
100
AcDbSymbolTable
70
2
0
APPID
5
12
100
AcDbSymbolTableRecord
100
AcDbRegAppTableRecord
2
ACAD
70
0
0
ENDTAB
0
TABLE
2
DIMSTYLE
5
A
100
AcDbSymbolTable
70
1
0
ENDTAB
0
TABLE
2
BLOCK_RECORD
5
1
100
AcDbSymbolTable
70
1
0
BLOCK_RECORD
5
1F
100
AcDbSymbolTableRecord
100
AcDbBlockTableRecord
2
*MODEL_SPACE
0
BLOCK_RECORD
5
1B
100
AcDbSymbolTableRecord
100
AcDbBlockTableRecord
2
*PAPER_SPACE
0
ENDTAB
0
ENDSEC
0
SECTION
2
BLOCKS
0
BLOCK
5
20
100
AcDbEntity
100
AcDbBlockBegin
2
*MODEL_SPACE
0
ENDBLK
5
21
100
AcDbEntity
100
AcDbBlockEnd
0
BLOCK
5
1C
100
AcDbEntity
100
AcDbBlockBegin
2
*PAPER_SPACE
0
ENDBLK
5
1D
100
AcDbEntity
100
AcDbBlockEnd
0
ENDSEC
0
SECTION
2
ENTITIES
0
ARC
5
100
100
AcDbEntity
8
0
100
AcDbCircle
10
3.4146292895189401
20
-1.4608826894781655
30
-1.385628570964332e-47
40
0.010000000000000358
210
1.2109222659616025e-32
220
1.9880208309172102e-32
230
1
100
AcDbArc
50
-93.344433365122583
51
30.17279473331574
0
ARC
5
101
100
AcDbEntity
8
0
100
AcDbCircle
10
3.5000000025015776
20
-1.4112499999999999
30
0
40
0.088749999999999801
210
-1.2777192046453236e-37
220
-9.0204216279062564e-39
230
1
100
AcDbArc
50
94.03825821487915
51
210.17279473331791
0
LINE
5
102
100
AcDbEntity
8
0
100
AcDbLine
10
3.4937500000000008
20
-1.3227203441284772
30
0
11
3.4937499999999995
21
-0.9623836575406729
31
0
0
ARC
5
103
100
AcDbEntity
8
0
100
AcDbCircle
10
3.4999999999999991
20
-0.9623836575406729
30
0
40
0.0062499999999997705
210
-1.3362234223235814e-77
220
4.7766408998201163e-64
230
1
100
AcDbArc
50
0
51
180
0
LINE
5
104
100
AcDbEntity
8
0
100
AcDbLine
10
3.5062499999999992
20
-0.96238365754067279
30
0
11
3.5062499999999961
21
-1.3227203437752653
31
0
0
ARC
5
105
100
AcDbEntity
8
0
100
AcDbCircle
10
3.5000000025015776
20
-1.4112499999999999
30
0
40
0.088749999999999982
210
-4.0265491584552924e-39
220
-6.9258663783039365e-39
230
1
100
AcDbArc
50
-30.172794530192778
51
85.961745023130234
0
ARC
5
106
100
AcDbEntity
8
0
100
AcDbCircle
10
3.5853707156601731
20
-1.46088268917551
30
0
40
0.010000000000000044
210
3.5735631101191759e-38
220
6.1467076698037727e-38
230
1
100
AcDbArc
50
149.82720546980431
51
273.34443356824806
0
ARC
5
107
100
AcDbEntity
8
0
100
AcDbCircle
10
3.4999999999999991
20
3.0885180677170693e-17
30
0
40
1.4733750000000001
210
4.5470917374576162e-37
220
2.6572186711193561e-38
230
1
100
AcDbArc
50
273.34443356824636
51
277.93579683796247
0
ARC
5
108
100
AcDbEntity
8
0
100
AcDbCircle
10
3.6370109215945514
20
-0.95258086883223481
30
0
40
0.0062499999999996447
210
0
220
-0
230
1
100
AcDbArc
50
8.184792306924745
51
98.639782963852426
0
ARC
5
109
100
AcDbEntity
8
0
100
AcDbCircle
10
3.6369120271959181
20
-0.95259508770015622
30
0
40
0.0062499999999975613
210
-1.082587786791454e-34
220
-1.4683057984895988e-35
230
1
100
AcDbArc
50
97.723853402603396
51
188.17884405670199
0
ARC
5
110
100
AcDbEntity
8
0
100
AcDbCircle
10
3.8296656184930127
20
-1.4257583843725485
30
6.7345252537756101e-48
40
0.009999999999999681
210
3.0665864168092547e-33
220
-1.3262563791631412e-32
230
1
100
AcDbArc
50
-76.980797001492334
51
46.536431096960698
0
ARC
5
111
100
AcDbEntity
8
0
100
AcDbCircle
10
3.8975950732427127
20
-1.3540844583086833
30
0
40
0.088749999999999774
210
0
220
0
230
1
100
AcDbArc
50
110.40189457851496
51
226.53643109695386
0
LINE
5
112
100
AcDbEntity
8
0
100
AcDbLine
10
3.8666565534524016
20
-1.2709017047284821
30
0
11
3.765137977416249
21
-0.9251611858119555
31
0
0
ARC
5
113
100
AcDbEntity
8
0
100
AcDbCircle
10
3.7711348085013392
20
-0.92340035733169634
30
0
40
0.0062499999999998329
210
-3.0023995344101336e-60
220
1.0225233780388449e-59
230
1
100
AcDbArc
50
16.363636363635468
51
196.36363636363939
0
LINE
5
114
100
AcDbEntity
8
0
100
AcDbLine
10
3.7771316395864294
20
-0.92163952885143763
30
0
11
3.8786502155230669
21
-1.2673800474290615
31
0
0
ARC
5
115
100
AcDbEntity
8
0
100
AcDbCircle
10
3.8975950732427127
20
-1.3540844583086833
30
0
40
0.088749999999999593
210
-4.7805090065024271e-40
220
-1.9449325495566849e-39
230
1
100
AcDbArc
50
-13.809158166556728
51
102.32538138676613
0
ARC
5
116
100
AcDbEntity
8
0
100
AcDbCircle
10
3.9934908170951764
20
-1.3776549655366306
30
-5.6064922737681952e-48
40
0.010000000000000519
210
-5.1507419328804758e-33
220
-2.0955604572650756e-32
230
1
100
AcDbArc
50
166.19084183344145
51
289.70806993188268
0
ARC
5
117
100
AcDbEntity
8
0
100
AcDbCircle
10
3.8998340603527555
20
-0.87539421318808897
30
0
40
0.0062499999999998182
210
-7.7930876117719731e-39
220
1.706213770831555e-38
230
1
100
AcDbArc
50
24.548428670564324
51
115.00341932732526
0
ARC
5
118
100
AcDbEntity
8
0
100
AcDbCircle
10
3.899743177790151
20
-0.87543571786373642
30
0
40
0.0062499999999976012
210
-1.0066616299292498e-34
220
-4.5003775361026847e-35
230
1
100
AcDbArc
50
114.08748976606873
51
204.54248042033993
0
ARC
5
119
100
AcDbEntity
8
0
100
AcDbCircle
10
4.2179943996537075
20
-1.2751276142766697
30
3.2494084349467319e-48
40
0.0099999999999998094
210
7.1885500523051551e-33
220
3.1463290751372038e-32
230
1
100
AcDbArc
50
-60.617160637845956
51
62.900067460585177
0
ARC
5
120
100
AcDbEntity
8
0
100
AcDbCircle
10
4.2629793557386737
20
-1.1872190468555492
30
0
40
0.088749999999999718
210
-1.6077643782811514e-32
220
1.8760353924533081e-32
230
1
100
AcDbArc
50
126.76553094215186
51
242.90006746059058
0
LINE
5
121
100
AcDbEntity
8
0
100
AcDbLine
10
4.2098587735345756
20
-1.1161221675548538
30
-2.1878564168238954e-33
11
4.0150460527385032
21
-0.81298765695418218
31
0
0
ARC
5
122
100
AcDbEntity
8
0
100
AcDbCircle
10
4.0203038873186969
20
-0.80960865184508457
30
0
40
0.0062499999999998442
210
0
220
-0
230
1
100
AcDbArc
50
32.727272727266524
51
212.7272727272796
0
LINE
5
123
100
AcDbEntity
8
0
100
AcDbLine
10
4.0255617218988924
20
-0.80622964673598752
30
0
11
4.2203744425040002
21
-1.1093641570395207
31
0
0
ARC
5
124
100
AcDbEntity
8
0
100
AcDbCircle
10
4.2629793557386737
20
-1.1872190468555492
30
0
40
0.088749999999999815
210
-2.2316085414116682e-41
220
5.0020791452750568e-40
230
1
100
AcDbArc
50
2.5544781970801984
51
118.68901775040324
0
ARC
5
125
100
AcDbEntity
8
0
100
AcDbCircle
10
4.361631227432027
20
-1.1828178298195273
30
0
40
0.010000000000000125
210
1.9805533569029765e-40
220
-4.4393469817061594e-39
230
1
100
AcDbArc
50
182.55447819708118
51
306.07170629551598
0
ARC
5
126
100
AcDbEntity
8
0
100
AcDbCircle
10
4.1302650214458945
20
-0.72728832456129033
30
0
40
0.0062499999999997072
210
0
220
-0
230
1
100
AcDbArc
50
40.91206503420117
51
131.36705569124217
0
ARC
5
127
100
AcDbEntity
8
0
100
AcDbCircle
10
4.1301895134840443
20
-0.72735375258268053
30
0
40
0.0062499999999975353
210
1.6327215965111294e-35
220
1.3920690749078349e-35
230
1
100
AcDbArc
50
130.45112613000191
51
220.90611678397585
0
ARC
5
128
100
AcDbEntity
8
0
100
AcDbCircle
10
4.5481555446315696
20
-1.0211935883480154
30
1.3132324244862441e-48
40
0.0099999999999996758
210
1.4725360888704783e-33
220
-1.7995327208681427e-32
230
1
100
AcDbArc
50
-44.253524274212602
51
79.263703824231612
0
ARC
5
129
100
AcDbEntity
8
0
100
AcDbCircle
10
4.5665515884456314
20
-0.92417220888971729
30
0
40
0.088749999999999843
210
-3.8566356937274148e-47
220
2.9109950362131683e-47
230
1
100
AcDbArc
50
143.12916730578792
51
259.26370382422618
0
LINE
5
130
100
AcDbEntity
8
0
100
AcDbLine
10
4.4955524574776566
20
-0.87092105020004751
30
-4.2883164133294599e-48
11
4.223228159964699
21
-0.6349507031537468
31
0
0
ARC
5
131
100
AcDbEntity
8
0
100
AcDbCircle
10
4.2273210395518568
20
-0.63022726831403286
30
0
40
0.0062499999999998087
210
0
220
-0
230
1
100
AcDbArc
50
49.090909090903743
51
229.09090909090989
0
LINE
5
132
100
AcDbEntity
8
0
100
AcDbLine
10
4.2314139191390154
20
-0.62550383347431893
30
0
11
4.5037382163850292
21
-0.86147418028931821
31
0
0
ARC
5
133
100
AcDbEntity
8
0
100
AcDbCircle
10
4.5665515884456314
20
-0.92417220888971729
30
0
40
0.088749999999999815
210
9.5571646667185212e-55
220
-2.78854220747579e-54
230
1
100
AcDbArc
50
18.918114560716521
51
135.05265411403929
0
ARC
5
134
100
AcDbEntity
8
0
100
AcDbCircle
10
4.65996740004055
20
-0.89215582801894111
30
-1.0404841517083319e-47
40
0.010000000000000073
210
9.8809809624000333e-46
220
3.2620252825251933e-46
230
1
100
AcDbArc
50
198.91811456071767
51
322.4353426591536
0
ARC
5
135
100
AcDbEntity
8
0
100
AcDbCircle
10
4.3096356588318985
20
-0.52026186122874696
30
0
40
0.0062499999999998451
210
2.9252113716264544e-37
220
-1.8797046499727492e-37
230
1
100
AcDbArc
50
57.275701397830588
51
147.73069205459927
0
ARC
5
136
100
AcDbEntity
8
0
100
AcDbCircle
10
4.3095816426768057
20
-0.5203459120067031
30
0
40
0.0062499999999976272
210
-2.0631310183425145e-32
220
1.349316033566339e-32
230
1
100
AcDbArc
50
146.81476249334955
51
237.26975314760671
0
ARC
5
137
100
AcDbEntity
8
0
100
AcDbCircle
10
4.7934013610044293
20
-0.68452853116352164
30
1.2522007893739025e-48
40
0.0099999999999998042
210
2.2760341414807869e-33
220
-1.1916632354517673e-33
230
1
100
AcDbArc
50
-27.88988791057869
51
95.627340187863624
0
ARC
5
138
100
AcDbEntity
8
0
100
AcDbCircle
10
4.7837181544832568
20
-0.58625443482339612
30
0
40
0.088749999999999538
210
-4.8098384417632692e-53
220
-1.285957322808454e-52
230
1
100
AcDbArc
50
159.4928036694248
51
275.62734018786324
0
LINE
5
139
100
AcDbEntity
8
0
100
AcDbLine
10
4.7005924020943404
20
-0.55516308892495536
30
0
11
4.37281862287404
21
-0.40547381958102657
31
0
0
ARC
5
140
100
AcDbEntity
8
0
100
AcDbCircle
10
4.3754149667053017
20
-0.39978861961006135
30
0
40
0.0062499999999998095
210
0
220
-0
230
1
100
AcDbArc
50
65.454545454544444
51
245.45454545454399
0
LINE
5
141
100
AcDbEntity
8
0
100
AcDbLine
10
4.3780113105365634
20
-0.39410341963909601
30
0
11
4.7057850894355688
21
-0.54379268883629817
31
0
0
ARC
5
142
100
AcDbEntity
8
0
100
AcDbCircle
10
4.7837181544832568
20
-0.58625443482339612
30
0
40
0.08874999999999976
210
-1.4158865338297573e-32
220
2.0010794033395214e-32
230
1
100
AcDbArc
50
35.281750924352743
51
151.41629047767572
0
ARC
5
143
100
AcDbEntity
8
0
100
AcDbCircle
10
4.8643299124895449
20
-0.52921666688726743
30
2.7106464146446834e-48
40
0.010000000000000375
210
6.7169683002766377e-33
220
-9.4931243411239911e-33
230
1
100
AcDbArc
50
215.28175092435077
51
338.79897902279055
0
ARC
5
144
100
AcDbEntity
8
0
100
AcDbCircle
10
4.4234144302280072
20
-0.27108687601587694
30
0
40
0.0062499999999998234
210
1.839533056135916e-51
220
-5.4003192195384293e-52
230
1
100
AcDbArc
50
73.639337761470017
51
164.09432841874406
0
ARC
5
145
100
AcDbEntity
8
0
100
AcDbCircle
10
4.4233862819473124
20
-0.27118274025623806
30
0
40
0.0062499999999979126
210
-2.5341724502804454e-50
220
-8.3821617134457976e-50
230
1
100
AcDbArc
50
163.1783988574926
51
253.63338951124928
0
ARC
5
146
100
AcDbEntity
8
0
100
AcDbCircle
10
4.9338634912627839
20
-0.29240704343208873
30
0
40
0.0099999999999999065
210
-5.3521594645673112e-33
220
-2.624514774194092e-32
230
1
100
AcDbArc
50
-11.526251546939942
51
111.99097655150064
0
ARC
5
147
100
AcDbEntity
8
0
100
AcDbCircle
10
4.8968855102104767
20
-0.2008418130370575
30
0
40
0.088749999999999912
210
-1.6948479344783719e-54
220
-2.3394927112722213e-53
230
1
100
AcDbArc
50
175.85644003306092
51
291.99097655149922
0
LINE
5
148
100
AcDbEntity
8
0
100
AcDbLine
10
4.8083674904912836
20
-0.19442911586718231
30
0
11
4.4516985118103456
21
-0.14314785859150875
31
0
0
ARC
5
149
100
AcDbEntity
8
0
100
AcDbCircle
10
4.4525879795495538
20
-0.13696147457975305
30
0
40
0.0062499999999997505
210
0
220
-0
230
1
100
AcDbArc
50
81.818181818180307
51
261.81818181818034
0
LINE
5
150
100
AcDbEntity
8
0
100
AcDbLine
10
4.4534774472887619
20
-0.13077509056799741
30
0
11
4.8101464256200837
21
-0.1820563477934079
31
0
0
ARC
5
151
100
AcDbEntity
8
0
100
AcDbCircle
10
4.8968855102104767
20
-0.2008418130370575
30
0
40
0.088749999999999829
210
1.5297166101530911e-32
220
1.9331659137042547e-32
230
1
100
AcDbArc
50
51.645387287988143
51
167.77992684131178
0
ARC
5
152
100
AcDbEntity
8
0
100
AcDbCircle
10
4.958162529411049
20
-0.1234035187770948
30
7.4079777791531712e-48
40
0.0099999999999996012
210
-1.2518596989283845e-31
220
-1.7993757698993222e-31
230
1
100
AcDbArc
50
231.64538728799039
51
355.16261538643107
0
ARC
5
153
100
AcDbEntity
8
0
100
AcDbCircle
10
4.4623836562441159
20
4.9955676069660831e-05
30
0
40
0.0062499999999998251
210
1.5403595391532985e-33
220
7.9957407393930219e-38
230
1
100
AcDbArc
50
90.002974125109816
51
180.45796478229832
0
ARC
5
154
100
AcDbEntity
8
0
100
AcDbCircle
10
4.4623836562441168
20
-4.9955676067511698e-05
30
0
40
0.0062499999999975249
210
-1.9258260925641187e-33
220
2.0689594410007885e-35
230
1
100
AcDbArc
50
179.54203522105615
51
269.99702587487394
0
ARC
5
155
100
AcDbEntity
8
0
100
AcDbCircle
10
4.9581625289735589
20
0.12340352394656562
30
0
40
0.0099999999999995613
210
-1.8943582657740888e-33
220
2.2384143914737443e-32
230
1
100
AcDbArc
50
4.8373848166921398
51
128.35461291513383
0
ARC
5
156
100
AcDbEntity
8
0
100
AcDbCircle
10
4.8968855094984542
20
0.20084181798929002
30
0
40
0.088749999999999843
210
5.2062445597617374e-33
220
-2.403905136468895e-32
230
1
100
AcDbArc
50
192.22007639669758
51
308.35461291513559
0
LINE
5
157
100
AcDbEntity
8
0
100
AcDbLine
10
4.8101464259697
20
0.182056347843674
30
0
11
4.4534774472887619
21
0.13077509056799816
31
2.4263684338736828e-33
0
ARC
5
158
100
AcDbEntity
8
0
100
AcDbCircle
10
4.4525879795495538
20
0.13696147457975383
30
0
40
0.0062499999999997644
210
0
220
0
230
1
100
AcDbArc
50
98.181818181819835
51
278.18181818181966
0
LINE
5
159
100
AcDbEntity
8
0
100
AcDbLine
10
4.4516985118103456
20
0.14314785859150936
30
0
11
4.8083674901416682
21
0.19442911581691349
31
-2.4263684338736828e-33
0
ARC
5
160
100
AcDbEntity
8
0
100
AcDbCircle
10
4.8968855094984542
20
0.20084181798929002
30
0
40
0.088749999999999829
210
-1.7649825510467888e-50
220
7.1277591267241628e-51
230
1
100
AcDbArc
50
68.009023651625128
51
184.1435632049488
0
ARC
5
161
100
AcDbEntity
8
0
100
AcDbCircle
10
4.9338634902261447
20
0.29240704851541571
30
1.3165996871131318e-47
40
0.010000000000000247
210
1.5785367869066976e-32
220
-6.3748108915140438e-33
230
1
100
AcDbArc
50
-111.99097634837109
51
11.526251750062272
0
ARC
5
162
100
AcDbEntity
8
0
100
AcDbCircle
10
4.4233862819473106
20
0.27118274025623984
30
0
40
0.0062499999999998234
210
1.551907815835541e-36
220
4.5576875285149329e-37
230
1
100
AcDbArc
50
106.36661048874457
51
196.82160114550271
0
ARC
5
163
100
AcDbEntity
8
0
100
AcDbCircle
10
4.4234144302280063
20
0.27108687601587905
30
0
40
0.0062499999999974069
210
4.4845862698115439e-35
220
-1.5737349779118576e-34
230
1
100
AcDbArc
50
195.90567158425412
51
286.36066223852691
0
ARC
5
164
100
AcDbEntity
8
0
100
AcDbCircle
10
4.8643299106133684
20
0.52921667172408304
30
4.1080604048031221e-48
40
0.010000000000000389
210
6.7540557813762471e-33
220
3.9419893435076692e-32
230
1
100
AcDbArc
50
21.201021180332294
51
144.71824927877179
0
ARC
5
165
100
AcDbEntity
8
0
100
AcDbCircle
10
4.7837181524048704
20
0.58625443937442734
30
0
40
0.088749999999999871
210
0
220
0
230
1
100
AcDbArc
50
208.58371276033316
51
324.71824927877213
0
LINE
5
166
100
AcDbEntity
8
0
100
AcDbLine
10
4.705785089756862
20
0.54379268898302668
30
0
11
4.3780113105365626
21
0.39410341963909595
31
0
0
ARC
5
167
100
AcDbEntity
8
0
100
AcDbCircle
10
4.3754149667053008
20
0.39978861961006179
30
0
40
0.0062499999999997575
210
0
220
0
230
1
100
AcDbArc
50
114.5454545454547
51
294.54545454545365
0
LINE
5
168
100
AcDbEntity
8
0
100
AcDbLine
10
4.3728186228740391
20
0.40547381958102735
30
0
11
4.700592401773048
21
0.55516308877822462
31
0
0
ARC
5
169
100
AcDbEntity
8
0
100
AcDbCircle
10
4.7837181524048704
20
0.58625443937442734
30
0
40
0.088749999999999815
210
-2.4172950570041496e-33
220
-2.4533100503936865e-32
230
1
100
AcDbArc
50
84.372660015261218
51
200.50719956858424
0
ARC
5
170
100
AcDbEntity
8
0
100
AcDbCircle
10
4.7934013585776425
20
0.68452853574888162
30
5.0508939403317079e-50
40
0.0099999999999999065
210
1.0715817916835281e-32
220
2.1878927850947581e-31
230
1
100
AcDbArc
50
-95.627339984738853
51
27.889888113701524
0
ARC
5
171
100
AcDbEntity
8
0
100
AcDbCircle
10
4.3095816426768048
20
0.52034591200670499
30
0
40
0.0062499999999998026
210
0
220
0
230
1
100
AcDbArc
50
122.73024685237543
51
213.18523750934082
0
ARC
5
172
100
AcDbEntity
8
0
100
AcDbCircle
10
4.3096356588318985
20
0.52026186122874918
30
0
40
0.0062499999999976177
210
0
220
0
230
1
100
AcDbArc
50
212.26930794808931
51
302.72429860215436
0
ARC
5
173
100
AcDbEntity
8
0
100
AcDbCircle
10
4.6599673968776845
20
0.89215583213125249
30
-5.522310708096001e-48
40
0.01000000000000026
210
-2.3421260701362658e-32
220
-3.2601101868160261e-33
230
1
100
AcDbArc
50
37.564657543967513
51
161.08188564240839
0
ARC
5
174
100
AcDbEntity
8
0
100
AcDbCircle
10
4.5665515851692611
20
0.92417221267085048
30
0
40
0.088749999999999885
210
0
220
0
230
1
100
AcDbArc
50
224.94734912397004
51
341.08188564240874
0
LINE
5
175
100
AcDbEntity
8
0
100
AcDbLine
10
4.5037382166519713
20
0.86147418052062186
30
0
11
4.2314139191390154
21
0.62550383347431915
31
0
0
ARC
5
176
100
AcDbEntity
8
0
100
AcDbCircle
10
4.2273210395518568
20
0.63022726831403297
30
0
40
0.0062499999999998087
210
0
220
0
230
1
100
AcDbArc
50
130.90909090909014
51
310.90909090909696
0
LINE
5
177
100
AcDbEntity
8
0
100
AcDbLine
10
4.223228159964699
20
0.63495070315374691
30
0
11
4.4955524572107182
21
0.87092104996874198
31
0
0
ARC
5
178
100
AcDbEntity
8
0
100
AcDbCircle
10
4.5665515851692611
20
0.92417221267085048
30
0
40
0.08874999999999976
210
-1.5766023667411425e-38
220
-2.9893665654748234e-39
230
1
100
AcDbArc
50
100.73629637889823
51
216.87083593222096
0
ARC
5
179
100
AcDbEntity
8
0
100
AcDbCircle
10
4.5481555410112389
20
1.0211935920639312
30
1.4496065608752001e-47
40
0.010000000000000363
210
1.3992346329773703e-37
220
2.6530627409273338e-38
230
1
100
AcDbArc
50
-79.263703621100305
51
44.253524477337216
0
ARC
5
180
100
AcDbEntity
8
0
100
AcDbCircle
10
4.1301895134840425
20
0.72735375258268187
30
0
40
0.0062499999999999899
210
-1.613856880916511e-32
220
-1.8626854832547614e-32
230
1
100
AcDbArc
50
139.09388321601946
51
229.54887387307892
0
ARC
5
181
100
AcDbEntity
8
0
100
AcDbCircle
10
4.1302650214458936
20
0.72728832456129222
30
0
40
0.0062499999999975778
210
-1.3898240647759776e-34
220
1.2238751995335645e-34
230
1
100
AcDbArc
50
228.63294431183652
51
319.08793496578824
0
ARC
5
182
100
AcDbEntity
8
0
100
AcDbCircle
10
4.3616312232387067
20
1.1828178328741785
30
-5.1140301145858541e-49
40
0.010000000000000075
210
2.4184246183817144e-32
220
-1.6564589322990743e-32
230
1
100
AcDbArc
50
53.928293907609358
51
177.44552200604397
0
ARC
5
183
100
AcDbEntity
8
0
100
AcDbCircle
10
4.2629793515297498
20
1.1872190495604595
30
0
40
0.088749999999999829
210
2.2412566272694399e-37
220
-1.2264936929806534e-37
230
1
100
AcDbArc
50
241.31098548760633
51
357.445522006045
0
LINE
5
184
100
AcDbEntity
8
0
100
AcDbLine
10
4.2203744426949621
20
1.1093641573366604
30
0
11
4.0255617218988915
21
0.80622964673598752
31
0
0
ARC
5
185
100
AcDbEntity
8
0
100
AcDbCircle
10
4.020303887318696
20
0.8096086518450849
30
0
40
0.0062499999999998442
210
0
220
0
230
1
100
AcDbArc
50
147.27272727272907
51
327.27272727273095
0
LINE
5
186
100
AcDbEntity
8
0
100
AcDbLine
10
4.0150460527385015
20
0.81298765695418196
30
0
11
4.2098587733436155
21
1.1161221672577122
31
0
0
ARC
5
187
100
AcDbEntity
8
0
100
AcDbCircle
10
4.2629793515297498
20
1.1872190495604595
30
0
40
0.088749999999999885
210
1.1230016082126383e-32
220
-2.1945456808275233e-32
230
1
100
AcDbArc
50
117.09993274253416
51
233.2344722958573
0
ARC
5
188
100
AcDbEntity
8
0
100
AcDbCircle
10
4.2179943951331316
20
1.2751276168220997
30
-7.1722693952710249e-48
40
0.010000000000000087
210
-8.045616902665096e-32
220
2.0459626883808064e-31
230
1
100
AcDbArc
50
-62.900067257466198
51
60.617160840972304
0
ARC
5
189
100
AcDbEntity
8
0
100
AcDbCircle
10
3.8997431777901488
20
0.8754357178637372
30
0
40
0.0062499999999996361
210
9.3391487068396433e-38
220
2.0452692645324305e-37
230
1
100
AcDbArc
50
155.45751957965325
51
245.91251023658799
0
ARC
5
190
100
AcDbEntity
8
0
100
AcDbCircle
10
3.8998340603527528
20
0.87539421318808996
30
0
40
0.0062499999999975535
210
3.7047235421588021e-39
220
-1.7278101337171519e-39
230
1
100
AcDbArc
50
244.99658067533309
51
335.45157132942813
0
ARC
5
191
100
AcDbEntity
8
0
100
AcDbCircle
10
3.9934908122111219
20
1.3776549672861513
30
-3.2409902783795125e-48
40
0.010000000000000196
210
7.4799435195495582e-33
220
9.3547117081834689e-34
230
1
100
AcDbArc
50
70.291930271243686
51
193.80915836968029
0
ARC
5
192
100
AcDbEntity
8
0
100
AcDbCircle
10
3.8975950684422203
20
1.3540844597182355
30
0
40
0.088749999999999787
210
5.728899631146701e-54
220
-1.2517605262442755e-54
230
1
100
AcDbArc
50
-102.32537814875785
51
13.809158369681361
0
LINE
5
193
100
AcDbEntity
8
0
100
AcDbLine
10
3.8786502156225793
20
1.2673800477679658
30
0
11
3.7771316395864294
21
0.92163952885143763
31
0
0
ARC
5
194
100
AcDbEntity
8
0
100
AcDbCircle
10
3.7711348085013396
20
0.92340035733169656
30
0
40
0.0062499999999997826
210
0
220
0
230
1
100
AcDbArc
50
163.63636363636667
51
343.63636363636141
0
LINE
5
195
100
AcDbEntity
8
0
100
AcDbLine
10
3.765137977416249
20
0.92516118581195517
30
0
11
3.8666565533528914
21
1.2709017043895778
31
0
0
ARC
5
196
100
AcDbEntity
8
0
100
AcDbCircle
10
3.8975950684422203
20
1.3540844597182355
30
0
40
0.088749999999999815
210
3.4749973386952831e-32
220
-1.0300635173174568e-33
230
1
100
AcDbArc
50
133.46356910617098
51
249.59810865949331
0
ARC
5
197
100
AcDbEntity
8
0
100
AcDbCircle
10
3.8296656134384222
20
1.4257583855412768
30
-4.6804950513740496e-48
40
0.009999999999999263
210
-1.6827384987969741e-31
220
1.4195303362534723e-31
230
1
100
AcDbArc
50
-46.536430893833504
51
76.980797204615513
0
ARC
5
198
100
AcDbEntity
8
0
100
AcDbCircle
10
3.6369120271959163
20
0.95259508770015699
30
0
40
0.0062500000000004436
210
0
220
0
230
1
100
AcDbArc
50
171.82115594329684
51
262.27614660035408
0
ARC
5
199
100
AcDbEntity
8
0
100
AcDbCircle
10
3.6370109215945492
20
0.95258086883223569
30
0
40
0.0062499999999975917
210
-2.7191502474190538e-34
220
4.1316422239232081e-35
230
1
100
AcDbArc
50
261.36021703910927
51
351.81520769306491
0
ARC
5
200
100
AcDbEntity
8
0
100
AcDbCircle
10
3.4999999999999991
20
3.0885180677170693e-17
30
0
40
1.4733749999999999
210
3.1840067474866855e-36
220
-4.4384520629594156e-37
230
1
100
AcDbArc
50
82.064203162037558
51
86.655566634878312
0
ARC
5
201
100
AcDbEntity
8
0
100
AcDbCircle
10
3.5853707104810586
20
1.4608826894781657
30
0
40
0.010000000000000226
210
-1.1674817541316684e-32
220
6.8225017341795718e-34
230
1
100
AcDbArc
50
86.655566634874802
51
210.1727947333157
0
ARC
5
202
100
AcDbEntity
8
0
100
AcDbCircle
10
3.4999999974984215
20
1.4112499999999999
30
0
40
0.088749999999999579
210
2.2880096634551428e-37
220
1.6152854068446166e-38
230
1
100
AcDbArc
50
-85.96174178512139
51
30.172794733318185
0
LINE
5
203
100
AcDbEntity
8
0
100
AcDbLine
10
3.5062499999999974
20
1.3227203441284774
30
0
11
3.5062499999999992
21
0.96238365754067312
31
0
0
ARC
5
204
100
AcDbEntity
8
0
100
AcDbCircle
10
3.4999999999999991
20
0.96238365754067279
30
0
40
0.0062499999999997705
210
0
220
0
230
1
100
AcDbArc
50
-180
51
0
0
LINE
5
205
100
AcDbEntity
8
0
100
AcDbLine
10
3.4937499999999995
20
0.9623836575406729
30
0
11
3.4937500000000021
21
1.3227203437752653
31
0
0
ARC
5
206
100
AcDbEntity
8
0
100
AcDbCircle
10
3.4999999974984215
20
1.4112499999999999
30
0
40
0.088750000000000578
210
-1.1405568686163985e-32
220
-1.96181498301251e-32
230
1
100
AcDbArc
50
149.82720546980752
51
265.96174502312965
0
ARC
5
207
100
AcDbEntity
8
0
100
AcDbCircle
10
3.414629284339826
20
1.4608826891755102
30
7.845721920648586e-48
40
0.0099999999999995266
210
-3.5705464726207308e-33
220
-6.1415189021021011e-33
230
1
100
AcDbArc
50
-30.172794530199294
51
93.344433568253464
0
ARC
5
208
100
AcDbEntity
8
0
100
AcDbCircle
10
3.4999999999999991
20
3.0885180677170693e-17
30
0
40
1.4733749999999997
210
1.0215568194333105e-35
220
-1.6700434985915025e-34
230
1
100
AcDbArc
50
93.344433568246416
51
97.935796837962428
0
LINE
5
209
100
AcDbEntity
8
0
100
AcDbLine
10
3.2965808933828025
20
1.4592650745111602
30
0
11
3.369274402978236
21
0.95348423431363938
31
0
0
ARC
5
210
100
AcDbEntity
8
0
100
AcDbCircle
10
3.3630879728040806
20
0.95259508770015644
30
0
40
0.0062499999999975995
210
-1.5574531256349205e-48
220
1.0836317503946419e-47
230
1
100
AcDbArc
50
-171.82115594329744
51
8.1788440567015961
0
LINE
5
211
100
AcDbEntity
8
0
100
AcDbLine
10
3.3569015426299251
20
0.95170594108667339
30
0
11
3.2842080330344912
21
1.457486781284193
31
0
0
ARC
5
212
100
AcDbEntity
8
0
100
AcDbCircle
10
2.1435583718327567
20
0.21499999999999969
30
0
40
0.099999999999999908
210
0
220
0
230
1
100
AcDbArc
50
170.99337616493017
51
270
0
LINE
5
213
100
AcDbEntity
8
0
100
AcDbLine
10
2.1435583718327567
20
0.11499999999999978
30
0
11
2.7500000000000004
21
0.11499999999999998
31
-1.0775240406040972e-48
0
LINE
5
214
100
AcDbEntity
8
0
100
AcDbLine
10
2.7500000000000004
20
0.11499999999999998
30
-1.0775240406040972e-48
11
2.7500000000000004
21
-0.11500000000000002
31
0
0
LINE
5
215
100
AcDbEntity
8
0
100
AcDbLine
10
2.7500000000000004
20
-0.11500000000000002
30
0
11
2.1435583718327567
21
-0.11500000000000002
31
-1.0775240406040972e-48
0
ARC
5
216
100
AcDbEntity
8
0
100
AcDbCircle
10
2.1435583718327567
20
-0.21499999999999983
30
-3.367262626887805e-48
40
0.099999999999999797
210
6.0857622797145861e-33
220
-2.2897385862837127e-47
230
1
100
AcDbArc
50
90
51
189.0066238350698
0
LINE
5
217
100
AcDbEntity
8
0
100
AcDbLine
10
3.2842080330344912
20
-1.4574867812841927
30
0
11
3.3569015426299251
21
-0.95170594108667217
31
0
0
ARC
5
218
100
AcDbEntity
8
0
100
AcDbCircle
10
3.3630879728040828
20
-0.95259508770015622
30
0
40
0.006249999999999826
210
-0
220
0
230
1
100
AcDbArc
50
-8.1788440567087388
51
171.82115594329127
0
LINE
5
219
100
AcDbEntity
8
0
100
AcDbLine
10
3.3692744029782404
20
-0.95348423431364027
30
0
11
3.2965808933828025
21
-1.4592650745111597
31
0
0
CIRCLE
5
220
100
AcDbEntity
8
0
100
AcDbCircle
10
3.4999999974984215
20
1.4112499999999999
30
0
40
0.088749999999999982
210
0
220
0
230
1
0
CIRCLE
5
221
100
AcDbEntity
8
0
100
AcDbCircle
10
3.8975950684422211
20
1.3540844597182353
30
0
40
0.088749999999999982
210
0
220
0
230
1
0
CIRCLE
5
222
100
AcDbEntity
8
0
100
AcDbCircle
10
4.2629793515297507
20
1.1872190495604591
30
0
40
0.088749999999999982
210
0
220
0
230
1
0
CIRCLE
5
223
100
AcDbEntity
8
0
100
AcDbCircle
10
4.5665515851692602
20
0.92417221267084981
30
0
40
0.088749999999999982
210
0
220
0
230
1
0
CIRCLE
5
224
100
AcDbEntity
8
0
100
AcDbCircle
10
4.7837181524048695
20
0.58625443937442734
30
0
40
0.088749999999999982
210
0
220
0
230
1
0
CIRCLE
5
225
100
AcDbEntity
8
0
100
AcDbCircle
10
4.8968855094984542
20
0.20084181798928891
30
0
40
0.088749999999999982
210
0
220
0
230
1
0
CIRCLE
5
226
100
AcDbEntity
8
0
100
AcDbCircle
10
4.8968855102104767
20
-0.20084181303705811
30
0
40
0.088749999999999982
210
0
220
0
230
1
0
CIRCLE
5
227
100
AcDbEntity
8
0
100
AcDbCircle
10
4.7837181544832559
20
-0.5862544348233969
30
0
40
0.088749999999999982
210
0
220
0
230
1
0
CIRCLE
5
228
100
AcDbEntity
8
0
100
AcDbCircle
10
4.5665515884456314
20
-0.92417220888971696
30
0
40
0.088749999999999982
210
0
220
0
230
1
0
CIRCLE
5
229
100
AcDbEntity
8
0
100
AcDbCircle
10
4.2629793557386728
20
-1.1872190468555492
30
0
40
0.088749999999999982
210
0
220
0
230
1
0
CIRCLE
5
230
100
AcDbEntity
8
0
100
AcDbCircle
10
3.8975950732427136
20
-1.3540844583086833
30
0
40
0.088749999999999982
210
0
220
0
230
1
0
CIRCLE
5
231
100
AcDbEntity
8
0
100
AcDbCircle
10
3.5000000025015767
20
-1.4112499999999999
30
0
40
0.088749999999999982
210
0
220
0
230
1
0
LINE
5
232
100
AcDbEntity
8
0
100
AcDbLine
10
3.7034191066171962
20
-1.4592650745111602
30
1.8171797455758257e-34
11
3.6307255970217622
21
-0.95348423431363927
31
0
0
LINE
5
233
100
AcDbEntity
8
0
100
AcDbLine
10
3.6431972594272359
20
-0.95169107996969982
30
0
11
3.715943277053289
21
-1.4574643706521566
31
0
0
LINE
5
234
100
AcDbEntity
8
0
100
AcDbLine
10
4.1063016840495656
20
-1.3428448006168319
30
0
11
3.8940578430551152
21
-0.87803176658257265
31
0
0
LINE
5
235
100
AcDbEntity
8
0
100
AcDbLine
10
3.9055191255443309
20
-0.8727975742513987
30
0
11
4.1178112206810376
21
-1.3375885713572788
31
0
0
LINE
5
236
100
AcDbEntity
8
0
100
AcDbLine
10
4.4600653048551964
20
-1.1176352271820615
30
0
11
4.1254658661963735
21
-0.73144638697896591
31
0
0
LINE
5
237
100
AcDbEntity
8
0
100
AcDbLine
10
4.1349882438249237
20
-0.72319519979428937
30
0
11
4.4696277734740111
21
-1.1093493009565694
31
0
0
LINE
5
238
100
AcDbEntity
8
0
100
AcDbLine
10
4.7360501443896741
20
-0.80188149447362933
30
0
11
4.3062023646471346
21
-0.52560357118148404
31
0
0
LINE
5
239
100
AcDbEntity
8
0
100
AcDbLine
10
4.3130143910113183
20
-0.51500385125730774
30
0
11
4.7428908506585312
21
-0.79123714774668596
31
0
0
LINE
5
240
100
AcDbEntity
8
0
100
AcDbLine
10
4.911897552298961
20
-0.42116409205581806
30
0
11
4.4216251421842658
21
-0.27717947993167708
31
0
0
LINE
5
241
100
AcDbEntity
8
0
100
AcDbLine
10
4.425174947420734
20
-0.26508995353729586
30
0
11
4.9154623028791997
21
-0.40902366649487393
31
0
0
LINE
5
242
100
AcDbEntity
8
0
100
AcDbLine
10
4.9733614173990448
20
-0.0063264796589437159
30
0
11
4.4623833318173931
21
-0.0062999556676450316
31
0
0
LINE
5
243
100
AcDbEntity
8
0
100
AcDbLine
10
4.462383331817394
20
0.0062999556676492695
30
-1.7274784729803239e-54
11
4.9733614173990448
21
0.0063264796589436638
31
0
0
LINE
5
244
100
AcDbEntity
8
0
100
AcDbLine
10
4.9154623028791997
20
0.40902366649487426
30
0
11
4.4251749474207323
21
0.26508995353729981
31
0
0
LINE
5
245
100
AcDbEntity
8
0
100
AcDbLine
10
4.4216251421842641
20
0.27717947993168124
30
0
11
4.911897552298961
21
0.42116409205581773
31
0
0
LINE
5
246
100
AcDbEntity
8
0
100
AcDbLine
10
4.7428908506585312
20
0.7912371477466863
30
0
11
4.3130143910113157
21
0.51500385125731107
31
0
0
LINE
5
247
100
AcDbEntity
8
0
100
AcDbLine
10
4.3062023646471346
20
0.52560357118148815
30
0
11
4.7360501443896759
21
0.80188149447362933
31
0
0
LINE
5
248
100
AcDbEntity
8
0
100
AcDbLine
10
4.469627773474012
20
1.1093493009565694
30
0
11
4.1349882438249201
21
0.72319519979429203
31
0
0
LINE
5
249
100
AcDbEntity
8
0
100
AcDbLine
10
4.1254658661963708
20
0.73144638697896869
30
4.8981369063404866e-48
11
4.4600653048551964
21
1.1176352271820615
31
0
0
LINE
5
250
100
AcDbEntity
8
0
100
AcDbLine
10
4.1178112206810367
20
1.3375885713572788
30
0
11
3.905519125544326
21
0.87279757425139981
31
0
0
LINE
5
251
100
AcDbEntity
8
0
100
AcDbLine
10
3.894057843055112
20
0.87803176658257465
30
0
11
4.1063016840495665
21
1.3428448006168316
31
0
0
LINE
5
252
100
AcDbEntity
8
0
100
AcDbLine
10
3.715943277053289
20
1.4574643706521562
30
0
11
3.6431972594272319
21
0.95169107996969982
31
0
0
LINE
5
253
100
AcDbEntity
8
0
100
AcDbLine
10
3.6307255970217582
20
0.95348423431364049
30
0
11
3.7034191066171962
21
1.4592650745111599
31
0
0
ARC
5
254
100
AcDbEntity
8
0
100
AcDbCircle
10
3.4999999999999991
20
3.0885180677170693e-17
30
0
40
1.4733750000000003
210
-0
220
0
230
1
100
AcDbArc
50
278.4278395256739
51
283.01920299851463
0
ARC
5
255
100
AcDbEntity
8
0
100
AcDbCircle
10
3.4999999999999991
20
3.0885180677170693e-17
30
0
40
1.4733750000000001
210
7.5336233593534905e-49
220
-2.103125989372644e-48
230
1
100
AcDbArc
50
289.70806993188268
51
294.29943320159879
0
ARC
5
256
100
AcDbEntity
8
0
100
AcDbCircle
10
3.4999999999999991
20
3.0885180677170693e-17
30
0
40
1.4733750000000003
210
-0
220
0
230
1
100
AcDbArc
50
294.79147588931033
51
299.38283936215106
0
ARC
5
257
100
AcDbEntity
8
0
100
AcDbCircle
10
3.4999999999999991
20
3.0885180677170693e-17
30
0
40
1.4733749999999997
210
-0
220
0
230
1
100
AcDbArc
50
306.07170629551916
51
310.66306956523516
0
ARC
5
258
100
AcDbEntity
8
0
100
AcDbCircle
10
3.4999999999999991
20
3.0885180677170693e-17
30
0
40
1.4733749999999997
210
-6.1821132596965296e-48
220
-5.4034817619616352e-48
230
1
100
AcDbArc
50
311.15511225294665
51
315.74647572578738
0
ARC
5
259
100
AcDbEntity
8
0
100
AcDbCircle
10
3.4999999999999991
20
3.0885180677170693e-17
30
0
40
1.4733750000000001
210
1.4896563235948972e-32
220
1.9642727256908322e-32
230
1
100
AcDbArc
50
322.43534265915548
51
327.02670592887148
0
ARC
5
260
100
AcDbEntity
8
0
100
AcDbCircle
10
3.4999999999999991
20
3.0885180677170693e-17
30
0
40
1.4733749999999997
210
-0
220
0
230
1
100
AcDbArc
50
327.51874861658308
51
332.11011208942381
0
ARC
5
261
100
AcDbEntity
8
0
100
AcDbCircle
10
3.4999999999999991
20
3.0885180677170693e-17
30
0
40
1.4733750000000012
210
7.7995748949958515e-35
220
-3.0254156207243194e-35
230
1
100
AcDbArc
50
338.79897902279185
51
343.39034229250791
0
ARC
5
262
100
AcDbEntity
8
0
100
AcDbCircle
10
3.4999999999999991
20
3.0885180677170693e-17
30
0
40
1.4733749999999997
210
-0
220
0
230
1
100
AcDbArc
50
343.8823849802194
51
348.47374845306013
0
ARC
5
263
100
AcDbEntity
8
0
100
AcDbCircle
10
3.4999999999999991
20
3.0885180677170693e-17
30
0
40
1.4733749999999997
210
-8.3359953872631857e-35
220
7.0547085290512272e-36
230
1
100
AcDbArc
50
355.16261538642817
51
359.75397865614462
0
ARC
5
264
100
AcDbEntity
8
0
100
AcDbCircle
10
3.4999999999999991
20
3.0885180677170693e-17
30
0
40
1.4733749999999997
210
0
220
-0
230
1
100
AcDbArc
50
0.2460213438553881
51
4.8373848166964386
0
ARC
5
265
100
AcDbEntity
8
0
100
AcDbCircle
10
3.4999999999999991
20
3.0885180677170693e-17
30
0
40
1.4733750000000012
210
4.0985415546635029e-35
220
8.3581348390982176e-36
230
1
100
AcDbArc
50
11.526251750064564
51
16.117615019780605
0
ARC
5
266
100
AcDbEntity
8
0
100
AcDbCircle
10
3.4999999999999991
20
3.0885180677170693e-17
30
0
40
1.4733750000000001
210
0
220
-0
230
1
100
AcDbArc
50
16.609657707492097
51
21.201021180332823
0
ARC
5
267
100
AcDbEntity
8
0
100
AcDbCircle
10
3.4999999999999991
20
3.0885180677170693e-17
30
0
40
1.4733749999999999
210
1.153151534040481e-32
220
-2.1788540329325311e-32
230
1
100
AcDbArc
50
27.889888113700884
51
32.481251383416961
0
ARC
5
268
100
AcDbEntity
8
0
100
AcDbCircle
10
3.4999999999999991
20
3.0885180677170693e-17
30
0
40
1.4733750000000005
210
0
220
-0
230
1
100
AcDbArc
50
32.973294071128457
51
37.564657543969233
0
ARC
5
269
100
AcDbEntity
8
0
100
AcDbCircle
10
3.4999999999999991
20
3.0885180677170693e-17
30
0
40
1.4733750000000003
210
-2.3490145014432527e-48
220
-2.2885902546723032e-48
230
1
100
AcDbArc
50
44.253524477337308
51
48.844887747053335
0
ARC
5
270
100
AcDbEntity
8
0
100
AcDbCircle
10
3.4999999999999991
20
3.0885180677170693e-17
30
0
40
1.4733750000000001
210
3.1141442787715161e-48
220
-2.6750963137589171e-48
230
1
100
AcDbArc
50
49.336930434764824
51
53.928293907605592
0
ARC
5
271
100
AcDbEntity
8
0
100
AcDbCircle
10
3.4999999999999991
20
3.0885180677170693e-17
30
0
40
1.4733749999999999
210
1.0822443466747127e-32
220
-5.9018468248936732e-33
230
1
100
AcDbArc
50
60.617160840973625
51
65.208524110689709
0
ARC
5
272
100
AcDbEntity
8
0
100
AcDbCircle
10
3.4999999999999991
20
3.0885180677170693e-17
30
0
40
1.4733749999999999
210
1.1233962893292641e-32
220
-5.0721949532998798e-33
230
1
100
AcDbArc
50
65.700566798401184
51
70.291930271241952
0
ARC
5
273
100
AcDbEntity
8
0
100
AcDbCircle
10
3.4999999999999991
20
3.0885180677170693e-17
30
0
40
1.4733749999999997
210
5.9668616495074977e-33
220
-1.5513953854398804e-33
230
1
100
AcDbArc
50
76.980797204610013
51
81.572160474326068
0
ARC
5
274
100
AcDbEntity
8
0
100
AcDbCircle
10
3.4999999999999991
20
3.0885180677170693e-17
30
0
40
1.4733749999999999
210
0
220
0
230
1
100
AcDbArc
50
98.421891275450861
51
170.99337616493028
0
ARC
5
275
100
AcDbEntity
8
0
100
AcDbCircle
10
3.4999999999999991
20
3.0885180677170693e-17
30
0
40
1.4733750000000001
210
-8.2626457819577036e-34
220
-1.3096537338810405e-34
230
1
100
AcDbArc
50
189.00662383506972
51
261.57810872454911
0
ARC
5
276
100
AcDbEntity
8
0
100
AcDbCircle
10
3.4999999999999991
20
3.0885180677170693e-17
30
0
40
1.4733749999999997
210
0
220
0
230
1
100
AcDbArc
50
262.06420316203753
51
266.65556663487831
0
ENDSEC
0
SECTION
2
OBJECTS
0
DICTIONARY
5
C
100
AcDbDictionary
3
ACAD_GROUP
350
D
3
ACAD_MLINESTYLE
350
17
0
DICTIONARY
5
D
100
AcDbDictionary
0
DICTIONARY
5
1A
330
C
100
AcDbDictionary
0
DICTIONARY
5
17
100
AcDbDictionary
0
ENDSEC
0
EOF
