0
SECTION
2
HEADER
9
$INSUNITS
70
1
9
$ACADVER
1
AC1014
9
$HANDSEED
5
FFFF
0
ENDSEC
0
SECTION
2
TABLES
0
TABLE
2
VPORT
5
8
100
AcDbSymbolTable
0
ENDTAB
0
TABLE
2
LTYPE
5
5
100
AcDbSymbolTable
0
LTYPE
5
14
100
AcDbSymbolTableRecord
100
AcDbLinetypeTableRecord
2
BYBLOCK
70
0
0
LTYPE
5
15
100
AcDbSymbolTableRecord
100
AcDbLinetypeTableRecord
2
BYLAYER
70
0
0
ENDTAB
0
TABLE
2
LAYER
5
2
100
AcDbSymbolTable
70
2
0
LAYER
5
50
100
AcDbSymbolTableRecord
100
AcDbLayerTableRecord
2
0
70
0
6
CONTINUOUS
0
ENDTAB
0
TABLE
2
STYLE
5
3
100
AcDbSymbolTable
70
1
0
STYLE
5
11
100
AcDbSymbolTableRecord
100
AcDbTextStyleTableRecord
2
STANDARD
70
0
0
ENDTAB
0
TABLE
2
VIEW
5
6
100
AcDbSymbolTable
70
0
0
ENDTAB
0
TABLE
2
UCS
5
7
100
AcDbSymbolTable
70
0
0
ENDTAB
0
TABLE
2
APPID
5
9
100
AcDbSymbolTable
70
2
0
APPID
5
12
100
AcDbSymbolTableRecord
100
AcDbRegAppTableRecord
2
ACAD
70
0
0
ENDTAB
0
TABLE
2
DIMSTYLE
5
A
100
AcDbSymbolTable
70
1
0
ENDTAB
0
TABLE
2
BLOCK_RECORD
5
1
100
AcDbSymbolTable
70
1
0
BLOCK_RECORD
5
1F
100
AcDbSymbolTableRecord
100
AcDbBlockTableRecord
2
*MODEL_SPACE
0
BLOCK_RECORD
5
1B
100
AcDbSymbolTableRecord
100
AcDbBlockTableRecord
2
*PAPER_SPACE
0
ENDTAB
0
ENDSEC
0
SECTION
2
BLOCKS
0
BLOCK
5
20
100
AcDbEntity
100
AcDbBlockBegin
2
*MODEL_SPACE
0
ENDBLK
5
21
100
AcDbEntity
100
AcDbBlockEnd
0
BLOCK
5
1C
100
AcDbEntity
100
AcDbBlockBegin
2
*PAPER_SPACE
0
ENDBLK
5
1D
100
AcDbEntity
100
AcDbBlockEnd
0
ENDSEC
0
SECTION
2
ENTITIES
0
ARC
5
100
100
AcDbEntity
8
0
100
AcDbCircle
10
3.4146266678667616
20
-1.4558827449807663
30
-6.7008526275067324e-48
40
0.010000000000000037
210
1.2109223074171955e-32
220
1.9880215403145959e-32
230
1
100
AcDbArc
50
-93.344396114847456
51
30.172831980193106
0
ARC
5
101
100
AcDbEntity
8
0
100
AcDbCircle
10
3.499997348584134
20
-1.4062500000047682
30
0
40
0.088749999999999801
210
-1.277718269777045e-37
220
-9.0217458444459674e-39
230
1
100
AcDbArc
50
94.038852023116377
51
210.17283198019115
0
LINE
5
102
100
AcDbEntity
8
0
100
AcDbLine
10
3.4937464285696076
20
-1.3177204089124563
30
0
11
3.4937464285696067
21
-0.95241189395570292
31
0
0
ARC
5
103
100
AcDbEntity
8
0
100
AcDbCircle
10
3.4999964285696064
20
-0.95241189395570292
30
0
40
0.0062499999999997705
210
-0
220
4.7766408998201163e-64
230
1
100
AcDbArc
50
0
51
180
0
LINE
5
104
100
AcDbEntity
8
0
100
AcDbLine
10
3.5062464285696064
20
-0.95241189395570292
30
0
11
3.5062464285696033
21
-1.317720279010431
31
0
0
ARC
5
105
100
AcDbEntity
8
0
100
AcDbCircle
10
3.499997348584134
20
-1.4062500000047682
30
0
40
0.088749999999999787
210
-4.0265446513178771e-39
220
-6.9258689986563049e-39
230
1
100
AcDbArc
50
-30.172757276277068
51
85.962338830930335
0
ARC
5
106
100
AcDbEntity
8
0
100
AcDbCircle
10
3.5853680940140595
20
-1.4558826336719319
30
2.0203575761326831e-48
40
0.010000000000000397
210
3.5735590925673834e-38
220
6.1467100055216366e-38
230
1
100
AcDbArc
50
149.82724272372326
51
273.34447081876181
0
ARC
5
107
100
AcDbEntity
8
0
100
AcDbCircle
10
3.4999964285696064
20
0.0050000000000000721
30
0
40
1.4733750000000003
210
1.0215622327626143e-35
220
-1.670043463991278e-34
230
1
100
AcDbArc
50
273.34447081876078
51
277.93579683796247
0
ARC
5
108
100
AcDbEntity
8
0
100
AcDbCircle
10
3.6362995389857486
20
-0.94265974736649571
30
0
40
0.0062500000000004366
210
0
220
-0
230
1
100
AcDbArc
50
8.1847923069296158
51
98.637417025734507
0
ARC
5
109
100
AcDbEntity
8
0
100
AcDbCircle
10
3.6362011554847857
20
-0.94267389277842206
30
0
40
0.0062499999999976489
210
-1.0825817236531784e-34
220
-1.4687528361198694e-35
230
1
100
AcDbArc
50
97.726219341862176
51
188.17884405670358
0
ARC
5
110
100
AcDbEntity
8
0
100
AcDbCircle
10
3.8296629740050339
20
-1.4207581700434584
30
0
40
0.01
210
0
220
0
230
1
100
AcDbArc
50
-76.980759751215331
51
46.53646834383337
0
ARC
5
111
100
AcDbEntity
8
0
100
AcDbCircle
10
3.8975923821608922
20
-1.3490841998199892
30
0
40
0.088749999999999801
210
0
220
0
230
1
100
AcDbArc
50
110.40248838675285
51
226.53646834382738
0
LINE
5
112
100
AcDbEntity
8
0
100
AcDbLine
10
3.8666530002737645
20
-1.2659017668882553
30
0
11
3.7637336983190517
21
-0.91539081358570396
31
0
0
ARC
5
113
100
AcDbEntity
8
0
100
AcDbCircle
10
3.7697305294041423
20
-0.91362998510544524
30
0
40
0.0062499999999998329
210
-3.0023995344101336e-60
220
1.0225233780388449e-59
230
1
100
AcDbArc
50
16.363636363636459
51
196.36363636363433
0
LINE
5
114
100
AcDbEntity
8
0
100
AcDbLine
10
3.7757273604892325
20
-0.91186915662518642
30
0
11
3.8786466258463115
21
-1.2623799852876585
31
0
0
ARC
5
115
100
AcDbEntity
8
0
100
AcDbCircle
10
3.8975923821608922
20
-1.3490841998199892
30
0
40
0.088749999999999579
210
-4.7804963604830729e-40
220
-1.9449328603870497e-39
230
1
100
AcDbArc
50
-13.809120912640816
51
102.32597519456708
0
ARC
5
116
100
AcDbEntity
8
0
100
AcDbCircle
10
3.9934881413389616
20
-1.3726546446961831
30
0
40
0.0099999999999999013
210
-5.1507283074726593e-33
220
-2.0955607921681281e-32
230
1
100
AcDbArc
50
166.19087908736174
51
289.70810718239613
0
ARC
5
117
100
AcDbEntity
8
0
100
AcDbCircle
10
3.8977649089369635
20
-0.86587184517246252
30
0
40
0.0062500000000006006
210
-7.7930876117720462e-39
220
1.7062137708315513e-38
230
1
100
AcDbArc
50
24.548428670563727
51
115.00105338939508
0
ARC
5
118
100
AcDbEntity
8
0
100
AcDbCircle
10
3.8976744958821379
20
-0.86591313543109261
30
0
40
0.0062499999999975917
210
-1.0161873658016719e-32
220
2.2460289291158141e-32
230
1
100
AcDbArc
50
114.08985570550662
51
204.54248042033882
0
ARC
5
119
100
AcDbEntity
8
0
100
AcDbCircle
10
4.217991657234565
20
-1.2701271474795577
30
4.0407151522653663e-49
40
0.010000000000000285
210
1.8909444081812696e-32
220
1.0647479864485376e-32
230
1
100
AcDbArc
50
-60.617123387575624
51
62.900104707464344
0
ARC
5
120
100
AcDbEntity
8
0
100
AcDbCircle
10
4.2629765561718687
20
-1.1822185508146095
30
0
40
0.088749999999999787
210
-1.6077633543246657e-32
220
1.8760340219843186e-32
230
1
100
AcDbArc
50
126.76612475038887
51
242.9001047074639
0
LINE
5
121
100
AcDbEntity
8
0
100
AcDbLine
10
4.2098552371290463
20
-1.1111222220546053
30
-2.1878564168238957e-33
11
4.0123545429793364
21
-0.8038051432739246
31
0
0
ARC
5
122
100
AcDbEntity
8
0
100
AcDbCircle
10
4.01761237755953
20
-0.80042613816482699
30
0
40
0.0062499999999998442
210
0
220
-0
230
1
100
AcDbArc
50
32.727272727266524
51
212.7272727272796
0
LINE
5
123
100
AcDbEntity
8
0
100
AcDbLine
10
4.0228702121397255
20
-0.79704713305572994
30
0
11
4.2203708360590957
21
-1.1043641025558748
31
0
0
ARC
5
124
100
AcDbEntity
8
0
100
AcDbCircle
10
4.2629765561718687
20
-1.1822185508146095
30
0
40
0.088749999999999829
210
-2.2316410651047023e-41
220
5.0020790001750914e-40
230
1
100
AcDbArc
50
2.5545154509959498
51
118.68961155820257
0
ARC
5
125
100
AcDbEntity
8
0
100
AcDbCircle
10
4.3616284250035147
20
-1.1778172696347968
30
6.9197246982544398e-48
40
0.010000000000000283
210
1.9805753088462015e-40
220
-4.4393468837705955e-39
230
1
100
AcDbArc
50
182.55451545100036
51
306.07174354602824
0
ARC
5
126
100
AcDbEntity
8
0
100
AcDbCircle
10
4.127005442229053
20
-0.71853108535684507
30
0
40
0.0062500000000005216
210
0
220
-0
230
1
100
AcDbArc
50
40.912065034204247
51
131.36468975340961
0
ARC
5
127
100
AcDbEntity
8
0
100
AcDbCircle
10
4.126930324348363
20
-0.71859617537098652
30
0
40
0.0062499999999976628
210
1.6326641131975039e-35
220
1.3921364955906786e-35
230
1
100
AcDbArc
50
130.45349206953756
51
220.90611678397357
0
ARC
5
128
100
AcDbEntity
8
0
100
AcDbCircle
10
4.5481526371197045
20
-1.0161929069000066
30
0
40
0.0099999999999998267
210
-8.2775183742317061e-33
220
-8.4960757333057395e-33
230
1
100
AcDbArc
50
-44.253487023941808
51
79.263741071108313
0
ARC
5
129
100
AcDbEntity
8
0
100
AcDbCircle
10
4.566548617862046
20
-0.91917151548281806
30
0
40
0.088749999999999676
210
-3.8566358161095633e-47
220
2.9109951280029008e-47
230
1
100
AcDbArc
50
143.12976111402548
51
259.26374107110053
0
LINE
5
130
100
AcDbEntity
8
0
100
AcDbLine
10
4.4955489350077285
20
-0.86592109262453143
30
-4.2883164133294599e-48
11
4.2194671803211756
21
-0.62669489040349058
31
0
0
ARC
5
131
100
AcDbEntity
8
0
100
AcDbCircle
10
4.2235600599083334
20
-0.62197145556377664
30
0
40
0.0062499999999998087
210
0
220
-0
230
1
100
AcDbArc
50
49.090909090909896
51
229.09090909090989
0
LINE
5
132
100
AcDbEntity
8
0
100
AcDbLine
10
4.2276529394954911
20
-0.61724802072406271
30
0
11
4.5037345960086421
21
-0.85647413787737103
31
0
0
ARC
5
133
100
AcDbEntity
8
0
100
AcDbCircle
10
4.566548617862046
20
-0.91917151548281806
30
0
40
0.088750000000000051
210
9.5571827979169342e-55
220
-2.7885415860656186e-54
230
1
100
AcDbArc
50
18.918151814631614
51
135.05324792183927
0
ARC
5
134
100
AcDbEntity
8
0
100
AcDbCircle
10
4.6599644086397829
20
-0.88715507387276349
30
5.5054743949615622e-48
40
0.0099999999999998528
210
-5.1699057869958697e-46
220
-1.8963618725441551e-46
230
1
100
AcDbArc
50
198.91815181463036
51
322.43537990967008
0
ARC
5
135
100
AcDbEntity
8
0
100
AcDbCircle
10
4.3054494342006411
20
-0.51257414001066537
30
0
40
0.0062500000000005078
210
2.9252113716265801e-37
220
-1.8797046499725485e-37
230
1
100
AcDbArc
50
57.275701397841296
51
147.72832611627274
0
ARC
5
136
100
AcDbEntity
8
0
100
AcDbCircle
10
4.3053956970980334
20
-0.51265775657447799
30
0
40
0.0062499999999974234
210
0
220
0
230
1
100
AcDbArc
50
146.81712843239063
51
237.26975314761353
0
ARC
5
137
100
AcDbEntity
8
0
100
AcDbCircle
10
4.7933982346131074
20
-0.67952769027148285
30
-3.5692983845010736e-48
40
0.0099999999999995075
210
5.3418793850484289e-36
220
1.0093377584286598e-35
230
1
100
AcDbArc
50
-27.889850660301789
51
95.627377434737824
0
ARC
5
138
100
AcDbEntity
8
0
100
AcDbCircle
10
4.7837149642058554
20
-0.58125360022624228
30
0
40
0.088749999999999635
210
-4.8097051663182735e-53
220
-1.2859623076811821e-52
230
1
100
AcDbArc
50
159.49339747766217
51
275.62737743473673
0
LINE
5
139
100
AcDbEntity
8
0
100
AcDbLine
10
4.7005888895935275
20
-0.55016311583719346
30
0
11
4.3682925762134195
21
-0.39840847434673488
31
0
0
ARC
5
140
100
AcDbEntity
8
0
100
AcDbCircle
10
4.3708889200446821
20
-0.39272327437576898
30
0
40
0.0062499999999997575
210
0
220
-0
230
1
100
AcDbArc
50
65.454545454545297
51
245.45454545453916
0
LINE
5
141
100
AcDbEntity
8
0
100
AcDbLine
10
4.3734852638759438
20
-0.38703807440480342
30
0
11
4.7057814590930116
21
-0.53879266193201403
31
0
0
ARC
5
142
100
AcDbEntity
8
0
100
AcDbCircle
10
4.7837149642058554
20
-0.58125360022624228
30
0
40
0.088749999999999746
210
-1.415887834938585e-32
220
2.0010784827251445e-32
230
1
100
AcDbArc
50
35.281788178268876
51
151.41688428547573
0
ARC
5
143
100
AcDbEntity
8
0
100
AcDbCircle
10
4.8643266851259703
20
-0.52421577987607915
30
-6.2294358597424398e-49
40
0.010000000000000219
210
6.7169744727392061e-33
220
-9.4931199737277659e-33
230
1
100
AcDbArc
50
215.2817881782656
51
338.79901627330452
0
ARC
5
144
100
AcDbEntity
8
0
100
AcDbCircle
10
4.4186404138694702
20
-0.26468641597275377
30
0
40
0.0062500000000004939
210
1.8395330561359329e-51
220
-5.4003192195378499e-52
230
1
100
AcDbArc
50
73.639337761472021
51
164.09196248073366
0
ARC
5
145
100
AcDbEntity
8
0
100
AcDbCircle
10
4.418612411005415
20
-0.26478178496952487
30
0
40
0.0062499999999977565
210
-2.5338263220576144e-50
220
-8.3822663581229772e-50
230
1
100
AcDbArc
50
163.18076479685644
51
253.63338951124143
0
ARC
5
146
100
AcDbEntity
8
0
100
AcDbCircle
10
4.9338601099375907
20
-0.28740611122008924
30
0
40
0.0099999999999994382
210
-5.3521424015493829e-33
220
-2.6245151221593386e-32
230
1
100
AcDbArc
50
-11.526214296667675
51
111.9910137983787
0
ARC
5
147
100
AcDbEntity
8
0
100
AcDbCircle
10
4.8968820693605108
20
-0.19584090486374534
30
0
40
0.088749999999999718
210
-1.6946054715857777e-54
220
-2.339494467797177e-53
230
1
100
AcDbArc
50
175.8570338412984
51
291.9910137983739
0
LINE
5
148
100
AcDbEntity
8
0
100
AcDbLine
10
4.8083639831854628
20
-0.18942912508690415
30
0
11
4.4467737821795872
21
-0.13744030286098124
31
0
0
ARC
5
149
100
AcDbEntity
8
0
100
AcDbCircle
10
4.4476632499187945
20
-0.13125391884922555
30
0
40
0.0062499999999997861
210
0
220
-0
230
1
100
AcDbArc
50
81.81818181817215
51
261.81818181818846
0
LINE
5
150
100
AcDbEntity
8
0
100
AcDbLine
10
4.4485527176580035
20
-0.12506753483746999
30
0
11
4.8101427900840692
21
-0.17705633857641095
31
0
0
ARC
5
151
100
AcDbEntity
8
0
100
AcDbCircle
10
4.8968820693605108
20
-0.19584090486374534
30
0
40
0.088749999999999787
210
1.5297166101534157e-32
220
1.9331659137046649e-32
230
1
100
AcDbArc
50
51.645424541904653
51
167.78052064911222
0
ARC
5
152
100
AcDbEntity
8
0
100
AcDbCircle
10
4.9581590382104199
20
-0.11840257076126637
30
-7.5763409104975612e-49
40
0.0099999999999996411
210
-1.2518596445124636e-31
220
-1.7993757011316808e-31
230
1
100
AcDbArc
50
231.64542454190791
51
355.16265263694322
0
ARC
5
153
100
AcDbEntity
8
0
100
AcDbCircle
10
4.4574083212354516
20
0.0050496976003974268
30
0
40
0.006250000000000493
210
1.5403595391532983e-33
220
7.9957407566282219e-38
230
1
100
AcDbArc
50
90.002974125117959
51
180.45559884359201
0
ARC
5
154
100
AcDbEntity
8
0
100
AcDbCircle
10
4.4574083212354516
20
0.0049503023996058902
30
0
40
0.0062499999999974217
210
-1.1554789430853996e-33
220
1.4532083712708369e-35
230
1
100
AcDbArc
50
179.54440115971508
51
269.99702587488207
0
ARC
5
155
100
AcDbEntity
8
0
100
AcDbCircle
10
4.9581588773132985
20
0.12840447195625151
30
1.5489408083683905e-48
40
0.0099999999999995856
210
-1.8943728185999918e-33
220
2.238414268313948e-32
230
1
100
AcDbArc
50
4.8374220669668277
51
128.35465016201246
0
ARC
5
156
100
AcDbEntity
8
0
100
AcDbCircle
10
4.8968818074970741
20
0.20584272616395888
30
0
40
0.088749999999999621
210
5.2064936982991987e-33
220
-2.4038997407644832e-32
230
1
100
AcDbArc
50
192.22067020493458
51
308.35465016200953
0
LINE
5
157
100
AcDbEntity
8
0
100
AcDbLine
10
4.8101429186638791
20
0.18705635706339543
30
0
11
4.4485527176580035
21
0.13506753483747044
31
2.4263684338736828e-33
0
ARC
5
158
100
AcDbEntity
8
0
100
AcDbCircle
10
4.4476632499187945
20
0.14125391884922608
30
0
40
0.0062499999999997861
210
0
220
0
230
1
100
AcDbArc
50
98.181818181819764
51
278.18181818182774
0
LINE
5
159
100
AcDbEntity
8
0
100
AcDbLine
10
4.4467737821795863
20
0.14744030286098167
30
0
11
4.8083638546056537
21
0.19942910659991703
31
-2.4263684338736828e-33
0
ARC
5
160
100
AcDbEntity
8
0
100
AcDbCircle
10
4.8968818074970741
20
0.20584272616395888
30
0
40
0.088749999999999829
210
-1.7649830144961714e-50
220
7.1277476507460887e-51
230
1
100
AcDbArc
50
68.009060905540991
51
184.14415701274859
0
ARC
5
161
100
AcDbEntity
8
0
100
AcDbCircle
10
4.9338597286887245
20
0.29740798073327696
30
3.022118207631805e-48
40
0.0099999999999999412
210
1.5785372013991704e-32
220
-6.3748006278116799e-33
230
1
100
AcDbArc
50
-111.99093909445746
51
11.526289000578389
0
ARC
5
162
100
AcDbEntity
8
0
100
AcDbCircle
10
4.4186124110054124
20
0.27478178496952749
30
0
40
0.0062500000000004939
210
1.5519078158355551e-36
220
4.5576875285144418e-37
230
1
100
AcDbArc
50
106.36661048874272
51
196.81923520772767
0
ARC
5
163
100
AcDbEntity
8
0
100
AcDbCircle
10
4.4186404138694702
20
0.274686415972757
30
0
40
0.0062499999999976723
210
4.4852361190550414e-35
220
-1.5737164595143153e-34
230
1
100
AcDbArc
50
195.90803752384832
51
286.36066223851907
0
ARC
5
164
100
AcDbEntity
8
0
100
AcDbCircle
10
4.8643259951177864
20
0.53421755872935006
30
5.1182391928694638e-48
40
0.010000000000000703
210
-1.2407678960168742e-32
220
3.1987153446388274e-32
230
1
100
AcDbArc
50
21.2010584306041
51
144.71828652564233
0
ARC
5
165
100
AcDbEntity
8
0
100
AcDbCircle
10
4.7837141998301611
20
0.59125527397554367
30
0
40
0.088749999999999746
210
0
220
0
230
1
100
AcDbArc
50
208.58430656857092
51
324.71828652564585
0
LINE
5
166
100
AcDbEntity
8
0
100
AcDbLine
10
4.7057815772560501
20
0.54879271589526402
30
0
11
4.3734852638759429
21
0.39703807440480365
31
0
0
ARC
5
167
100
AcDbEntity
8
0
100
AcDbCircle
10
4.3708889200446803
20
0.40272327437576949
30
0
40
0.0062499999999997852
210
0
220
0
230
1
100
AcDbArc
50
114.54545454544582
51
294.54545454546104
0
LINE
5
168
100
AcDbEntity
8
0
100
AcDbLine
10
4.3682925762134195
20
0.40840847434673544
30
0
11
4.7005887714304899
21
0.56016306187393994
31
0
0
ARC
5
169
100
AcDbEntity
8
0
100
AcDbCircle
10
4.7837141998301611
20
0.59125527397554367
30
0
40
0.088749999999999829
210
-2.4172950570036385e-33
220
-2.4533100503931676e-32
230
1
100
AcDbArc
50
84.372697269177792
51
200.50779337638502
0
ARC
5
170
100
AcDbEntity
8
0
100
AcDbCircle
10
4.7933973421047691
20
0.68952937664603209
30
-6.0947453546669278e-48
40
0.010000000000000167
210
1.071581722890737e-32
220
2.1878927152774955e-31
230
1
100
AcDbArc
50
-95.627302730820503
51
27.889925364211578
0
ARC
5
171
100
AcDbEntity
8
0
100
AcDbCircle
10
4.3053956970980316
20
0.52265775657448066
30
0
40
0.0062500000000005598
210
0
220
0
230
1
100
AcDbArc
50
122.73024685238859
51
213.18287157060524
0
ARC
5
172
100
AcDbEntity
8
0
100
AcDbCircle
10
4.3054494342006384
20
0.52257414001066804
30
0
40
0.0062499999999974859
210
0
220
0
230
1
100
AcDbArc
50
212.27167388672748
51
302.72429860217028
0
ARC
5
173
100
AcDbEntity
8
0
100
AcDbCircle
10
4.659963245420899
20
0.89715658627220707
30
-4.2427509098786347e-48
40
0.010000000000000385
210
-7.1297794038325783e-33
220
9.2700178950343126e-33
230
1
100
AcDbArc
50
37.564694794240054
51
161.08192288928194
0
ARC
5
174
100
AcDbEntity
8
0
100
AcDbCircle
10
4.5665474128992685
20
0.92917290608399428
30
0
40
0.088749999999999885
210
0
220
0
230
1
100
AcDbArc
50
224.94794293220718
51
341.0819228892816
0
LINE
5
175
100
AcDbEntity
8
0
100
AcDbLine
10
4.5037346941820431
20
0.86647422294510601
30
0
11
4.2276529394954911
21
0.62724802072406338
31
0
0
ARC
5
176
100
AcDbEntity
8
0
100
AcDbCircle
10
4.2235600599083334
20
0.63197145556377721
30
0
40
0.0062499999999996812
210
0
220
0
230
1
100
AcDbArc
50
130.9090909090813
51
310.90909090909076
0
LINE
5
177
100
AcDbEntity
8
0
100
AcDbLine
10
4.2194671803211765
20
0.63669489040349159
30
0
11
4.4955488368343293
21
0.87592100755679536
31
0
0
ARC
5
178
100
AcDbEntity
8
0
100
AcDbCircle
10
4.5665474128992685
20
0.92917290608399428
30
0
40
0.088749999999999912
210
-1.5766021723925744e-38
220
-2.9893768154861873e-39
230
1
100
AcDbArc
50
100.73633363281441
51
216.87142974002111
0
ARC
5
179
100
AcDbEntity
8
0
100
AcDbCircle
10
4.5481513056576102
20
1.026194273515882
30
0
40
0.010000000000000031
210
1.3992344577925327e-37
220
2.6530719802368031e-38
230
1
100
AcDbArc
50
-79.263666367184555
51
44.253561727846105
0
ARC
5
180
100
AcDbEntity
8
0
100
AcDbCircle
10
4.1269303243483595
20
0.72859617537098875
30
0
40
0.0062500000000004479
210
-1.6138568809167277e-32
220
-1.8626854832545734e-32
230
1
100
AcDbArc
50
139.09388321602097
51
229.54650793483157
0
ARC
5
181
100
AcDbEntity
8
0
100
AcDbCircle
10
4.1270054422290512
20
0.72853108535684774
30
0
40
0.0062499999999976732
210
-1.3898746027776835e-34
220
1.2238178089344379e-34
230
1
100
AcDbArc
50
228.63531025094989
51
319.08793496579131
0
ARC
5
182
100
AcDbEntity
8
0
100
AcDbCircle
10
4.3616268828110059
20
1.1878183930548079
30
-9.4114990421514157e-48
40
0.010000000000000014
210
2.155420280114416e-30
220
2.9091232444138587e-30
230
1
100
AcDbArc
50
53.92833115788067
51
177.44555925291576
0
ARC
5
183
100
AcDbEntity
8
0
100
AcDbCircle
10
4.2629750082409252
20
1.1922195456094224
30
0
40
0.088749999999999885
210
-1.183405296886698e-32
220
-2.1625714463542631e-32
230
1
100
AcDbArc
50
241.31157929584336
51
357.44555925291843
0
LINE
5
184
100
AcDbEntity
8
0
100
AcDbLine
10
4.2203709062894328
20
1.1143642118364119
30
-2.1878564168238954e-33
11
4.0228702121397237
21
0.80704713305573028
31
0
0
ARC
5
185
100
AcDbEntity
8
0
100
AcDbCircle
10
4.01761237755953
20
0.81042613816482767
30
0
40
0.0062499999999996352
210
0
220
0
230
1
100
AcDbArc
50
147.2727272727231
51
327.27272727272208
0
LINE
5
186
100
AcDbEntity
8
0
100
AcDbLine
10
4.0123545429793355
20
0.8138051432739255
30
0
11
4.2098551668987092
21
1.1211221127740671
31
0
0
ARC
5
187
100
AcDbEntity
8
0
100
AcDbCircle
10
4.2629750082409252
20
1.1922195456094224
30
0
40
0.088749999999999829
210
-7.1534295165217036e-39
220
-3.6605900978709868e-39
230
1
100
AcDbArc
50
117.09996999645044
51
233.23506610365709
0
ARC
5
188
100
AcDbEntity
8
0
100
AcDbCircle
10
4.2179899946858574
20
1.280128083621668
30
1.5893479598910441e-47
40
0.010000000000000365
210
1.9210280797190405e-32
220
9.8303846429328392e-33
230
1
100
AcDbArc
50
-62.900030003544586
51
60.617198091483885
0
ARC
5
189
100
AcDbEntity
8
0
100
AcDbCircle
10
3.8976744958821352
20
0.8759131354310935
30
0
40
0.0062500000000003456
210
9.3391487068392131e-38
220
2.0452692645324505e-37
230
1
100
AcDbArc
50
155.45751957965479
51
245.91014429871055
0
ARC
5
190
100
AcDbEntity
8
0
100
AcDbCircle
10
3.8977649089369608
20
0.87587184517246508
30
0
40
0.006249999999997714
210
3.7047948893727922e-39
220
-1.7276571529594993e-39
230
1
100
AcDbArc
50
244.99894661482844
51
335.45157132942575
0
ARC
5
191
100
AcDbEntity
8
0
100
AcDbCircle
10
3.9934863451120939
20
1.3826552881239518
30
-2.8621732328546346e-49
40
0.010000000000000309
210
-4.2692370936468682e-32
220
-1.391282068556902e-31
230
1
100
AcDbArc
50
70.291967521516383
51
193.80919561655361
0
ARC
5
192
100
AcDbEntity
8
0
100
AcDbCircle
10
3.897590616665942
20
1.3590847182160799
30
0
40
0.088749999999999926
210
5.7289126042787422e-54
220
-1.2517011524504802e-54
230
1
100
AcDbArc
50
-102.32478434051937
51
13.80919561655524
0
LINE
5
193
100
AcDbEntity
8
0
100
AcDbLine
10
3.878646662443944
20
1.2723801099277381
30
0
11
3.7757273604892325
21
0.92186915662518676
31
0
0
ARC
5
194
100
AcDbEntity
8
0
100
AcDbCircle
10
3.7697305294041423
20
0.92362998510544547
30
0
40
0.0062499999999998807
210
0
220
0
230
1
100
AcDbArc
50
163.63636363636374
51
343.63636363636454
0
LINE
5
195
100
AcDbEntity
8
0
100
AcDbLine
10
3.7637336983190517
20
0.92539081358570441
30
0
11
3.8666529636761369
21
1.2759016422481746
31
0
0
ARC
5
196
100
AcDbEntity
8
0
100
AcDbCircle
10
3.897590616665942
20
1.3590847182160799
30
0
40
0.088749999999999885
210
1.7792085408455215e-32
220
1.6862592989617589e-32
230
1
100
AcDbArc
50
133.46360636008666
51
249.59870246729432
0
ARC
5
197
100
AcDbEntity
8
0
100
AcDbCircle
10
3.8296611150595203
20
1.4307585998711374
30
-3.5356257582321956e-49
40
0.010000000000000279
210
-1.7772680424849484e-32
220
-1.6844201759303776e-32
230
1
100
AcDbArc
50
-46.536393639912298
51
76.980834455120615
0
ARC
5
198
100
AcDbEntity
8
0
100
AcDbCircle
10
3.6362011554847822
20
0.95267389277842185
30
0
40
0.0062499999999998754
210
0
220
0
230
1
100
AcDbArc
50
171.8211559432882
51
262.27378066194905
0
ARC
5
199
100
AcDbEntity
8
0
100
AcDbCircle
10
3.636299538985746
20
0.95265974736649695
30
0
40
0.0062499999999977105
210
-2.7191673083848141e-34
220
4.1305193936596931e-35
230
1
100
AcDbArc
50
261.3625829780708
51
351.81520769306832
0
ARC
5
200
100
AcDbEntity
8
0
100
AcDbCircle
10
3.4999964285696064
20
0.0050000000000000721
30
0
40
1.4733749999999999
210
3.1840067474866855e-36
220
-4.4384520629593997e-37
230
1
100
AcDbArc
50
82.064203162037586
51
86.655603885153525
0
ARC
5
201
100
AcDbEntity
8
0
100
AcDbCircle
10
3.5853661892724507
20
1.4658827449807661
30
0
40
0.010000000000000521
210
-1.1674817984874861e-32
220
6.8224258315123226e-34
230
1
100
AcDbArc
50
86.655603885157873
51
210.17283198018868
0
ARC
5
202
100
AcDbEntity
8
0
100
AcDbCircle
10
3.4999955085550791
20
1.4162500000047684
30
4.5794771725674153e-48
40
0.088749999999999801
210
1.5587965441185545e-33
220
-2.2076689563492209e-32
230
1
100
AcDbArc
50
-85.961147976883623
51
30.172831980191692
0
LINE
5
203
100
AcDbEntity
8
0
100
AcDbLine
10
3.5062464285696056
20
1.3277204089124566
30
-1.9641842122440768e-33
11
3.5062464285696064
21
0.96241189395570315
31
0
0
ARC
5
204
100
AcDbEntity
8
0
100
AcDbCircle
10
3.4999964285696064
20
0.96241189395570281
30
0
40
0.0062499999999997705
210
0
220
0
230
1
100
AcDbArc
50
-180
51
0
0
LINE
5
205
100
AcDbEntity
8
0
100
AcDbLine
10
3.4937464285696067
20
0.96241189395570315
30
0
11
3.4937464285696094
21
1.3277202790104312
31
0
0
ARC
5
206
100
AcDbEntity
8
0
100
AcDbCircle
10
3.4999955085550791
20
1.4162500000047684
30
4.5794771725674153e-48
40
0.088749999999999787
210
-1.1405555930374644e-32
220
-1.9618157246065578e-32
230
1
100
AcDbArc
50
149.82724272372295
51
265.96233883092998
0
ARC
5
207
100
AcDbEntity
8
0
100
AcDbCircle
10
3.4146247631251532
20
1.4658826336719322
30
3.8302612380848785e-49
40
0.010000000000000309
210
-3.5705424793837033e-33
220
-6.1415212236838806e-33
230
1
100
AcDbArc
50
-30.17275727627549
51
93.344470818759291
0
ARC
5
208
100
AcDbEntity
8
0
100
AcDbCircle
10
3.4999964285696064
20
0.0050000000000000721
30
0
40
1.4733750000000003
210
4.5465500590574648e-37
220
2.6569317864215693e-38
230
1
100
AcDbArc
50
93.344470818760811
51
97.935796837962386
0
LINE
5
209
100
AcDbEntity
8
0
100
AcDbLine
10
3.296577321952411
20
1.4642650745111605
30
0
11
3.3699781318285829
21
0.95356303939190556
31
0
0
ARC
5
210
100
AcDbEntity
8
0
100
AcDbCircle
10
3.3637917016544274
20
0.9526738927784224
30
0
40
0.0062499999999976246
210
-1.5574531256352204e-48
220
1.0836317503946376e-47
230
1
100
AcDbArc
50
-171.82115594329539
51
8.1788440567036087
0
LINE
5
211
100
AcDbEntity
8
0
100
AcDbLine
10
3.357605271480272
20
0.95178474616493913
30
0
11
3.2842044616040971
21
1.4624867812841928
31
0
0
ARC
5
212
100
AcDbEntity
8
0
100
AcDbCircle
10
2.1420075145408508
20
0.2100000000000001
30
0
40
0.10000000000000048
210
0
220
0
230
1
100
AcDbArc
50
171.41553115780422
51
270
0
LINE
5
213
100
AcDbEntity
8
0
100
AcDbLine
10
2.1420075145408508
20
0.10999999999999968
30
0
11
2.7499964285696086
21
0.10999999999999996
31
0
0
LINE
5
214
100
AcDbEntity
8
0
100
AcDbLine
10
2.7499964285696086
20
0.10999999999999996
30
0
11
2.7499964285696086
21
-0.11
31
0
0
LINE
5
215
100
AcDbEntity
8
0
100
AcDbLine
10
2.7499964285696086
20
-0.11
30
0
11
2.1435548004023639
21
-0.11
31
0
0
ARC
5
216
100
AcDbEntity
8
0
100
AcDbCircle
10
2.1435548004023639
20
-0.20999999999999977
30
-4.8488581827184399e-48
40
0.099999999999999756
210
6.0857622797145861e-33
220
-4.8488581827184518e-47
230
1
100
AcDbArc
50
90
51
189.00662383506977
0
LINE
5
217
100
AcDbEntity
8
0
100
AcDbLine
10
3.284204461604098
20
-1.4524867812841928
30
0
11
3.357605271480272
21
-0.94178474616493812
31
0
0
ARC
5
218
100
AcDbEntity
8
0
100
AcDbCircle
10
3.3637917016544301
20
-0.94267389277842206
30
0
40
0.006250000000000493
210
-0
220
0
230
1
100
AcDbArc
50
-8.1788440567066019
51
171.82115594329281
0
LINE
5
219
100
AcDbEntity
8
0
100
AcDbLine
10
3.3699781318285886
20
-0.943563039391906
30
0
11
3.2965773219524102
21
-1.4542650745111598
31
0
0
CIRCLE
5
220
100
AcDbEntity
8
0
100
AcDbCircle
10
3.4999955085550791
20
1.4162500000047684
30
0
40
0.088749999999999982
210
0
220
0
230
1
0
CIRCLE
5
221
100
AcDbEntity
8
0
100
AcDbCircle
10
3.897590616665942
20
1.3590847182160799
30
0
40
0.088749999999999982
210
0
220
0
230
1
0
CIRCLE
5
222
100
AcDbEntity
8
0
100
AcDbCircle
10
4.2629750082409261
20
1.1922195456094222
30
0
40
0.088749999999999982
210
0
220
0
230
1
0
CIRCLE
5
223
100
AcDbEntity
8
0
100
AcDbCircle
10
4.5665474128992676
20
0.92917290608399394
30
0
40
0.088749999999999982
210
0
220
0
230
1
0
CIRCLE
5
224
100
AcDbEntity
8
0
100
AcDbCircle
10
4.7837141998301602
20
0.59125527397554389
30
0
40
0.088749999999999982
210
0
220
0
230
1
0
CIRCLE
5
225
100
AcDbEntity
8
0
100
AcDbCircle
10
4.8968818074970741
20
0.20584272616395868
30
0
40
0.088749999999999982
210
0
220
0
230
1
0
CIRCLE
5
226
100
AcDbEntity
8
0
100
AcDbCircle
10
4.8968820693605108
20
-0.19584090486374567
30
0
40
0.088749999999999982
210
0
220
0
230
1
0
CIRCLE
5
227
100
AcDbEntity
8
0
100
AcDbCircle
10
4.7837149642058554
20
-0.58125360022624228
30
0
40
0.088749999999999982
210
0
220
0
230
1
0
CIRCLE
5
228
100
AcDbEntity
8
0
100
AcDbCircle
10
4.5665486178620469
20
-0.91917151548281839
30
0
40
0.088749999999999982
210
0
220
0
230
1
0
CIRCLE
5
229
100
AcDbEntity
8
0
100
AcDbCircle
10
4.2629765561718678
20
-1.1822185508146095
30
0
40
0.088749999999999982
210
0
220
0
230
1
0
CIRCLE
5
230
100
AcDbEntity
8
0
100
AcDbCircle
10
3.8975923821608922
20
-1.3490841998199894
30
0
40
0.088749999999999982
210
0
220
0
230
1
0
CIRCLE
5
231
100
AcDbEntity
8
0
100
AcDbCircle
10
3.499997348584134
20
-1.4062500000047684
30
0
40
0.088749999999999982
210
0
220
0
230
1
0
LINE
5
232
100
AcDbEntity
8
0
100
AcDbLine
10
3.7034155351868034
20
-1.45426507451116
30
0
11
3.6300147253106303
21
-0.94356303939190522
31
0
0
LINE
5
233
100
AcDbEntity
8
0
100
AcDbLine
10
3.6424858768184341
20
-0.94176995850396006
30
0
11
3.7159397056228975
21
-1.4524643706521561
31
0
0
LINE
5
234
100
AcDbEntity
8
0
100
AcDbLine
10
4.1062981126191733
20
-1.3378448006168322
30
0
11
3.8919891611471025
21
-0.8685091841499285
31
0
0
LINE
5
235
100
AcDbEntity
8
0
100
AcDbLine
10
3.9034499741285398
20
-0.86327520623577192
30
0
11
4.1178076492506452
21
-1.3325885713572783
31
0
0
LINE
5
236
100
AcDbEntity
8
0
100
AcDbLine
10
4.4600617334248023
20
-1.1126352271820614
30
0
11
4.1222066770606922
21
-0.72268880976727157
31
0
0
LINE
5
237
100
AcDbEntity
8
0
100
AcDbLine
10
4.1317286646080822
20
-0.71443796058984366
30
0
11
4.4696242020436197
21
-1.1043493009565684
31
0
0
LINE
5
238
100
AcDbEntity
8
0
100
AcDbLine
10
4.7360465729592827
20
-0.79688149447362855
30
-2.9074640544912511e-33
11
4.3020164190683632
21
-0.51791541574925892
31
0
0
LINE
5
239
100
AcDbEntity
8
0
100
AcDbLine
10
4.3088281663800601
20
-0.50731613003922538
30
0
11
4.7428872792281389
21
-0.78623714774668574
31
0
0
LINE
5
240
100
AcDbEntity
8
0
100
AcDbLine
10
4.9118939808685678
20
-0.41616409205581945
30
0
11
4.4168512712423675
21
-0.27077852464496388
31
0
0
LINE
5
241
100
AcDbEntity
8
0
100
AcDbLine
10
4.420400931062197
20
-0.25868949349417192
30
0
11
4.9154587314488065
21
-0.4040236664948737
31
0
0
LINE
5
242
100
AcDbEntity
8
0
100
AcDbLine
10
4.9733578459686534
20
-0.0013264796589458581
30
0
11
4.4574079968087288
21
-0.0012996975919716263
31
0
0
LINE
5
243
100
AcDbEntity
8
0
100
AcDbLine
10
4.4574079968087288
20
0.011299697591977704
30
0
11
4.9733578459686516
21
0.0113264796589453
31
0
0
LINE
5
244
100
AcDbEntity
8
0
100
AcDbLine
10
4.9154587314488065
20
0.41402366649487415
30
-9.0512356554850617e-33
11
4.4204009310621952
21
0.26868949349417776
31
0
0
LINE
5
245
100
AcDbEntity
8
0
100
AcDbLine
10
4.4168512712423658
20
0.28077852464496961
30
0
11
4.9118939808685678
21
0.42616409205581868
31
0
0
LINE
5
246
100
AcDbEntity
8
0
100
AcDbLine
10
4.7428872792281389
20
0.79623714774668475
30
0
11
4.3088281663800574
21
0.51731613003923038
31
0
0
LINE
5
247
100
AcDbEntity
8
0
100
AcDbLine
10
4.3020164190683596
20
0.52791541574926393
30
0
11
4.7360465729592818
21
0.80688149447362989
31
0
0
LINE
5
248
100
AcDbEntity
8
0
100
AcDbLine
10
4.4696242020436205
20
1.1143493009565684
30
0
11
4.1317286646080778
21
0.724437960589848
31
0
0
LINE
5
249
100
AcDbEntity
8
0
100
AcDbLine
10
4.1222066770606869
20
0.73268880976727613
30
0
11
4.4600617334248023
21
1.1226352271820623
31
0
0
LINE
5
250
100
AcDbEntity
8
0
100
AcDbLine
10
4.1178076492506461
20
1.3425885713572783
30
0
11
3.9034499741285331
21
0.87327520623577504
31
0
0
LINE
5
251
100
AcDbEntity
8
0
100
AcDbLine
10
3.8919891611470976
20
0.87850918414993118
30
0
11
4.1062981126191724
21
1.3478448006168322
31
0
0
LINE
5
252
100
AcDbEntity
8
0
100
AcDbLine
10
3.7159397056228962
20
1.4624643706521563
30
0
11
3.6424858768184283
21
0.95176995850396151
31
0
0
LINE
5
253
100
AcDbEntity
8
0
100
AcDbLine
10
3.6300147253106245
20
0.95356303939190623
30
0
11
3.7034155351868026
21
1.4642650745111601
31
0
0
ARC
5
254
100
AcDbEntity
8
0
100
AcDbCircle
10
3.4999964285696064
20
0.0050000000000000721
30
0
40
1.4733749999999999
210
-0
220
0
230
1
100
AcDbArc
50
278.42783952567402
51
283.01924024878986
0
ARC
5
255
100
AcDbEntity
8
0
100
AcDbCircle
10
3.4999964285696064
20
0.0050000000000000721
30
0
40
1.4733749999999994
210
-1.1603932421738862e-32
220
-4.156661836629326e-33
230
1
100
AcDbArc
50
289.70810718239716
51
294.29943320159879
0
ARC
5
256
100
AcDbEntity
8
0
100
AcDbCircle
10
3.4999964285696064
20
0.0050000000000000721
30
0
40
1.4733749999999999
210
-0
220
0
230
1
100
AcDbArc
50
294.79147588931033
51
299.38287661242623
0
ARC
5
257
100
AcDbEntity
8
0
100
AcDbCircle
10
3.4999964285696064
20
0.0050000000000000721
30
0
40
1.4733749999999997
210
-9.8515179194407295e-35
220
1.3523817048675177e-34
230
1
100
AcDbArc
50
306.07174354603353
51
310.66306956523516
0
ARC
5
258
100
AcDbEntity
8
0
100
AcDbCircle
10
3.4999964285696064
20
0.0050000000000000721
30
0
40
1.4733749999999997
210
-1.0303522099494205e-48
220
-9.005802936602736e-49
230
1
100
AcDbArc
50
311.15511225294671
51
315.7465129760626
0
ARC
5
259
100
AcDbEntity
8
0
100
AcDbCircle
10
3.4999964285696064
20
0.0050000000000000721
30
0
40
1.4733749999999999
210
1.5161801767201154e-32
220
1.9438726745956049e-32
230
1
100
AcDbArc
50
322.4353799096699
51
327.02670592887159
0
ARC
5
260
100
AcDbEntity
8
0
100
AcDbCircle
10
3.4999964285696064
20
0.0050000000000000721
30
0
40
1.4733750000000003
210
-0
220
0
230
1
100
AcDbArc
50
327.51874861658308
51
332.11014933969892
0
ARC
5
261
100
AcDbEntity
8
0
100
AcDbCircle
10
3.4999964285696064
20
0.0050000000000000721
30
0
40
1.4733749999999999
210
-9.8305236526704937e-42
220
-2.5343321634109867e-41
230
1
100
AcDbArc
50
338.79901627330628
51
343.39034229250785
0
ARC
5
262
100
AcDbEntity
8
0
100
AcDbCircle
10
3.4999964285696064
20
0.0050000000000000721
30
0
40
1.4733749999999997
210
-0
220
0
230
1
100
AcDbArc
50
343.8823849802194
51
348.47378570333535
0
ARC
5
263
100
AcDbEntity
8
0
100
AcDbCircle
10
3.4999964285696064
20
0.0050000000000000721
30
0
40
1.4733749999999988
210
8.3359961324542502e-35
220
-7.0546204751685975e-36
230
1
100
AcDbArc
50
355.16265263694271
51
359.75397865614462
0
ARC
5
264
100
AcDbEntity
8
0
100
AcDbCircle
10
3.4999964285696064
20
0.0050000000000000721
30
0
40
1.4733749999999997
210
0
220
-0
230
1
100
AcDbArc
50
0.2460213438553881
51
4.8374220669716559
0
ARC
5
265
100
AcDbEntity
8
0
100
AcDbCircle
10
3.4999964285696064
20
0.0050000000000000721
30
0
40
1.4733749999999999
210
4.098541011263629e-35
220
8.3581614855215505e-36
230
1
100
AcDbArc
50
11.526289000578961
51
16.117615019780605
0
ARC
5
266
100
AcDbEntity
8
0
100
AcDbCircle
10
3.4999964285696064
20
0.0050000000000000721
30
0
40
1.4733749999999997
210
0
220
-0
230
1
100
AcDbArc
50
16.609657707492119
51
21.201058430608008
0
ARC
5
267
100
AcDbEntity
8
0
100
AcDbCircle
10
3.4999964285696064
20
0.0050000000000000721
30
0
40
1.4733750000000001
210
-1.2715577005333036e-41
220
2.4025762194547338e-41
230
1
100
AcDbArc
50
27.88992536421534
51
32.48125138341689
0
ARC
5
268
100
AcDbEntity
8
0
100
AcDbCircle
10
3.4999964285696064
20
0.0050000000000000721
30
0
40
1.4733749999999997
210
0
220
-0
230
1
100
AcDbArc
50
32.973294071128485
51
37.564694794244353
0
ARC
5
269
100
AcDbEntity
8
0
100
AcDbCircle
10
3.4999964285696064
20
0.0050000000000000721
30
0
40
1.4733749999999997
210
0
220
-0
230
1
100
AcDbArc
50
44.253561727851697
51
48.844887747053264
0
ARC
5
270
100
AcDbEntity
8
0
100
AcDbCircle
10
3.4999964285696064
20
0.0050000000000000721
30
0
40
1.4733750000000001
210
2.0760961858476782e-48
220
-1.783397542505943e-48
230
1
100
AcDbArc
50
49.336930434764874
51
53.928331157880748
0
ARC
5
271
100
AcDbEntity
8
0
100
AcDbCircle
10
3.4999964285696064
20
0.0050000000000000721
30
0
40
1.4733749999999999
210
8.2092282422036525e-35
220
1.4579252537443207e-34
230
1
100
AcDbArc
50
60.617198091488085
51
65.208524110689623
0
ARC
5
272
100
AcDbEntity
8
0
100
AcDbCircle
10
3.4999964285696064
20
0.0050000000000000721
30
0
40
1.4733749999999999
210
1.1233962893292648e-32
220
-5.0721949532998695e-33
230
1
100
AcDbArc
50
65.70056679840124
51
70.291967521517151
0
ARC
5
273
100
AcDbEntity
8
0
100
AcDbCircle
10
3.4999964285696064
20
0.0050000000000000721
30
0
40
1.4733750000000001
210
6.0045550194287591e-33
220
-1.3883765092985169e-33
230
1
100
AcDbArc
50
76.980834455124452
51
81.572160474326068
0
ARC
5
274
100
AcDbEntity
8
0
100
AcDbCircle
10
3.4999964285696064
20
0.0050000000000000721
30
0
40
1.4733749999999999
210
0
220
0
230
1
100
AcDbArc
50
98.421891275450918
51
171.41553115780417
0
ARC
5
275
100
AcDbEntity
8
0
100
AcDbCircle
10
3.4999964285696064
20
0.0050000000000000721
30
0
40
1.4733749999999999
210
-8.2626457819577019e-34
220
-1.3096537338810409e-34
230
1
100
AcDbArc
50
189.00662383506972
51
261.57810872454911
0
ARC
5
276
100
AcDbEntity
8
0
100
AcDbCircle
10
3.4999964285696064
20
0.0050000000000000721
30
0
40
1.4733749999999997
210
0
220
0
230
1
100
AcDbArc
50
262.06420316203759
51
266.65560388515354
0
ENDSEC
0
SECTION
2
OBJECTS
0
DICTIONARY
5
C
100
AcDbDictionary
3
ACAD_GROUP
350
D
3
ACAD_MLINESTYLE
350
17
0
DICTIONARY
5
D
100
AcDbDictionary
0
DICTIONARY
5
1A
330
C
100
AcDbDictionary
0
DICTIONARY
5
17
100
AcDbDictionary
0
ENDSEC
0
EOF
