0
SECTION
2
HEADER
9
$INSUNITS
70
1
9
$ACADVER
1
AC1014
9
$HANDSEED
5
FFFF
0
ENDSEC
0
SECTION
2
TABLES
0
TABLE
2
VPORT
5
8
100
AcDbSymbolTable
0
ENDTAB
0
TABLE
2
LTYPE
5
5
100
AcDbSymbolTable
0
LTYPE
5
14
100
AcDbSymbolTableRecord
100
AcDbLinetypeTableRecord
2
BYBLOCK
70
0
0
LTYPE
5
15
100
AcDbSymbolTableRecord
100
AcDbLinetypeTableRecord
2
BYLAYER
70
0
0
ENDTAB
0
TABLE
2
LAYER
5
2
100
AcDbSymbolTable
70
2
0
LAYER
5
50
100
AcDbSymbolTableRecord
100
AcDbLayerTableRecord
2
0
70
0
6
CONTINUOUS
0
ENDTAB
0
TABLE
2
STYLE
5
3
100
AcDbSymbolTable
70
1
0
STYLE
5
11
100
AcDbSymbolTableRecord
100
AcDbTextStyleTableRecord
2
STANDARD
70
0
0
ENDTAB
0
TABLE
2
VIEW
5
6
100
AcDbSymbolTable
70
0
0
ENDTAB
0
TABLE
2
UCS
5
7
100
AcDbSymbolTable
70
0
0
ENDTAB
0
TABLE
2
APPID
5
9
100
AcDbSymbolTable
70
2
0
APPID
5
12
100
AcDbSymbolTableRecord
100
AcDbRegAppTableRecord
2
ACAD
70
0
0
ENDTAB
0
TABLE
2
DIMSTYLE
5
A
100
AcDbSymbolTable
70
1
0
ENDTAB
0
TABLE
2
BLOCK_RECORD
5
1
100
AcDbSymbolTable
70
1
0
BLOCK_RECORD
5
1F
100
AcDbSymbolTableRecord
100
AcDbBlockTableRecord
2
*MODEL_SPACE
0
BLOCK_RECORD
5
1B
100
AcDbSymbolTableRecord
100
AcDbBlockTableRecord
2
*PAPER_SPACE
0
ENDTAB
0
ENDSEC
0
SECTION
2
BLOCKS
0
BLOCK
5
20
100
AcDbEntity
100
AcDbBlockBegin
2
*MODEL_SPACE
0
ENDBLK
5
21
100
AcDbEntity
100
AcDbBlockEnd
0
BLOCK
5
1C
100
AcDbEntity
100
AcDbBlockBegin
2
*PAPER_SPACE
0
ENDBLK
5
1D
100
AcDbEntity
100
AcDbBlockEnd
0
ENDSEC
0
SECTION
2
ENTITIES
0
ARC
5
100
100
AcDbEntity
8
0
100
AcDbCircle
10
3.4146288717569293
20
-1.4583827172415889
30
-2.405909146911337e-47
40
0.010000000000000448
210
1.2109222866974393e-32
220
1.9880211857495358e-32
230
1
100
AcDbArc
50
-93.344414731903839
51
30.172813365682408
0
ARC
5
101
100
AcDbEntity
8
0
100
AcDbCircle
10
3.4999995685992036
20
-1.408750000001199
30
0
40
0.08874999999999976
210
-1.277718737077701e-37
220
-9.021084022891829e-39
230
1
100
AcDbArc
50
94.038555247350459
51
210.17281336568448
0
LINE
5
102
100
AcDbEntity
8
0
100
AcDbLine
10
3.493749107142746
20
-1.3202203765320952
30
0
11
3.4937491071427473
21
-0.95739775686806139
31
0
0
ARC
5
103
100
AcDbEntity
8
0
100
AcDbCircle
10
3.4999991071427439
20
-0.95739775686806161
30
0
40
0.0062499999999962733
210
1.3362234223243289e-77
220
4.7766408998201163e-64
230
1
100
AcDbArc
50
0
51
180
0
LINE
5
104
100
AcDbEntity
8
0
100
AcDbLine
10
3.50624910714274
20
-0.95739775686806172
30
0
11
3.5062491071427413
21
-1.3202203113764626
31
0
0
ARC
5
105
100
AcDbEntity
8
0
100
AcDbCircle
10
3.4999995685992036
20
-1.408750000001199
30
0
40
0.088749999999999968
210
2.1311908479543909e-32
220
-1.2390274116748569e-32
230
1
100
AcDbArc
50
-30.172775896054222
51
85.962042055491636
0
ARC
5
106
100
AcDbEntity
8
0
100
AcDbCircle
10
3.5853702978996878
20
-1.4583826614118394
30
-1.4479229295617562e-48
40
0.0099999999999994
210
-1.8914318775595559e-31
220
1.0996368278616331e-31
230
1
100
AcDbArc
50
149.82722410394103
51
273.34445220153623
0
ARC
5
107
100
AcDbEntity
8
0
100
AcDbCircle
10
3.4999991071427439
20
0.0025000000000006592
30
0
40
1.4733749999999994
210
1.0215622336258169e-35
220
-1.670043465468393e-34
230
1
100
AcDbArc
50
273.34445220152912
51
277.93579683796241
0
ARC
5
108
100
AcDbEntity
8
0
100
AcDbCircle
10
3.6366561204601981
20
-0.94762028941155108
30
0
40
0.0062499999999954155
210
0
220
-0
230
1
100
AcDbArc
50
8.18479230692488
51
98.638599982648032
0
ARC
5
109
100
AcDbEntity
8
0
100
AcDbCircle
10
3.6365574815123374
20
-0.94763447155119573
30
0
40
0.0062499999999977851
210
-1.082584756129935e-34
220
-1.4685293196891839e-35
230
1
100
AcDbArc
50
97.72503637822588
51
188.1788440567106
0
ARC
5
110
100
AcDbEntity
8
0
100
AcDbCircle
10
3.8296651893081677
20
-1.4232582771615594
30
0
40
0.010000000000000365
210
0
220
0
230
1
100
AcDbArc
50
-76.980778368260673
51
46.536449729317305
0
ARC
5
111
100
AcDbEntity
8
0
100
AcDbCircle
10
3.8975946207497802
20
-1.3515843290073013
30
0
40
0.088749999999999885
210
0
220
0
230
1
100
AcDbArc
50
110.40219161098632
51
226.53644972932125
0
LINE
5
112
100
AcDbEntity
8
0
100
AcDbLine
10
3.866655669724302
20
-1.2684017358195252
30
0
11
3.764436725406449
21
-0.9202759815834799
31
0
0
ARC
5
113
100
AcDbEntity
8
0
100
AcDbCircle
10
3.7704335564915361
20
-0.91851515310322218
30
0
40
0.0062499999999962308
210
4.3683083913148182e-46
220
1.2826510730150153e-46
230
1
100
AcDbArc
50
16.363636363635688
51
196.36363636363473
0
LINE
5
114
100
AcDbEntity
8
0
100
AcDbLine
10
3.7764303875766232
20
-0.91675432462296436
30
-2.8454536089881221e-48
11
3.8786493135380158
21
-1.2648800163426379
31
0
0
ARC
5
115
100
AcDbEntity
8
0
100
AcDbCircle
10
3.8975946207497802
20
-1.3515843290073013
30
0
40
0.088749999999999871
210
5.9848425118288397e-33
220
-1.471030622266384e-33
230
1
100
AcDbArc
50
-13.809139532418277
51
102.32567841912758
0
ARC
5
116
100
AcDbEntity
8
0
100
AcDbCircle
10
3.9934903722680049
20
-1.3751548050473557
30
-4.4447866674919027e-48
40
0.0099999999999993254
210
-5.82662166527337e-32
220
-7.9002267364801302e-33
230
1
100
AcDbArc
50
166.19086046757843
51
289.7080885651705
0
ARC
5
117
100
AcDbEntity
8
0
100
AcDbCircle
10
3.8988003696588196
20
-0.87063301200671583
30
0
40
0.0062499999999957668
210
-7.7930876117707307e-39
220
1.7062137708316119e-38
230
1
100
AcDbArc
50
24.548428670559346
51
115.00223634666982
0
ARC
5
118
100
AcDbEntity
8
0
100
AcDbCircle
10
3.8987097218518865
20
-0.87067440947304109
30
0
40
0.0062499999999976871
210
-9.9735921486077485e-35
220
-4.4590372773575007e-35
230
1
100
AcDbArc
50
114.08867274224991
51
204.54248042034362
0
ARC
5
119
100
AcDbEntity
8
0
100
AcDbCircle
10
4.2179939214820452
20
-1.2726273807768653
30
-9.2431359108070248e-48
40
0.010000000000000175
210
1.3867404895142633e-32
220
1.9601914084798758e-32
230
1
100
AcDbArc
50
-60.617142004624014
51
62.900086092956357
0
ARC
5
120
100
AcDbEntity
8
0
100
AcDbCircle
10
4.2629788489794818
20
-1.1847187987268151
30
0
40
0.088749999999999885
210
-1.6077638660688642e-32
220
1.8760347068907642e-32
230
1
100
AcDbArc
50
126.76582797462268
51
242.90008609295683
0
LINE
5
121
100
AcDbEntity
8
0
100
AcDbLine
10
4.2098578981960397
20
-1.1136221948145106
30
-2.1878564168238957e-33
11
4.0137011805094955
21
-0.80839638423107785
31
0
0
ARC
5
122
100
AcDbEntity
8
0
100
AcDbCircle
10
4.0189590150896874
20
-0.80501737912198268
30
0
40
0.006249999999996452
210
0
220
-0
230
1
100
AcDbArc
50
32.727272727269586
51
212.72727272726959
0
LINE
5
123
100
AcDbEntity
8
0
100
AcDbLine
10
4.0242168496698794
20
-0.80163837401288751
30
0
11
4.2203735321306306
21
-1.1068641297839121
31
0
0
ARC
5
124
100
AcDbEntity
8
0
100
AcDbCircle
10
4.2629788489794818
20
-1.1847187987268151
30
0
40
0.088749999999999885
210
-1.5392128891730644e-33
220
-6.8670359278617643e-35
230
1
100
AcDbArc
50
2.5544968312181151
51
118.68931478276413
0
ARC
5
125
100
AcDbEntity
8
0
100
AcDbCircle
10
4.3616307192414352
20
-1.1803175496065359
30
9.3946627290169769e-48
40
0.0099999999999998875
210
1.3660514391410174e-32
220
6.0944943859704502e-34
230
1
100
AcDbArc
50
182.5544968312154
51
306.07172492880295
0
ARC
5
126
100
AcDbEntity
8
0
100
AcDbCircle
10
4.1286361123308195
20
-0.72290969069106259
30
0
40
0.0062499999999954745
210
0
220
-0
230
1
100
AcDbArc
50
40.912065034194846
51
131.36587271004345
0
ARC
5
127
100
AcDbEntity
8
0
100
AcDbCircle
10
4.1285607994110283
20
-0.72297494970754583
30
0
40
0.0062499999999976541
210
1.6326928561041335e-35
220
1.3921027866028662e-35
230
1
100
AcDbArc
50
130.45230910562043
51
220.90611678398122
0
ARC
5
128
100
AcDbEntity
8
0
100
AcDbCircle
10
4.5481549838777324
20
-1.0186932474761607
30
8.0814303045307326e-49
40
0.0099999999999998701
210
1.4725450275091728e-33
220
-1.799532356150656e-32
230
1
100
AcDbArc
50
-44.253505640991882
51
79.263722456594863
0
ARC
5
129
100
AcDbEntity
8
0
100
AcDbCircle
10
4.5665509961408128
20
-0.92167186203554519
30
0
40
0.088749999999999857
210
3.1498252699411435e-47
220
-2.3439158881192476e-47
230
1
100
AcDbArc
50
143.12946433825965
51
259.26372245659434
0
LINE
5
130
100
AcDbEntity
8
0
100
AcDbLine
10
4.4955515891094224
20
-0.86842107141990388
30
3.4845110059722448e-48
11
4.2213485487322329
21
-0.63082278441476247
31
0
0
ARC
5
131
100
AcDbEntity
8
0
100
AcDbCircle
10
4.2254414283193888
20
-0.62609934957505131
30
0
40
0.0062499999999962585
210
0
220
-0
230
1
100
AcDbArc
50
49.090909090914373
51
229.09090909090554
0
LINE
5
132
100
AcDbEntity
8
0
100
AcDbLine
10
4.2295343079065439
20
-0.62137591473533971
30
0
11
4.5037372990423945
21
-0.85897415907261376
31
0
0
ARC
5
133
100
AcDbEntity
8
0
100
AcDbCircle
10
4.5665509961408128
20
-0.92167186203554519
30
0
40
0.088749999999999982
210
4.2838657592659122e-48
220
1.4682083801084846e-48
230
1
100
AcDbArc
50
18.918133194853837
51
135.05295114640046
0
ARC
5
134
100
AcDbEntity
8
0
100
AcDbCircle
10
4.6599667973231336
20
-0.88965545078342201
30
8.9905912137904397e-48
40
0.0099999999999997174
210
-8.846959012700762e-46
220
-3.1566001996802751e-46
230
1
100
AcDbArc
50
198.91813319485431
51
322.43536129244075
0
ARC
5
135
100
AcDbEntity
8
0
100
AcDbCircle
10
4.3075434234907073
20
-0.51641799041316505
30
0
40
0.0062499999999955386
210
2.9252113716266202e-37
220
-1.8797046499724871e-37
230
1
100
AcDbArc
50
57.27570139784148
51
147.72950907337159
0
ARC
5
136
100
AcDbEntity
8
0
100
AcDbCircle
10
4.3074895468629153
20
-0.51650182408240142
30
0
40
0.0062499999999977773
210
0
220
0
230
1
100
AcDbArc
50
146.81594546895306
51
237.2697531476237
0
ARC
5
137
100
AcDbEntity
8
0
100
AcDbCircle
10
4.7934006907633693
20
-0.68202811053502832
30
-2.5885831444200002e-48
40
0.0099999999999998198
210
2.2760349195300593e-33
220
-1.1916617574583405e-33
230
1
100
AcDbArc
50
-27.889869277358883
51
95.627358820236338
0
ARC
5
138
100
AcDbEntity
8
0
100
AcDbCircle
10
4.7837174522838408
20
-0.58375401734384968
30
0
40
0.088749999999999885
210
-4.8097717754912772e-53
220
-1.2859598163913392e-52
230
1
100
AcDbArc
50
159.49310070189605
51
275.62735882022866
0
LINE
5
139
100
AcDbEntity
8
0
100
AcDbLine
10
4.7005915387124535
20
-0.55266310238590399
30
0
11
4.3705564752277049
21
-0.40194113912078938
31
0
0
ARC
5
140
100
AcDbEntity
8
0
100
AcDbCircle
10
4.3731528190589657
20
-0.39625593914982693
30
0
40
0.0062499999999962733
210
0
220
-0
230
1
100
AcDbArc
50
65.454545454540664
51
245.45454545454083
0
LINE
5
141
100
AcDbEntity
8
0
100
AcDbLine
10
4.3757491628902265
20
-0.39057073917886453
30
0
11
4.7057841671073266
21
-0.54129267537734826
31
0
0
ARC
5
142
100
AcDbEntity
8
0
100
AcDbCircle
10
4.7837174522838408
20
-0.58375401734384968
30
0
40
0.088749999999999857
210
-1.415887184635241e-32
220
2.0010789428553188e-32
230
1
100
AcDbArc
50
35.281769558490822
51
151.41658751003703
0
ARC
5
143
100
AcDbEntity
8
0
100
AcDbCircle
10
4.8643291917398983
20
-0.52671622319059885
30
-1.4277193538004294e-47
40
0.01000000000000012
210
6.7169713877003195e-33
220
-9.4931221565851918e-33
230
1
100
AcDbArc
50
215.28176955849051
51
338.79899765607684
0
ARC
5
144
100
AcDbEntity
8
0
100
AcDbCircle
10
4.4210282967910564
20
-0.26788664067611001
30
0
40
0.0062499999999956124
210
1.839533056135935e-51
220
-5.4003192195377772e-52
230
1
100
AcDbArc
50
73.63933776147546
51
164.09314543715445
0
ARC
5
145
100
AcDbEntity
8
0
100
AcDbCircle
10
4.4210002212192308
20
-0.26798225729279762
30
0
40
0.0062499999999978562
210
-2.533999387517127e-50
220
-8.3822140431763968e-50
230
1
100
AcDbArc
50
163.17958183272657
51
253.63338951125112
0
ARC
5
146
100
AcDbEntity
8
0
100
AcDbCircle
10
4.9338626934994636
20
-0.28990657712377504
30
0
40
0.0099999999999999985
210
-5.3521509293548644e-33
220
-2.6245149482528184e-32
230
1
100
AcDbArc
50
-11.526232913716218
51
111.99099518386176
0
ARC
5
147
100
AcDbEntity
8
0
100
AcDbCircle
10
4.8968846826704997
20
-0.19834135875384512
30
0
40
0.088749999999999732
210
4.5166460381752616e-48
220
-3.2718535521221077e-49
230
1
100
AcDbArc
50
175.85673706553217
51
291.99099518386555
0
LINE
5
148
100
AcDbEntity
8
0
100
AcDbLine
10
4.8083666297078258
20
-0.19192912047869654
30
4.0190270367860712e-49
11
4.4492370211649552
21
-0.1402940780393189
31
0
0
ARC
5
149
100
AcDbEntity
8
0
100
AcDbCircle
10
4.4501264889041625
20
-0.1341076940275667
30
0
40
0.006249999999996269
210
0
220
-0
230
1
100
AcDbArc
50
81.818181818175717
51
261.81818181818386
0
LINE
5
150
100
AcDbEntity
8
0
100
AcDbLine
10
4.4510159566433707
20
-0.12792131001581458
30
0
11
4.8101455006937988
21
-0.17955634318257602
31
0
0
ARC
5
151
100
AcDbEntity
8
0
100
AcDbCircle
10
4.8968846826704997
20
-0.19834135875384512
30
0
40
0.088749999999999857
210
1.5297166101531727e-32
220
1.9331659137043568e-32
230
1
100
AcDbArc
50
51.6454059221279
51
167.78022387367324
0
ARC
5
152
100
AcDbEntity
8
0
100
AcDbCircle
10
4.9581616766860375
20
-0.12090304456493986
30
-7.4511208315601711e-48
40
0.0099999999999997209
210
-1.2518596717098204e-31
220
-1.7993757355021454e-31
230
1
100
AcDbArc
50
231.64540592212995
51
355.16263401971042
0
ARC
5
153
100
AcDbEntity
8
0
100
AcDbCircle
10
4.4598968627175992
20
0.0025498266372530509
30
0
40
0.0062499999999956219
210
1.5403595391532976e-33
220
7.9957407393983674e-38
230
1
100
AcDbArc
50
90.002974125101673
51
180.45678180059744
0
ARC
5
154
100
AcDbEntity
8
0
100
AcDbCircle
10
4.4598968627175983
20
0.0024501733627465354
30
0
40
0.0062499999999974928
210
7.7039022428990435e-34
220
-7.8217259293885932e-37
230
1
100
AcDbArc
50
179.54321819618059
51
269.99702587489838
0
ARC
5
155
100
AcDbEntity
8
0
100
AcDbCircle
10
4.9581615959840342
20
0.12590399815717282
30
9.0579364663281963e-48
40
0.010000000000000689
210
-1.5458355563961639e-32
220
2.1236221112565804e-32
230
1
100
AcDbArc
50
4.8374034499234959
51
128.35463154749834
0
ARC
5
156
100
AcDbEntity
8
0
100
AcDbCircle
10
4.8968845513262966
20
0.20334227227284368
30
0
40
0.088749999999999774
210
5.2063691831616801e-33
220
-2.4039024375794442e-32
230
1
100
AcDbArc
50
192.22037342916875
51
308.35463154750272
0
LINE
5
157
100
AcDbEntity
8
0
100
AcDbLine
10
4.8101455651862413
20
0.18455635245519106
30
0
11
4.4510159566433698
21
0.13292131001581553
31
2.4263684338736828e-33
0
ARC
5
158
100
AcDbEntity
8
0
100
AcDbCircle
10
4.4501264889041625
20
0.1391076940275677
30
0
40
0.006249999999996269
210
0
220
0
230
1
100
AcDbArc
50
98.18181818181624
51
278.18181818181614
0
LINE
5
159
100
AcDbEntity
8
0
100
AcDbLine
10
4.4492370211649552
20
0.14529407803931982
30
0
11
4.8083665652153842
21
0.19692911120608536
31
-2.4263684338736828e-33
0
ARC
5
160
100
AcDbEntity
8
0
100
AcDbCircle
10
4.8968845513262966
20
0.20334227227284368
30
0
40
0.088749999999999843
210
-1.7649827828611904e-50
220
7.1277533865244347e-51
230
1
100
AcDbArc
50
68.009042285764366
51
184.14386023730953
0
ARC
5
161
100
AcDbEntity
8
0
100
AcDbCircle
10
4.9338625022744926
20
0.29490751482520494
30
0
40
0.010000000000000031
210
1.5785369942331705e-32
220
-6.3748057576856085e-33
230
1
100
AcDbArc
50
-111.99095771423472
51
11.526270383345247
0
ARC
5
162
100
AcDbEntity
8
0
100
AcDbCircle
10
4.4210002212192308
20
0.27298225729279652
30
0
40
0.0062499999999956549
210
1.5519078158355577e-36
220
4.5576875285143507e-37
230
1
100
AcDbArc
50
106.36661048873913
51
196.8204181649655
0
ARC
5
163
100
AcDbEntity
8
0
100
AcDbCircle
10
4.4210282967910564
20
0.27288664067610952
30
0
40
0.006249999999997714
210
4.4849112000406432e-35
220
-1.5737257200039692e-34
230
1
100
AcDbArc
50
195.90685456054354
51
286.36066223852691
0
ARC
5
164
100
AcDbEntity
8
0
100
AcDbCircle
10
4.8643288456489131
20
0.53171711541926403
30
-1.3780522300538342e-47
40
0.009999999999999962
210
1.9445186611155955e-32
220
4.4342742718588772e-32
230
1
100
AcDbArc
50
21.201039813550238
51
144.71826791113807
0
ARC
5
165
100
AcDbEntity
8
0
100
AcDbCircle
10
4.7837170688919581
20
0.58875485685497098
30
0
40
0.088749999999999662
210
0
220
0
230
1
100
AcDbArc
50
208.58400979280495
51
324.71826791113915
0
LINE
5
166
100
AcDbEntity
8
0
100
AcDbLine
10
4.7057842263749752
20
0.54629270244397721
30
0
11
4.3757491628902256
21
0.39557073917886559
31
0
0
ARC
5
167
100
AcDbEntity
8
0
100
AcDbCircle
10
4.3731528190589657
20
0.40125593914982799
30
0
40
0.0062499999999962872
210
0
220
0
230
1
100
AcDbArc
50
114.54545454546061
51
294.54545454545195
0
LINE
5
168
100
AcDbEntity
8
0
100
AcDbLine
10
4.3705564752277049
20
0.40694113912079005
30
0
11
4.7005914794448049
21
0.55766307531927628
31
0
0
ARC
5
169
100
AcDbEntity
8
0
100
AcDbCircle
10
4.7837170688919581
20
0.58875485685497098
30
0
40
0.088749999999999801
210
-5.550660396118228e-50
220
-5.6333214521802594e-49
230
1
100
AcDbArc
50
84.372678649400044
51
200.50749660094607
0
ARC
5
170
100
AcDbEntity
8
0
100
AcDbCircle
10
4.7934002431033331
20
0.68702895637866079
30
2.2358623842535026e-47
40
0.0099999999999998059
210
-1.0737676058165852e-32
220
1.0580080448491503e-33
230
1
100
AcDbArc
50
-95.627321350602656
51
27.889906746986917
0
ARC
5
171
100
AcDbEntity
8
0
100
AcDbCircle
10
4.3074895468629171
20
0.52150182408240175
30
0
40
0.0062499999999955907
210
0
220
0
230
1
100
AcDbArc
50
122.7302468523884
51
213.18405452778518
0
ARC
5
172
100
AcDbEntity
8
0
100
AcDbCircle
10
4.3075434234907082
20
0.52141799041316361
30
0
40
0.0062499999999976845
210
0
220
0
230
1
100
AcDbArc
50
212.27049092335898
51
302.72429860217028
0
ARC
5
173
100
AcDbEntity
8
0
100
AcDbCircle
10
4.659966213881404
20
0.89465620936545887
30
3.0473726773334639e-48
40
0.009999999999999792
210
-2.3421255569898339e-32
220
-3.2601230973640995e-33
230
1
100
AcDbArc
50
37.56467617719165
51
161.08190427477692
0
ARC
5
174
100
AcDbEntity
8
0
100
AcDbCircle
10
4.5665503917613819
20
0.92667255952659333
30
0
40
0.088749999999999774
210
0
220
0
230
1
100
AcDbArc
50
224.94764615644121
51
341.08190427477513
0
LINE
5
175
100
AcDbEntity
8
0
100
AcDbLine
10
4.5037373482837362
20
0.86397420174048079
30
0
11
4.2295343079065448
21
0.62637591473534138
31
0
0
ARC
5
176
100
AcDbEntity
8
0
100
AcDbCircle
10
4.2254414283193897
20
0.63109934957505309
30
0
40
0.0062499999999962542
210
0
220
0
230
1
100
AcDbArc
50
130.90909090909514
51
310.90909090908502
0
LINE
5
177
100
AcDbEntity
8
0
100
AcDbLine
10
4.2213485487322338
20
0.63582278441476414
30
0
11
4.4955515398680816
21
0.87342102875203986
31
0
0
ARC
5
178
100
AcDbEntity
8
0
100
AcDbCircle
10
4.5665503917613819
20
0.92667255952659333
30
0
40
0.088749999999999857
210
4.5923797438501337e-33
220
-2.4220371260923445e-32
230
1
100
AcDbArc
50
100.73631501303767
51
216.87113296458253
0
ARC
5
179
100
AcDbEntity
8
0
100
AcDbCircle
10
4.5481543160493807
20
1.0236939329367771
30
0
40
0.010000000000000028
210
-4.0757370226674571e-32
220
2.1495579494069364e-31
230
1
100
AcDbArc
50
-79.263684986964094
51
44.253543110620797
0
ARC
5
180
100
AcDbEntity
8
0
100
AcDbCircle
10
4.1285607994110292
20
0.7279749497075465
30
0
40
0.0062499999999956739
210
-1.6138568809169954e-32
220
-1.8626854832543416e-32
230
1
100
AcDbArc
50
139.09388321601045
51
229.5476908921068
0
ARC
5
181
100
AcDbEntity
8
0
100
AcDbCircle
10
4.1286361123308213
20
0.72790969069106293
30
0
40
0.0062499999999977756
210
-1.3898493350960589e-34
220
1.2238465051249223e-34
230
1
100
AcDbArc
50
228.63412728768247
51
319.08793496580427
0
ARC
5
182
100
AcDbEntity
8
0
100
AcDbCircle
10
4.3616299457159373
20
1.1853181130861397
30
-1.3873122022777757e-47
40
0.010000000000000288
210
1.6092234789865709e-32
220
-2.7677037344808423e-32
230
1
100
AcDbArc
50
53.928312540828927
51
177.44554063840914
0
ARC
5
183
100
AcDbEntity
8
0
100
AcDbCircle
10
4.2629780725757271
20
1.1897192976912121
30
0
40
0.088749999999999926
210
1.0320622693118889e-53
220
-5.6477346948237407e-54
230
1
100
AcDbArc
50
241.31128252007701
51
357.44554063841173
0
LINE
5
184
100
AcDbEntity
8
0
100
AcDbLine
10
4.2203735673564235
20
1.1118641845963206
30
0
11
4.0242168496698785
21
0.80663837401288896
31
0
0
ARC
5
185
100
AcDbEntity
8
0
100
AcDbCircle
10
4.0189590150896874
20
0.81001737912198424
30
0
40
0.0062499999999960521
210
0
220
0
230
1
100
AcDbArc
50
147.27272727272785
51
327.27272727272515
0
LINE
5
186
100
AcDbEntity
8
0
100
AcDbLine
10
4.0137011805094955
20
0.81339638423107974
30
0
11
4.2098578629702441
21
1.1186221400021068
31
0
0
ARC
5
187
100
AcDbEntity
8
0
100
AcDbCircle
10
4.2629780725757271
20
1.1897192976912121
30
0
40
0.088749999999999774
210
-7.153430705095716e-39
220
-3.6605877751907062e-39
230
1
100
AcDbArc
50
117.09995137667241
51
233.2347693282187
0
ARC
5
188
100
AcDbEntity
8
0
100
AcDbCircle
10
4.2179930875888667
20
1.2776278503225218
30
-1.6196533235330342e-47
40
0.0099999999999995769
210
1.9210283991833756e-32
220
9.8303784000442766e-33
230
1
100
AcDbArc
50
-62.900048623331152
51
60.617179474261206
0
ARC
5
189
100
AcDbEntity
8
0
100
AcDbCircle
10
3.8987097218518878
20
0.87567440947304187
30
0
40
0.0062499999999957295
210
9.3391487068391922e-38
220
2.0452692645324514e-37
230
1
100
AcDbArc
50
155.4575195796553
51
245.91132725542698
0
ARC
5
190
100
AcDbEntity
8
0
100
AcDbCircle
10
3.8988003696588209
20
0.87563301200671662
30
0
40
0.0062499999999977417
210
3.7047592191029321e-39
220
-1.7277336444284527e-39
230
1
100
AcDbArc
50
244.99776365100703
51
335.45157132943666
0
ARC
5
191
100
AcDbEntity
8
0
100
AcDbCircle
10
3.9934894713251761
20
1.3801551277747606
30
6.1957632334735621e-48
40
0.010000000000000222
210
5.4889570398178953e-34
220
-1.841336009699692e-32
230
1
100
AcDbArc
50
70.291948904463752
51
193.8091770020504
0
ARC
5
192
100
AcDbEntity
8
0
100
AcDbCircle
10
3.8975937352213186
20
1.3565845890219195
30
0
40
0.088749999999999885
210
2.41660207629771e-49
220
1.1060274407650038e-48
230
1
100
AcDbArc
50
-102.32508111628638
51
13.809177002047958
0
LINE
5
193
100
AcDbEntity
8
0
100
AcDbLine
10
3.8786493318944775
20
1.2698800788590108
30
1.004756759196518e-49
11
3.7764303875766232
21
0.92175432462296558
31
0
0
ARC
5
194
100
AcDbEntity
8
0
100
AcDbCircle
10
3.7704335564915361
20
0.92351515310322363
30
0
40
0.0062499999999962802
210
0
220
0
230
1
100
AcDbArc
50
163.63636363636235
51
343.63636363636226
0
LINE
5
195
100
AcDbEntity
8
0
100
AcDbLine
10
3.764436725406449
20
0.92527598158348168
30
0
11
3.8666556513678385
21
1.2734016733031559
31
0
0
ARC
5
196
100
AcDbEntity
8
0
100
AcDbCircle
10
3.8975937352213186
20
1.3565845890219195
30
0
40
0.088749999999999732
210
1.7792090888400485e-32
220
1.6862587207609192e-32
230
1
100
AcDbArc
50
133.46358774030895
51
249.59840569185513
0
ARC
5
197
100
AcDbEntity
8
0
100
AcDbCircle
10
3.8296642569072219
20
1.4282584927524595
30
-1.5422062831146148e-47
40
0.010000000000000476
210
-1.7772685898817791e-32
220
-1.6844195983601796e-32
230
1
100
AcDbArc
50
-46.536412259685946
51
76.980815837886979
0
ARC
5
198
100
AcDbEntity
8
0
100
AcDbCircle
10
3.6365574815123392
20
0.9526344715511974
30
0
40
0.0062499999999955725
210
0
220
0
230
1
100
AcDbArc
50
171.8211559432915
51
262.27496361899836
0
ARC
5
199
100
AcDbEntity
8
0
100
AcDbCircle
10
3.6366561204601999
20
0.95262028941155208
30
0
40
0.0062499999999977652
210
-2.7191587802633684e-34
220
4.1310808094727389e-35
230
1
100
AcDbArc
50
261.36140001457568
51
351.81520769307343
0
ARC
5
200
100
AcDbEntity
8
0
100
AcDbCircle
10
3.4999991071427439
20
0.0025000000000006592
30
0
40
1.4733749999999997
210
3.1840067474866828e-36
220
-4.4384520629594131e-37
230
1
100
AcDbArc
50
82.064203162037572
51
86.655585268100737
0
ARC
5
201
100
AcDbEntity
8
0
100
AcDbCircle
10
3.5853693425285589
20
1.4633827172415905
30
0
40
0.0099999999999997903
210
-1.1674817763194402e-32
220
6.8224637663917816e-34
230
1
100
AcDbArc
50
86.655585268093404
51
210.17281336568806
0
ARC
5
202
100
AcDbEntity
8
0
100
AcDbCircle
10
3.4999986456862833
20
1.4137500000012009
30
0
40
0.088750000000000329
210
0
220
0
230
1
100
AcDbArc
50
-85.961444752649257
51
30.172813365683268
0
LINE
5
203
100
AcDbEntity
8
0
100
AcDbLine
10
3.5062491071427413
20
1.3252203765320965
30
0
11
3.50624910714274
21
0.96239775686806284
31
0
0
ARC
5
204
100
AcDbEntity
8
0
100
AcDbCircle
10
3.4999991071427439
20
0.96239775686806306
30
0
40
0.0062499999999962733
210
0
220
0
230
1
100
AcDbArc
50
180
51
360
0
LINE
5
205
100
AcDbEntity
8
0
100
AcDbLine
10
3.4937491071427473
20
0.96239775686806317
30
0
11
3.493749107142746
21
1.325220311376464
31
0
0
ARC
5
206
100
AcDbEntity
8
0
100
AcDbCircle
10
3.4999986456862833
20
1.4137500000012009
30
0
40
0.088749999999999177
210
-1.1405562305813088e-32
220
-1.9618153539528881e-32
230
1
100
AcDbArc
50
149.82722410394587
51
265.96204205549191
0
ARC
5
207
100
AcDbEntity
8
0
100
AcDbCircle
10
3.4146279163857995
20
1.4633826614118406
30
-5.7243464657092691e-49
40
0.0099999999999993133
210
-3.5705444752337663e-33
220
-6.1415200633414905e-33
230
1
100
AcDbArc
50
-30.172775896057885
51
93.344452201533684
0
ARC
5
208
100
AcDbEntity
8
0
100
AcDbCircle
10
3.4999991071427439
20
0.0025000000000006592
30
0
40
1.473374999999999
210
1.0215676779861221e-35
220
-1.670043433652577e-34
230
1
100
AcDbArc
50
93.344452201529066
51
97.935796837962414
0
LINE
5
209
100
AcDbEntity
8
0
100
AcDbLine
10
3.2965800005255477
20
1.461765074511161
30
3.6204941677210254e-32
11
3.3696271629473058
21
0.95352361816468112
31
0
0
ARC
5
210
100
AcDbEntity
8
0
100
AcDbCircle
10
3.3634407327731504
20
0.95263447155119718
30
0
40
0.0062499999999977235
210
-1.5574531256364215e-48
220
1.0836317503946211e-47
230
1
100
AcDbArc
50
-171.82115594329036
51
8.1788440567106289
0
LINE
5
211
100
AcDbEntity
8
0
100
AcDbLine
10
3.3572543025989949
20
0.95174532493771336
30
0
11
3.2842071401772359
21
1.4599867812841936
31
0
0
ARC
5
212
100
AcDbEntity
8
0
100
AcDbCircle
10
2.1427744055457678
20
0.21249999999999988
30
0
40
0.099999999999999922
210
0
220
0
230
1
100
AcDbArc
50
171.20451382045911
51
270
0
LINE
5
213
100
AcDbEntity
8
0
100
AcDbLine
10
2.1427744055457678
20
0.11249999999999993
30
0
11
2.7499991071427465
21
0.11249999999999998
31
0
0
LINE
5
214
100
AcDbEntity
8
0
100
AcDbLine
10
2.7499991071427465
20
0.11249999999999998
30
0
11
2.7499991071427465
21
-0.11250000000000002
31
0
0
LINE
5
215
100
AcDbEntity
8
0
100
AcDbLine
10
2.7499991071427465
20
-0.11250000000000002
30
0
11
2.143557478975501
21
-0.11250000000000002
31
0
0
ARC
5
216
100
AcDbEntity
8
0
100
AcDbCircle
10
2.143557478975501
20
-0.2124999999999998
30
-2.0203575761326831e-48
40
0.09999999999999977
210
6.0857622797145861e-33
220
-2.0203575761326878e-47
230
1
100
AcDbArc
50
90
51
189.00662383506986
0
LINE
5
217
100
AcDbEntity
8
0
100
AcDbLine
10
3.2842071401772359
20
-1.4549867812841921
30
0
11
3.3572543025989949
21
-0.94674532493771202
31
0
0
ARC
5
218
100
AcDbEntity
8
0
100
AcDbCircle
10
3.3634407327731481
20
-0.94763447155119573
30
0
40
0.0062499999999956219
210
-0
220
0
230
1
100
AcDbArc
50
-8.1788440567114868
51
171.82115594328852
0
LINE
5
219
100
AcDbEntity
8
0
100
AcDbLine
10
3.3696271629473014
20
-0.94852361816467945
30
0
11
3.2965800005255468
21
-1.4567650745111589
31
0
0
CIRCLE
5
220
100
AcDbEntity
8
0
100
AcDbCircle
10
3.4999986456862833
20
1.4137500000012009
30
0
40
0.088749999999999982
210
0
220
0
230
1
0
CIRCLE
5
221
100
AcDbEntity
8
0
100
AcDbCircle
10
3.8975937352213186
20
1.3565845890219199
30
0
40
0.088749999999999982
210
0
220
0
230
1
0
CIRCLE
5
222
100
AcDbEntity
8
0
100
AcDbCircle
10
4.2629780725757263
20
1.1897192976912125
30
0
40
0.088749999999999982
210
0
220
0
230
1
0
CIRCLE
5
223
100
AcDbEntity
8
0
100
AcDbCircle
10
4.5665503917613819
20
0.92667255952659366
30
0
40
0.088749999999999982
210
0
220
0
230
1
0
CIRCLE
5
224
100
AcDbEntity
8
0
100
AcDbCircle
10
4.7837170688919581
20
0.58875485685497231
30
0
40
0.088749999999999982
210
0
220
0
230
1
0
CIRCLE
5
225
100
AcDbEntity
8
0
100
AcDbCircle
10
4.8968845513262975
20
0.20334227227284407
30
0
40
0.088749999999999982
210
0
220
0
230
1
0
CIRCLE
5
226
100
AcDbEntity
8
0
100
AcDbCircle
10
4.8968846826704997
20
-0.19834135875384462
30
0
40
0.088749999999999982
210
0
220
0
230
1
0
CIRCLE
5
227
100
AcDbEntity
8
0
100
AcDbCircle
10
4.7837174522838408
20
-0.58375401734384913
30
0
40
0.088749999999999982
210
0
220
0
230
1
0
CIRCLE
5
228
100
AcDbEntity
8
0
100
AcDbCircle
10
4.5665509961408137
20
-0.92167186203554496
30
0
40
0.088749999999999982
210
0
220
0
230
1
0
CIRCLE
5
229
100
AcDbEntity
8
0
100
AcDbCircle
10
4.2629788489794826
20
-1.1847187987268151
30
0
40
0.088749999999999982
210
0
220
0
230
1
0
CIRCLE
5
230
100
AcDbEntity
8
0
100
AcDbCircle
10
3.8975946207497802
20
-1.3515843290073015
30
0
40
0.088749999999999982
210
0
220
0
230
1
0
CIRCLE
5
231
100
AcDbEntity
8
0
100
AcDbCircle
10
3.499999568599204
20
-1.4087500000011994
30
0
40
0.088749999999999982
210
0
220
0
230
1
0
LINE
5
232
100
AcDbEntity
8
0
100
AcDbLine
10
3.7034182137599405
20
-1.4567650745111598
30
-3.6204941677210254e-32
11
3.6303710513381819
21
-0.94852361816467967
31
0
0
LINE
5
233
100
AcDbEntity
8
0
100
AcDbLine
10
3.6428424582928787
20
-0.94673050054901664
30
0
11
3.7159423841960333
21
-1.4549643706521553
31
0
0
LINE
5
234
100
AcDbEntity
8
0
100
AcDbLine
10
4.1063007911923117
20
-1.3403448006168308
30
0
11
3.8930243871168506
21
-0.87327045819187776
31
0
0
LINE
5
235
100
AcDbEntity
8
0
100
AcDbLine
10
3.9044854348503915
20
-0.86803637307002779
30
0
11
4.117810327823781
21
-1.3350885713572778
31
0
0
LINE
5
236
100
AcDbEntity
8
0
100
AcDbLine
10
4.4600644119979407
20
-1.1151352271820605
30
0
11
4.1238371521233583
21
-0.72706758410383121
31
0
0
LINE
5
237
100
AcDbEntity
8
0
100
AcDbLine
10
4.1333593347098461
20
-0.71881656592406484
30
0
11
4.4696268806167554
21
-1.1068493009565681
31
0
0
LINE
5
238
100
AcDbEntity
8
0
100
AcDbLine
10
4.7360492515324193
20
-0.79938149447362883
30
0
11
4.304110268833246
21
-0.52175948325718302
31
0
0
LINE
5
239
100
AcDbEntity
8
0
100
AcDbLine
10
4.3109221556701236
20
-0.51115998044172917
30
0
11
4.7428899578012746
21
-0.78873714774668546
31
0
0
LINE
5
240
100
AcDbEntity
8
0
100
AcDbLine
10
4.9118966594417053
20
-0.41866409205581689
30
0
11
4.4192390814561842
21
-0.27397899696823735
31
0
0
LINE
5
241
100
AcDbEntity
8
0
100
AcDbLine
10
4.4227888139837814
20
-0.26188971819753287
30
0
11
4.915461410021944
21
-0.40652366649487276
31
0
0
LINE
5
242
100
AcDbEntity
8
0
100
AcDbLine
10
4.97336052454179
20
-0.0038264796589432474
30
0
11
4.4598965382908773
21
-0.003799826628830983
31
0
0
LINE
5
243
100
AcDbEntity
8
0
100
AcDbLine
10
4.4598965382908782
20
0.0087998266288284582
30
0
11
4.9733605245417891
21
0.0088264796589448326
31
0
0
LINE
5
244
100
AcDbEntity
8
0
100
AcDbLine
10
4.915461410021944
20
0.41152366649487437
30
0
11
4.4227888139837823
21
0.26688971819753027
31
0
0
LINE
5
245
100
AcDbEntity
8
0
100
AcDbLine
10
4.4192390814561859
20
0.27897899696823397
30
0
11
4.9118966594417044
21
0.42366409205581784
31
0
0
LINE
5
246
100
AcDbEntity
8
0
100
AcDbLine
10
4.7428899578012746
20
0.79373714774668647
30
0
11
4.3109221556701272
21
0.51615998044172595
31
0
0
LINE
5
247
100
AcDbEntity
8
0
100
AcDbLine
10
4.3041102688332478
20
0.52675948325718092
30
0
11
4.7360492515324184
21
0.80438149447363017
31
0
0
LINE
5
248
100
AcDbEntity
8
0
100
AcDbLine
10
4.4696268806167563
20
1.11184930095657
30
0
11
4.1333593347098496
21
0.72381656592406352
31
0
0
LINE
5
249
100
AcDbEntity
8
0
100
AcDbLine
10
4.123837152123361
20
0.73206758410383155
30
0
11
4.4600644119979407
21
1.1201352271820619
31
0
0
LINE
5
250
100
AcDbEntity
8
0
100
AcDbLine
10
4.117810327823781
20
1.3400885713572794
30
0
11
3.9044854348503937
21
0.87303637307002768
31
0
0
LINE
5
251
100
AcDbEntity
8
0
100
AcDbLine
10
3.8930243871168542
20
0.87827045819187766
30
0
11
4.1063007911923108
21
1.345344800616832
31
0
0
LINE
5
252
100
AcDbEntity
8
0
100
AcDbLine
10
3.7159423841960333
20
1.459964370652157
30
0
11
3.6428424582928822
21
0.9517305005490172
31
0
0
LINE
5
253
100
AcDbEntity
8
0
100
AcDbLine
10
3.6303710513381859
20
0.95352361816468079
30
0
11
3.7034182137599405
21
1.4617650745111603
31
0
0
ARC
5
254
100
AcDbEntity
8
0
100
AcDbCircle
10
3.4999991071427439
20
0.0025000000000006592
30
0
40
1.4733749999999997
210
-0
220
0
230
1
100
AcDbArc
50
278.4278395256739
51
283.0192216317372
0
ARC
5
255
100
AcDbEntity
8
0
100
AcDbCircle
10
3.4999991071427439
20
0.0025000000000006592
30
0
40
1.4733749999999994
210
-1.1547510094511991e-32
220
-4.3141730554752588e-33
230
1
100
AcDbArc
50
289.70808856516544
51
294.29943320159879
0
ARC
5
256
100
AcDbEntity
8
0
100
AcDbCircle
10
3.4999991071427439
20
0.0025000000000006592
30
0
40
1.4733749999999994
210
-0
220
0
230
1
100
AcDbArc
50
294.79147588931028
51
299.38285799537357
0
ARC
5
257
100
AcDbEntity
8
0
100
AcDbCircle
10
3.4999991071427439
20
0.0025000000000006592
30
0
40
1.4733749999999999
210
-9.8515179194408214e-35
220
1.3523817048675303e-34
230
1
100
AcDbArc
50
306.07172492880181
51
310.66306956523516
0
ARC
5
258
100
AcDbEntity
8
0
100
AcDbCircle
10
3.4999991071427439
20
0.0025000000000006592
30
0
40
1.4733749999999992
210
-1.0303522099494214e-48
220
-9.0058029366027254e-49
230
1
100
AcDbArc
50
311.15511225294665
51
315.74649435900989
0
ARC
5
259
100
AcDbEntity
8
0
100
AcDbCircle
10
3.4999991071427439
20
0.0025000000000006592
30
0
40
1.4733750000000005
210
1.5029182465680153e-32
220
1.9540726960425991e-32
230
1
100
AcDbArc
50
322.43536129243813
51
327.02670592887148
0
ARC
5
260
100
AcDbEntity
8
0
100
AcDbCircle
10
3.4999991071427439
20
0.0025000000000006592
30
0
40
1.4733749999999992
210
-0
220
0
230
1
100
AcDbArc
50
327.51874861658308
51
332.11013072264626
0
ARC
5
261
100
AcDbEntity
8
0
100
AcDbCircle
10
3.4999991071427439
20
0.0025000000000006592
30
0
40
1.4733750000000008
210
7.7995758788978133e-35
220
-3.0254130842079701e-35
230
1
100
AcDbArc
50
338.79899765607456
51
343.39034229250791
0
ARC
5
262
100
AcDbEntity
8
0
100
AcDbCircle
10
3.4999991071427439
20
0.0025000000000006592
30
0
40
1.4733749999999994
210
-0
220
0
230
1
100
AcDbArc
50
343.8823849802194
51
348.47376708628269
0
ARC
5
263
100
AcDbEntity
8
0
100
AcDbCircle
10
3.4999991071427439
20
0.0025000000000006592
30
0
40
1.473374999999999
210
-1.0419994520862579e-34
220
8.8183517742276251e-36
230
1
100
AcDbArc
50
355.16263401971088
51
359.75397865614462
0
ARC
5
264
100
AcDbEntity
8
0
100
AcDbCircle
10
3.4999991071427439
20
0.0025000000000006592
30
0
40
1.4733749999999997
210
0
220
-0
230
1
100
AcDbArc
50
0.2460213438553881
51
4.8374034499189698
0
ARC
5
265
100
AcDbEntity
8
0
100
AcDbCircle
10
3.4999991071427439
20
0.0025000000000006592
30
0
40
1.4733749999999997
210
3.7598133531033304e-49
220
-1.8436799556143778e-48
230
1
100
AcDbArc
50
11.526270383347255
51
16.117615019780605
0
ARC
5
266
100
AcDbEntity
8
0
100
AcDbCircle
10
3.4999991071427439
20
0.0025000000000006592
30
0
40
1.4733749999999988
210
0
220
-0
230
1
100
AcDbArc
50
16.609657707492097
51
21.201039813555337
0
ARC
5
267
100
AcDbEntity
8
0
100
AcDbCircle
10
3.4999991071427439
20
0.0025000000000006592
30
0
40
1.4733750000000001
210
-7.3940906351522479e-35
220
-3.9133019178082925e-35
230
1
100
AcDbArc
50
27.889906746983588
51
32.481251383416961
0
ARC
5
268
100
AcDbEntity
8
0
100
AcDbCircle
10
3.4999991071427439
20
0.0025000000000006592
30
0
40
1.4733749999999994
210
0
220
-0
230
1
100
AcDbArc
50
32.973294071128514
51
37.564676177191728
0
ARC
5
269
100
AcDbEntity
8
0
100
AcDbCircle
10
3.4999991071427439
20
0.0025000000000006592
30
0
40
1.4733749999999988
210
0
220
-0
230
1
100
AcDbArc
50
44.253543110620015
51
48.844887747053335
0
ARC
5
270
100
AcDbEntity
8
0
100
AcDbCircle
10
3.4999991071427439
20
0.0025000000000006592
30
0
40
1.4733749999999999
210
2.076096185847677e-48
220
-1.7833975425059448e-48
230
1
100
AcDbArc
50
49.336930434764838
51
53.928312540828088
0
ARC
5
271
100
AcDbEntity
8
0
100
AcDbCircle
10
3.4999991071427439
20
0.0025000000000006592
30
0
40
1.4733750000000001
210
8.2092282422026699e-35
220
1.4579252537441467e-34
230
1
100
AcDbArc
50
60.617179474256339
51
65.208524110689723
0
ARC
5
272
100
AcDbEntity
8
0
100
AcDbCircle
10
3.4999991071427439
20
0.0025000000000006592
30
0
40
1.4733749999999997
210
1.1233962893292642e-32
220
-5.0721949532998812e-33
230
1
100
AcDbArc
50
65.700566798401198
51
70.291948904464476
0
ARC
5
273
100
AcDbEntity
8
0
100
AcDbCircle
10
3.4999991071427439
20
0.0025000000000006592
30
0
40
1.4733750000000001
210
5.966862154039785e-33
220
-1.5513934449440007e-33
230
1
100
AcDbArc
50
76.980815837892692
51
81.572160474326083
0
ARC
5
274
100
AcDbEntity
8
0
100
AcDbCircle
10
3.4999991071427439
20
0.0025000000000006592
30
0
40
1.4733749999999999
210
0
220
0
230
1
100
AcDbArc
50
98.421891275450861
51
171.20451382045911
0
ARC
5
275
100
AcDbEntity
8
0
100
AcDbCircle
10
3.4999991071427439
20
0.0025000000000006592
30
0
40
1.4733750000000001
210
-4.1313228909788492e-34
220
-6.5482686694052173e-35
230
1
100
AcDbArc
50
189.00662383506972
51
261.57810872454911
0
ARC
5
276
100
AcDbEntity
8
0
100
AcDbCircle
10
3.4999991071427439
20
0.0025000000000006592
30
0
40
1.4733749999999997
210
0
220
0
230
1
100
AcDbArc
50
262.06420316203753
51
266.65558526810071
0
ENDSEC
0
SECTION
2
OBJECTS
0
DICTIONARY
5
C
100
AcDbDictionary
3
ACAD_GROUP
350
D
3
ACAD_MLINESTYLE
350
17
0
DICTIONARY
5
D
100
AcDbDictionary
0
DICTIONARY
5
1A
330
C
100
AcDbDictionary
0
DICTIONARY
5
17
100
AcDbDictionary
0
ENDSEC
0
EOF
