0
SECTION
2
HEADER
9
$INSUNITS
70
1
9
$ACADVER
1
AC1014
9
$HANDSEED
5
FFFF
0
ENDSEC
0
SECTION
2
TABLES
0
TABLE
2
VPORT
5
8
100
AcDbSymbolTable
0
ENDTAB
0
TABLE
2
LTYPE
5
5
100
AcDbSymbolTable
0
LTYPE
5
14
100
AcDbSymbolTableRecord
100
AcDbLinetypeTableRecord
2
BYBLOCK
70
0
0
LTYPE
5
15
100
AcDbSymbolTableRecord
100
AcDbLinetypeTableRecord
2
BYLAYER
70
0
0
ENDTAB
0
TABLE
2
LAYER
5
2
100
AcDbSymbolTable
70
2
0
LAYER
5
50
100
AcDbSymbolTableRecord
100
AcDbLayerTableRecord
2
0
70
0
6
CONTINUOUS
0
ENDTAB
0
TABLE
2
STYLE
5
3
100
AcDbSymbolTable
70
1
0
STYLE
5
11
100
AcDbSymbolTableRecord
100
AcDbTextStyleTableRecord
2
STANDARD
70
0
0
ENDTAB
0
TABLE
2
VIEW
5
6
100
AcDbSymbolTable
70
0
0
ENDTAB
0
TABLE
2
UCS
5
7
100
AcDbSymbolTable
70
0
0
ENDTAB
0
TABLE
2
APPID
5
9
100
AcDbSymbolTable
70
2
0
APPID
5
12
100
AcDbSymbolTableRecord
100
AcDbRegAppTableRecord
2
ACAD
70
0
0
ENDTAB
0
TABLE
2
DIMSTYLE
5
A
100
AcDbSymbolTable
70
1
0
ENDTAB
0
TABLE
2
BLOCK_RECORD
5
1
100
AcDbSymbolTable
70
1
0
BLOCK_RECORD
5
1F
100
AcDbSymbolTableRecord
100
AcDbBlockTableRecord
2
*MODEL_SPACE
0
BLOCK_RECORD
5
1B
100
AcDbSymbolTableRecord
100
AcDbBlockTableRecord
2
*PAPER_SPACE
0
ENDTAB
0
ENDSEC
0
SECTION
2
BLOCKS
0
BLOCK
5
20
100
AcDbEntity
100
AcDbBlockBegin
2
*MODEL_SPACE
0
ENDBLK
5
21
100
AcDbEntity
100
AcDbBlockEnd
0
BLOCK
5
1C
100
AcDbEntity
100
AcDbBlockBegin
2
*PAPER_SPACE
0
ENDBLK
5
1D
100
AcDbEntity
100
AcDbBlockEnd
0
ENDSEC
0
SECTION
2
ENTITIES
0
CIRCLE
5
100
100
AcDbEntity
8
0
100
AcDbCircle
10
0
20
0
30
0
40
0.12849999999999998
210
0
220
-0
230
1
0
CIRCLE
5
101
100
AcDbEntity
8
0
100
AcDbCircle
10
-0.44180974497577052
20
0.44180974497577069
30
0
40
0.053503937007873974
210
0
220
0
230
1
0
CIRCLE
5
102
100
AcDbEntity
8
0
100
AcDbCircle
10
0.44180974497577064
20
0.4418097449757708
30
0
40
0.053503937007873974
210
0
220
0
230
1
0
CIRCLE
5
103
100
AcDbEntity
8
0
100
AcDbCircle
10
-0.44180974497577069
20
-0.44180974497577052
30
0
40
0.053503937007873974
210
0
220
0
230
1
0
CIRCLE
5
104
100
AcDbEntity
8
0
100
AcDbCircle
10
0.44180974497577064
20
-0.44180974497577064
30
0
40
0.053503937007873974
210
0
220
0
230
1
0
SPLINE
5
105
100
AcDbEntity
8
0
100
AcDbSpline
70
0
71
3
72
18
73
14
74
0
42
0.000000001
43
0.0000000001
44
0.0000000001
40
0.10929793416927763
40
0.10929793416927763
40
0.10929793416927763
40
0.10929793416927763
40
2.0123853976230768
40
2.0123853976230768
40
3.1810321142787559
40
3.1810321142787559
40
4.1812301478436575
40
4.1812301478436575
40
6.0690248095569448
40
6.0690248095569448
40
11.329239733711052
40
11.329239733711052
40
13.58655261037166
40
13.58655261037166
40
13.58655261037166
40
13.58655261037166
10
-0.43751884030225618
20
-3.4725462220653833
30
0
10
-0.5141874007820636
20
-3.238899662307031
30
0
10
-0.60407252635998065
20
-3.0448947381607687
30
0
10
-0.76413531004779611
20
-2.8063082536805886
30
0
10
-0.84453476512254033
20
-2.7083396891108324
30
0
10
-1.0375981215460537
20
-2.5744109696552511
30
0
10
-1.1192256115231773
20
-2.5489916326714521
30
0
10
-1.2846396042868602
20
-2.5136997335561237
30
0
10
-1.389132378891581
20
-2.5198742184014398
30
0
10
-1.6584265128895681
20
-2.5522762340062979
30
0
10
-1.8532553808581078
20
-2.6260776159361621
30
0
10
-2.0436288425743609
20
-2.709382203774346
30
0
10
-2.0829783211820709
20
-2.7277048555364622
30
0
10
-2.1502001361990248
20
-2.7616370822918959
30
0
0
ARC
5
106
100
AcDbEntity
8
0
100
AcDbCircle
10
0
20
0
30
0
40
3.5
210
0
220
0
230
1
100
AcDbArc
50
262.8189333603512
51
266.37446554873515
0
ARC
5
107
100
AcDbEntity
8
0
100
AcDbCircle
10
-0.2150000000000003
20
-3.3931953966725814
30
0
40
0.10000000000000017
210
0
220
0
230
1
100
AcDbArc
50
-93.625534451264343
51
0
0
LINE
5
108
100
AcDbEntity
8
0
100
AcDbLine
10
-0.11500000000000009
20
-3.3931953966725814
30
0
11
-0.115
21
-2.7499991071427465
31
0
0
LINE
5
109
100
AcDbEntity
8
0
100
AcDbLine
10
-0.115
20
-2.7499991071427465
30
0
11
0.10999999999999958
21
-2.7499991071427465
31
0
0
LINE
5
110
100
AcDbEntity
8
0
100
AcDbLine
10
0.10999999999999958
20
-2.7499991071427465
30
0
11
0.10999999999999976
21
-3.3935085089034325
31
0
0
ARC
5
111
100
AcDbEntity
8
0
100
AcDbCircle
10
0.20999999999999988
20
-3.3935085089034325
30
0
40
0.10000000000000013
210
0
220
0
230
1
100
AcDbArc
50
180
51
273.54111089316666
0
ARC
5
112
100
AcDbEntity
8
0
100
AcDbCircle
10
0
20
0
30
0
40
3.5
210
-0
220
0
230
1
100
AcDbArc
50
273.5411108931666
51
277.09581054916993
0
SPLINE
5
113
100
AcDbEntity
8
0
100
AcDbSpline
70
0
71
3
72
20
73
16
74
0
42
0.000000001
43
0.0000000001
44
0.0000000001
40
-0.97540958312615256
40
-0.97540958312615256
40
-0.97540958312615256
40
-0.97540958312615256
40
-0.87088004878715708
40
-0.87088004878715708
40
-0.87088004878715708
40
-0.62903763264533885
40
-0.62903763264533885
40
-0.62903763264533885
40
-0.43597090780781289
40
-0.43597090780781289
40
-0.43597090780781289
40
-0.25
40
-0.25
40
-0.25
40
-0.024612063754792753
40
-0.024612063754792753
40
-0.024612063754792753
40
-0.024612063754792753
10
0.43235121085026329
20
-3.4731934052794
30
0
10
0.46829507530271924
20
-3.3639740560425855
30
0
10
0.50708886989105861
20
-3.2634716741290033
30
0
10
0.54843861532119842
20
-3.1722156919473594
30
0
10
0.64410652779121025
20
-2.961083332487779
30
0
10
0.7536284871046911
20
-2.8010178546250861
30
0
10
0.86970778683638583
20
-2.6967729341822086
30
0
10
0.96237577526522189
20
-2.6135525227592069
30
0
10
1.0574584215031966
20
-2.5641334100972557
30
0
10
1.1688520187214326
20
-2.5396852267024834
30
0
10
1.2761515464680528
20
-2.5161355919116937
30
0
10
1.4014016703866254
20
-2.5168180972002832
30
0
10
1.5464677427791889
20
-2.5448702610285263
30
0
10
1.7222809549701343
20
-2.5788681555755284
30
0
10
1.9247076456863206
20
-2.6528444089860312
30
0
10
2.1460884427315472
20
-2.7648335204807517
30
0
0
ARC
5
114
100
AcDbEntity
8
0
100
AcDbCircle
10
0
20
0
30
0
40
3.4999999999999858
210
-0
220
0
230
1
100
AcDbArc
50
307.81893336035114
51
311.37446554873515
0
ARC
5
115
100
AcDbEntity
8
0
100
AcDbCircle
10
2.2473235169230512
20
-2.5513794328332673
30
0
40
0.099999999999999978
210
0
220
0
230
1
100
AcDbArc
50
-48.625534451264706
51
45.000000000000185
0
LINE
5
116
100
AcDbEntity
8
0
100
AcDbLine
10
2.3180341950417058
20
-2.4806687547146122
30
0
11
1.8632257370811343
21
-2.0258602967540402
31
0
0
LINE
5
117
100
AcDbEntity
8
0
100
AcDbLine
10
1.8632257370811343
20
-2.0258602967540402
30
0
11
2.0223247628481071
21
-1.8667612709870671
31
0
0
LINE
5
118
100
AcDbEntity
8
0
100
AcDbLine
10
2.0223247628481071
20
-1.8667612709870671
30
0
11
2.477354624590387
21
-2.3217911327293468
31
0
0
ARC
5
119
100
AcDbEntity
8
0
100
AcDbCircle
10
2.5480653027090407
20
-2.2510804546106917
30
0
40
0.099999999999999867
210
0
220
0
230
1
100
AcDbArc
50
225.00000000000054
51
318.5411108931666
0
ARC
5
120
100
AcDbEntity
8
0
100
AcDbCircle
10
0
20
0
30
0
40
3.4999999999999991
210
-0
220
0
230
1
100
AcDbArc
50
318.5411108931666
51
322.09581054916993
0
SPLINE
5
121
100
AcDbEntity
8
0
100
AcDbSpline
70
0
71
3
72
18
73
14
74
0
42
0.000000001
43
0.0000000001
44
0.0000000001
40
0.10929793416927573
40
0.10929793416927573
40
0.10929793416927573
40
0.10929793416927573
40
2.0123853976230706
40
2.0123853976230706
40
3.1810321142762925
40
3.1810321142762925
40
4.1812301478374128
40
4.1812301478374128
40
6.0690248095393384
40
6.0690248095393384
40
11.329239733654513
40
11.329239733654513
40
13.586552610304093
40
13.586552610304093
40
13.586552610304093
40
13.586552610304093
10
3.4725462220653838
20
-0.4375188403022553
30
0
10
3.238899662307031
20
-0.51418740078206315
30
0
10
3.0448947381607692
20
-0.60407252635997988
30
0
10
2.8063082536807755
20
-0.76413531004766999
30
0
10
2.708339689110915
20
-0.84453476512242087
30
0
10
2.5744109696552822
20
-1.0375981215460066
30
0
10
2.5489916326714681
20
-1.1192256115231021
30
0
10
2.5136997335561451
20
-1.2846396042867483
30
0
10
2.5198742184014185
20
-1.3891323788914054
30
0
10
2.5522762340063267
20
-1.6584265128897955
30
0
10
2.6260776159363255
20
-1.8532553808584862
30
0
10
2.7093822037743518
20
-2.0436288425743707
30
0
10
2.7277048555364654
20
-2.0829783211820754
30
0
10
2.7616370822918967
20
-2.1502001361990248
30
0
0
ARC
5
122
100
AcDbEntity
8
0
100
AcDbCircle
10
0
20
0
30
0
40
3.5000000000000004
210
-0
220
0
230
1
100
AcDbArc
50
352.8189333603512
51
356.3744655487352
0
ARC
5
123
100
AcDbEntity
8
0
100
AcDbCircle
10
3.3931953966725814
20
-0.21500000000000047
30
0
40
0.10000000000000021
210
0
220
0
230
1
100
AcDbArc
50
-3.6255344512648109
51
90
0
LINE
5
124
100
AcDbEntity
8
0
100
AcDbLine
10
3.3931953966725814
20
-0.11500000000000027
30
0
11
2.7499991071427465
21
-0.11500000000000017
31
0
0
LINE
5
125
100
AcDbEntity
8
0
100
AcDbLine
10
2.7499991071427465
20
-0.11500000000000017
30
0
11
2.7499991071427465
21
0.10999999999999942
31
0
0
LINE
5
126
100
AcDbEntity
8
0
100
AcDbLine
10
2.7499991071427465
20
0.10999999999999942
30
0
11
3.3935085089034325
21
0.10999999999999953
31
0
0
ARC
5
127
100
AcDbEntity
8
0
100
AcDbCircle
10
3.3935085089034325
20
0.2099999999999998
30
0
40
0.10000000000000028
210
0
220
0
230
1
100
AcDbArc
50
-90
51
3.5411108931666258
0
ARC
5
128
100
AcDbEntity
8
0
100
AcDbCircle
10
0
20
0
30
0
40
3.5
210
0
220
-0
230
1
100
AcDbArc
50
3.5411108931665227
51
7.0958105491698618
0
SPLINE
5
129
100
AcDbEntity
8
0
100
AcDbSpline
70
0
71
3
72
18
73
14
74
0
42
0.000000001
43
0.0000000001
44
0.0000000001
40
4.3171551258315546
40
4.3171551258315546
40
4.3171551258315546
40
4.3171551258315546
40
5.4712563268639816
40
5.4712563268639816
40
8.9171105559487653
40
8.9171105559487653
40
11.441938609446922
40
11.441938609446922
40
13.670342778714671
40
13.670342778714671
40
15.531297033303806
40
15.531297033303806
40
17.717815347832893
40
17.717815347832893
40
17.717815347832893
40
17.717815347832893
10
2.7648335204807584
20
2.146088442731561
30
0
10
2.7320007926094227
20
2.0811844947645484
30
0
10
2.7081935852019754
20
2.0309035087151712
30
0
10
2.5917996791379712
20
1.7602566675257443
30
0
10
2.5420229667905696
20
1.5820959022879348
30
0
10
2.5166520232190455
20
1.3118765983010776
30
0
10
2.5250950163942965
20
1.2112359158011068
30
0
10
2.5757698436576884
20
1.0415072717455582
30
0
10
2.6139928016098981
20
0.97002261175542892
30
0
10
2.7172479771754507
20
0.84284836008980757
30
0
10
2.7946725327938506
20
0.76376815242009088
30
0
10
3.0962888166880242
20
0.57267641812766235
30
0
10
3.2888842248634389
20
0.49300698516595126
30
0
10
3.4731934052794
20
0.43235121085026312
30
0
0
ARC
5
130
100
AcDbEntity
8
0
100
AcDbCircle
10
0
20
0
30
0
40
3.5
210
0
220
-0
230
1
100
AcDbArc
50
37.818933360351217
51
41.374465548735159
0
ARC
5
131
100
AcDbEntity
8
0
100
AcDbCircle
10
2.5513794328332668
20
2.2473235169230521
30
0
40
0.099999999999999714
210
0
220
-0
230
1
100
AcDbArc
50
41.374465548735309
51
135.00000000000037
0
LINE
5
132
100
AcDbEntity
8
0
100
AcDbLine
10
2.4806687547146118
20
2.3180341950417063
30
0
11
2.0258602967540402
21
1.863225737081134
31
0
0
LINE
5
133
100
AcDbEntity
8
0
100
AcDbLine
10
2.0258602967540402
20
1.863225737081134
30
0
11
1.8667612709870671
21
2.0223247628481067
31
0
0
LINE
5
134
100
AcDbEntity
8
0
100
AcDbLine
10
1.8667612709870671
20
2.0223247628481067
30
0
11
2.3217911327293468
21
2.4773546245903861
31
0
0
ARC
5
135
100
AcDbEntity
8
0
100
AcDbCircle
10
2.2510804546106917
20
2.5480653027090412
30
0
40
0.10000000000000034
210
-0
220
0
230
1
100
AcDbArc
50
-45
51
48.541110893166774
0
ARC
5
136
100
AcDbEntity
8
0
100
AcDbCircle
10
0
20
0
30
0
40
3.5
210
0
220
-0
230
1
100
AcDbArc
50
48.541110893166625
51
52.095810549169926
0
SPLINE
5
137
100
AcDbEntity
8
0
100
AcDbSpline
70
0
71
3
72
18
73
14
74
0
42
0.000000001
43
0.0000000001
44
0.0000000001
40
0.10929793416927336
40
0.10929793416927336
40
0.10929793416927336
40
0.10929793416927336
40
2.0123853976228872
40
2.0123853976228872
40
3.1810321142761944
40
3.1810321142761944
40
4.1812301478374572
40
4.1812301478374572
40
6.0690248095398518
40
6.0690248095398518
40
11.32923973366464
40
11.32923973366464
40
13.586552610322514
40
13.586552610322514
40
13.586552610322514
40
13.586552610322514
10
0.43751884030225563
20
3.4725462220653838
30
0
10
0.51418740078205705
20
3.2388996623070505
30
0
10
0.60407252635997122
20
3.0448947381607816
30
0
10
0.76413531004768587
20
2.8063082536807524
30
0
10
0.84453476512243564
20
2.7083396891109053
30
0
10
1.0375981215459973
20
2.5744109696552884
30
0
10
1.1192256115230894
20
2.5489916326714708
30
0
10
1.2846396042867865
20
2.5136997335561371
30
0
10
1.3891323788914658
20
2.5198742184014256
30
0
10
1.6584265128899183
20
2.5522762340063401
30
0
10
1.8532553808586929
20
2.6260776159364143
30
0
10
2.0436288425743832
20
2.7093822037743567
30
0
10
2.0829783211820962
20
2.7277048555364751
30
0
10
2.1502001361990248
20
2.7616370822918963
30
0
0
ARC
5
138
100
AcDbEntity
8
0
100
AcDbCircle
10
0
20
0
30
0
40
3.5000000000000004
210
0
220
-0
230
1
100
AcDbArc
50
82.81893336035121
51
86.374465548735117
0
ARC
5
139
100
AcDbEntity
8
0
100
AcDbCircle
10
0.21500000000000066
20
3.3931953966725814
30
0
40
0.099999999999999617
210
0
220
-0
230
1
100
AcDbArc
50
86.374465548734349
51
180
0
LINE
5
140
100
AcDbEntity
8
0
100
AcDbLine
10
0.11500000000000044
20
3.3931953966725814
30
0
11
0.11500000000000032
21
2.7499991071427465
31
0
0
LINE
5
141
100
AcDbEntity
8
0
100
AcDbLine
10
0.11500000000000032
20
2.7499991071427465
30
0
11
-0.10999999999999927
21
2.7499991071427465
31
0
0
LINE
5
142
100
AcDbEntity
8
0
100
AcDbLine
10
-0.10999999999999927
20
2.7499991071427465
30
0
11
-0.10999999999999935
21
3.3935085089034325
31
0
0
ARC
5
143
100
AcDbEntity
8
0
100
AcDbCircle
10
-0.20999999999999958
20
3.3935085089034325
30
0
40
0.10000000000000023
210
0
220
0
230
1
100
AcDbArc
50
0
51
93.54111089316666
0
ARC
5
144
100
AcDbEntity
8
0
100
AcDbCircle
10
0
20
0
30
0
40
3.5
210
0
220
0
230
1
100
AcDbArc
50
93.541110893166618
51
97.09581054916994
0
SPLINE
5
145
100
AcDbEntity
8
0
100
AcDbSpline
70
0
71
3
72
18
73
14
74
0
42
0.000000001
43
0.0000000001
44
0.0000000001
40
4.317113173482694
40
4.317113173482694
40
4.317113173482694
40
4.317113173482694
40
5.4710982196001376
40
5.4710982196001376
40
8.9167159963543607
40
8.9167159963543607
40
11.441370797754439
40
11.441370797754439
40
13.669622055349619
40
13.669622055349619
40
15.530448612445152
40
15.530448612445152
40
17.716816889481006
40
17.716816889481006
40
17.716816889481006
40
17.716816889481006
10
-2.1460884427315605
20
2.7648335204807588
30
0
10
-2.0811854848354385
20
2.7320012934530409
30
0
10
-2.0309013338838455
20
2.7081926498978186
30
0
10
-1.7602566675260261
20
2.5917996791381226
30
0
10
-1.5820959022881478
20
2.5420229667905652
30
0
10
-1.3118765983005718
20
2.5166520232190179
30
0
10
-1.2112359158007122
20
2.5250950163943955
30
0
10
-1.0415072717454643
20
2.575769843657731
30
0
10
-0.97002261175534665
20
2.6139928016099514
30
0
10
-0.84284836008973707
20
2.7172479771755191
30
0
10
-0.76376815242000551
20
2.7946725327939479
30
0
10
-0.57267641812760872
20
3.096288816688153
30
0
10
-0.49300698516593106
20
3.2888842248635006
30
0
10
-0.43235121085026285
20
3.4731934052794
30
0
0
ARC
5
146
100
AcDbEntity
8
0
100
AcDbCircle
10
0
20
0
30
0
40
3.5
210
0
220
0
230
1
100
AcDbArc
50
127.81893336035121
51
131.37446554873515
0
ARC
5
147
100
AcDbEntity
8
0
100
AcDbCircle
10
-2.2473235169230521
20
2.5513794328332673
30
0
40
0.099999999999999201
210
0
220
0
230
1
100
AcDbArc
50
131.37446554873529
51
225.00000000000037
0
LINE
5
148
100
AcDbEntity
8
0
100
AcDbLine
10
-2.3180341950417058
20
2.4806687547146127
30
0
11
-1.863225737081134
21
2.0258602967540402
31
0
0
LINE
5
149
100
AcDbEntity
8
0
100
AcDbLine
10
-1.863225737081134
20
2.0258602967540402
30
0
11
-2.0223247628481067
21
1.8667612709870676
31
0
0
LINE
5
150
100
AcDbEntity
8
0
100
AcDbLine
10
-2.0223247628481067
20
1.8667612709870676
30
0
11
-2.4773546245903861
21
2.3217911327293468
31
0
0
ARC
5
151
100
AcDbEntity
8
0
100
AcDbCircle
10
-2.5480653027090407
20
2.2510804546106908
30
0
40
0.10000000000000085
210
0
220
-0
230
1
100
AcDbArc
50
45.000000000000547
51
138.54111089316621
0
ARC
5
152
100
AcDbEntity
8
0
100
AcDbCircle
10
0
20
0
30
0
40
3.4999999999999991
210
0
220
0
230
1
100
AcDbArc
50
138.5411108931666
51
142.0958105491699
0
SPLINE
5
153
100
AcDbEntity
8
0
100
AcDbSpline
70
0
71
3
72
18
73
14
74
0
42
0.000000001
43
0.0000000001
44
0.0000000001
40
0.10929793416927265
40
0.10929793416927265
40
0.10929793416927265
40
0.10929793416927265
40
2.0123853976232815
40
2.0123853976232815
40
3.1810321142767917
40
3.1810321142767917
40
4.1812301478385967
40
4.1812301478385967
40
6.0690248095443291
40
6.0690248095443291
40
11.329239733669381
40
11.329239733669381
40
13.586552610318606
40
13.586552610318606
40
13.586552610318606
40
13.586552610318606
10
-3.4725462220653838
20
0.43751884030225602
30
0
10
-3.2388996623070074
20
0.51418740078207137
30
0
10
-3.044894738160755
20
0.60407252635999009
30
0
10
-2.8063082536807737
20
0.76413531004767177
30
0
10
-2.7083396891109119
20
0.84453476512242387
30
0
10
-2.5744109696552555
20
1.0375981215460486
30
0
10
-2.5489916326714535
20
1.1192256115231691
30
0
10
-2.5136997335561384
20
1.2846396042867854
30
0
10
-2.5198742184014238
20
1.3891323788914614
30
0
10
-2.552276234006309
20
1.658426512889642
30
0
10
-2.62607761593621
20
1.8532553808582242
30
0
10
-2.7093822037743651
20
2.0436288425744018
30
0
10
-2.7277048555364836
20
2.0829783211821122
30
0
10
-2.7616370822918963
20
2.1502001361990248
30
0
0
ARC
5
154
100
AcDbEntity
8
0
100
AcDbCircle
10
0
20
0
30
0
40
3.5000000000000004
210
0
220
0
230
1
100
AcDbArc
50
172.81893336035122
51
176.3744655487352
0
ARC
5
155
100
AcDbEntity
8
0
100
AcDbCircle
10
-3.3931953966725814
20
0.21500000000000069
30
0
40
0.099999999999999603
210
0
220
0
230
1
100
AcDbArc
50
176.37446554873452
51
270
0
LINE
5
156
100
AcDbEntity
8
0
100
AcDbLine
10
-3.3931953966725814
20
0.11500000000000048
30
0
11
-2.7499991071427465
21
0.1150000000000005
31
0
0
LINE
5
157
100
AcDbEntity
8
0
100
AcDbLine
10
-2.7499991071427465
20
0.1150000000000005
30
0
11
-2.7499991071427465
21
-0.10999999999999908
31
0
0
LINE
5
158
100
AcDbEntity
8
0
100
AcDbLine
10
-2.7499991071427465
20
-0.10999999999999908
30
0
11
-3.3935085089034325
21
-0.10999999999999915
31
0
0
ARC
5
159
100
AcDbEntity
8
0
100
AcDbCircle
10
-3.3935085089034325
20
-0.20999999999999905
30
0
40
0.099999999999999908
210
0
220
-0
230
1
100
AcDbArc
50
90
51
183.5411108931666
0
ARC
5
160
100
AcDbEntity
8
0
100
AcDbCircle
10
0
20
0
30
0
40
3.5
210
0
220
0
230
1
100
AcDbArc
50
183.54111089316649
51
187.09581054916984
0
SPLINE
5
161
100
AcDbEntity
8
0
100
AcDbSpline
70
0
71
3
72
18
73
14
74
0
42
0.000000001
43
0.0000000001
44
0.0000000001
40
4.3167028339334381
40
4.3167028339334381
40
4.3167028339334381
40
4.3167028339334381
40
5.4718320514661389
40
5.4718320514661389
40
8.9130366603710982
40
8.9130366603710982
40
11.430478656910759
40
11.430478656910759
40
13.64899944559596
40
13.64899944559596
40
15.501934380025265
40
15.501934380025265
40
17.67756788427835
40
17.67756788427835
40
17.67756788427835
40
17.67756788427835
10
-2.7648335204807588
20
-2.1460884427315605
30
0
10
-2.7319443471823424
20
-2.0810729130806691
30
0
10
-2.7080984935903047
20
-2.0307058494411576
30
0
10
-2.5917075003489116
20
-1.7599722268560269
30
0
10
-2.5419741588026099
20
-1.5818625035525991
30
0
10
-2.5166741235605947
20
-1.3119021347134525
30
0
10
-2.5250757032525919
20
-1.2112398197037506
30
0
10
-2.5758143822996082
20
-1.0414117326044185
30
0
10
-2.6140459326479495
20
-0.96994043069259495
30
0
10
-2.7173157074791474
20
-0.84277893914928914
30
0
10
-2.7947673981190126
20
-0.76368493489658373
30
0
10
-3.0964109378540616
20
-0.57262621603445374
30
0
10
-3.2889407709057346
20
-0.49298837597908274
30
0
10
-3.4731934052794
20
-0.43235121085026268
30
0
0
ARC
5
162
100
AcDbEntity
8
0
100
AcDbCircle
10
0
20
0
30
0
40
3.5
210
0
220
0
230
1
100
AcDbArc
50
217.81893336035117
51
221.37446554873509
0
ARC
5
163
100
AcDbEntity
8
0
100
AcDbCircle
10
-2.5513794328332673
20
-2.2473235169230517
30
0
40
0.099999999999999381
210
0
220
0
230
1
100
AcDbArc
50
221.37446554873401
51
315.00000000000017
0
LINE
5
164
100
AcDbEntity
8
0
100
AcDbLine
10
-2.4806687547146127
20
-2.3180341950417058
30
0
11
-2.0258602967540402
21
-1.8632257370811336
31
0
0
LINE
5
165
100
AcDbEntity
8
0
100
AcDbLine
10
-2.0258602967540402
20
-1.8632257370811336
30
0
11
-1.8667612709870676
21
-2.0223247628481067
31
0
0
LINE
5
166
100
AcDbEntity
8
0
100
AcDbLine
10
-1.8667612709870676
20
-2.0223247628481067
30
0
11
-2.3217911327293468
21
-2.4773546245903861
31
0
0
ARC
5
167
100
AcDbEntity
8
0
100
AcDbCircle
10
-2.2510804546106926
20
-2.5480653027090407
30
0
40
0.099999999999999353
210
0
220
0
230
1
100
AcDbArc
50
134.99999999999986
51
228.54111089316677
0
ARC
5
168
100
AcDbEntity
8
0
100
AcDbCircle
10
0
20
0
30
0
40
3.4999999999999991
210
0
220
0
230
1
100
AcDbArc
50
228.5411108931666
51
232.0958105491699
0
ENDSEC
0
SECTION
2
OBJECTS
0
DICTIONARY
5
C
100
AcDbDictionary
3
ACAD_GROUP
350
D
3
ACAD_MLINESTYLE
350
17
0
DICTIONARY
5
D
100
AcDbDictionary
0
DICTIONARY
5
1A
330
C
100
AcDbDictionary
0
DICTIONARY
5
17
100
AcDbDictionary
0
ENDSEC
0
EOF
