0
SECTION
2
HEADER
9
$INSUNITS
70
1
9
$ACADVER
1
AC1014
9
$HANDSEED
5
FFFF
0
ENDSEC
0
SECTION
2
TABLES
0
TABLE
2
VPORT
5
8
100
AcDbSymbolTable
0
ENDTAB
0
TABLE
2
LTYPE
5
5
100
AcDbSymbolTable
0
LTYPE
5
14
100
AcDbSymbolTableRecord
100
AcDbLinetypeTableRecord
2
BYBLOCK
70
0
0
LTYPE
5
15
100
AcDbSymbolTableRecord
100
AcDbLinetypeTableRecord
2
BYLAYER
70
0
0
ENDTAB
0
TABLE
2
LAYER
5
2
100
AcDbSymbolTable
70
2
0
LAYER
5
50
100
AcDbSymbolTableRecord
100
AcDbLayerTableRecord
2
0
70
0
6
CONTINUOUS
0
ENDTAB
0
TABLE
2
STYLE
5
3
100
AcDbSymbolTable
70
1
0
STYLE
5
11
100
AcDbSymbolTableRecord
100
AcDbTextStyleTableRecord
2
STANDARD
70
0
0
ENDTAB
0
TABLE
2
VIEW
5
6
100
AcDbSymbolTable
70
0
0
ENDTAB
0
TABLE
2
UCS
5
7
100
AcDbSymbolTable
70
0
0
ENDTAB
0
TABLE
2
APPID
5
9
100
AcDbSymbolTable
70
2
0
APPID
5
12
100
AcDbSymbolTableRecord
100
AcDbRegAppTableRecord
2
ACAD
70
0
0
ENDTAB
0
TABLE
2
DIMSTYLE
5
A
100
AcDbSymbolTable
70
1
0
ENDTAB
0
TABLE
2
BLOCK_RECORD
5
1
100
AcDbSymbolTable
70
1
0
BLOCK_RECORD
5
1F
100
AcDbSymbolTableRecord
100
AcDbBlockTableRecord
2
*MODEL_SPACE
0
BLOCK_RECORD
5
1B
100
AcDbSymbolTableRecord
100
AcDbBlockTableRecord
2
*PAPER_SPACE
0
ENDTAB
0
ENDSEC
0
SECTION
2
BLOCKS
0
BLOCK
5
20
100
AcDbEntity
100
AcDbBlockBegin
2
*MODEL_SPACE
0
ENDBLK
5
21
100
AcDbEntity
100
AcDbBlockEnd
0
BLOCK
5
1C
100
AcDbEntity
100
AcDbBlockBegin
2
*PAPER_SPACE
0
ENDBLK
5
1D
100
AcDbEntity
100
AcDbBlockEnd
0
ENDSEC
0
SECTION
2
ENTITIES
0
ARC
5
100
100
AcDbEntity
8
0
100
AcDbCircle
10
-3.1250137506115347
20
0.84999999999999465
30
-1.2374479012755783e-31
40
0.45656250000001991
210
-9.5911251089077686e-17
220
5.591943811060899e-17
230
1
100
AcDbArc
50
22.586461215876774
51
59.75639743167428
0
SPLINE
5
101
100
AcDbEntity
8
0
100
AcDbSpline
70
0
71
3
72
12
73
8
74
0
42
0.000000001
43
0.0000000001
44
0.0000000001
40
0.299398871612091
40
0.299398871612091
40
0.299398871612091
40
0.299398871612091
40
0.35177498780180422
40
0.35177498780180422
40
0.43961411025863539
40
0.43961411025863539
40
0.48927532560175596
40
0.48927532560175596
40
0.48927532560175596
40
0.48927532560175596
10
-2.7034691382194382
20
1.0253552287205472
30
-3.4967654318902565e-16
10
-2.698877152308647
20
1.0202828943662898
30
1.7483827159451283e-16
10
-2.6948780896008717
20
1.0146836491201274
30
1.7483827159451283e-16
10
-2.6859983429146799
20
0.99856760380634535
30
-1.7483827159451283e-16
10
-2.6824609997856306
20
0.98748193314611687
30
-1.7483827159451283e-16
10
-2.6804047964595004
20
0.96955522586870224
30
-1.7483827159451283e-16
10
-2.6803809616282206
20
0.96303369450803811
30
0
10
-2.6810662531126921
20
0.95658299996710827
30
0
0
ARC
5
102
100
AcDbEntity
8
0
100
AcDbCircle
10
-3.1250137506115347
20
0.84999999999999465
30
-1.2374479012755783e-31
40
0.45656250000001947
210
5.0737632666521943e-17
220
2.6453233013288856e-17
230
1
100
AcDbArc
50
4.7699341437444289
51
13.50007756864759
0
ARC
5
103
100
AcDbEntity
8
0
100
AcDbCircle
10
-3.1258396030232882
20
0.8490298551330796
30
-1.7483827159451283e-16
40
0.45746704610201189
210
0
220
0
230
1
100
AcDbArc
50
0
51
4.8824187805932437
0
LINE
5
104
100
AcDbEntity
8
0
100
AcDbLine
10
-2.6683725569212764
20
0.84902985513307749
30
-1.7483827159451283e-16
11
-2.6683725569212768
21
0.69687178277096751
31
-1.7483827159451283e-16
0
SPLINE
5
105
100
AcDbEntity
8
0
100
AcDbSpline
70
0
71
3
72
12
73
8
74
0
42
0.000000001
43
0.0000000001
44
0.0000000001
40
0.60144709537693397
40
0.60144709537693397
40
0.60144709537693397
40
0.60144709537693397
40
0.61563892573569179
40
0.61563892573569179
40
0.70346363665628864
40
0.70346363665628864
40
0.77093276867089344
40
0.77093276867089344
40
0.77093276867089344
40
0.77093276867089344
10
-2.6683725569212768
20
0.69687178277096751
30
-5.2451481478353848e-16
10
-2.6676909820121018
20
0.69514370894394317
30
1.7483827159451283e-16
10
-2.6670631104251892
20
0.69339239079386761
30
1.7483827159451283e-16
10
-2.6629454232676655
20
0.68065344505771674
30
1.7483827159451283e-16
10
-2.6615768642930191
20
0.66909961634174919
30
1.7483827159451283e-16
10
-2.6631387998084954
20
0.64877974855352161
30
1.7483827159451283e-16
10
-2.665136342281996
20
0.64011823872174634
30
1.7483827159451283e-16
10
-2.6683725569212768
20
0.63190850990826419
30
-5.2451481478353848e-16
0
LINE
5
106
100
AcDbEntity
8
0
100
AcDbLine
10
-2.6683725569212773
20
0.63190850990826419
30
-5.2451481478353848e-16
11
-2.6683725569212768
21
0.3956251532626564
31
-5.2451481478353848e-16
0
SPLINE
5
107
100
AcDbEntity
8
0
100
AcDbSpline
70
0
71
3
72
10
73
6
74
0
42
0.000000001
43
0.0000000001
44
0.0000000001
40
0.60133795090105036
40
0.60133795090105036
40
0.60133795090105036
40
0.60133795090105036
40
0.60170635000877115
40
0.60170635000877115
40
0.62440960849230964
40
0.62440960849230964
40
0.62440960849230964
40
0.62440960849230964
10
-2.6683725569212768
20
0.3956251532626564
30
-5.2451481478353848e-16
10
-2.6683535775770983
20
0.3955806920404073
30
0
10
-2.6683346340308298
20
0.39553621377249459
30
-1.7483827159451283e-16
10
-2.6671505038707255
20
0.3927496171768407
30
0
10
-2.6661262047722269
20
0.38995440077407356
30
0
10
-2.6652454842832101
20
0.38711706863264544
30
1.7483827159451283e-16
0
LINE
5
108
100
AcDbEntity
8
0
100
AcDbLine
10
-2.6652454842832101
20
0.38711706863264544
30
1.7483827159451288e-16
11
-2.5409645669289955
21
0.38711706863264511
31
1.6391087961985577e-16
0
LINE
5
109
100
AcDbEntity
8
0
100
AcDbLine
10
-2.5409645669289955
20
0.38711706863264511
30
1.6391087961985577e-16
11
-2.5409645669289951
21
0.97222199519903751
31
-1.7483827159451283e-16
0
ARC
5
110
100
AcDbEntity
8
0
100
AcDbCircle
10
-3.0595745669289958
20
0.97222199519903763
30
-3.496765431890258e-16
40
0.5186100000000009
210
-3.3712861609786287e-16
220
-9.0924079721889863e-18
230
1
100
AcDbArc
50
0
51
71.406695657975504
0
LINE
5
111
100
AcDbEntity
8
0
100
AcDbLine
10
-2.8942165205724817
20
1.4637634976229497
30
-3.6407086225904698e-16
11
-3.280426161988407
21
1.5936871591523709
31
2.1854783949314103e-17
0
ARC
5
112
100
AcDbEntity
8
0
100
AcDbCircle
10
-3.2841088627373671
20
1.5827400035768977
30
-5.2451481478353848e-16
40
0.011550000000000185
210
-1.5083043649575192e-14
220
-4.4835688979120948e-14
230
1
100
AcDbArc
50
71.406695657971014
51
202.50160725910425
0
ARC
5
113
100
AcDbEntity
8
0
100
AcDbCircle
10
-3.3813922470747535
20
1.5424407091430723
30
1.7483827159451283e-16
40
0.093750000000000194
210
1.0622318270793478e-17
220
-2.5642510257555924e-17
230
1
100
AcDbArc
50
-70.815386547693038
51
22.501607259103508
0
LINE
5
114
100
AcDbEntity
8
0
100
AcDbLine
10
-3.350584775843739
20
1.453897148020028
30
1.7224054565564048e-16
11
-3.3311255541154949
21
1.3584426904226943
31
-1.7620419559134497e-16
0
ARC
5
115
100
AcDbEntity
8
0
100
AcDbCircle
10
-3.3433736395310474
20
1.3559458116404264
30
1.7483827159451283e-16
40
0.012500000000000349
210
-2.7720923137727085e-18
220
1.3598106435922182e-17
230
1
100
AcDbArc
50
-168.47764220845937
51
11.522357791537669
0
LINE
5
116
100
AcDbEntity
8
0
100
AcDbLine
10
-3.3556217249465998
20
1.3534489328581578
30
1.7483827159451283e-16
11
-3.3750809466748453
21
1.4489033904554915
31
-1.7347234759768068e-16
0
ARC
5
117
100
AcDbEntity
8
0
100
AcDbCircle
10
-3.3813922470747535
20
1.5424407091430723
30
1.7483827159451283e-16
40
0.093749999999999972
210
0
220
0
230
1
100
AcDbArc
50
173.18484952355098
51
273.8601021307735
0
ARC
5
118
100
AcDbEntity
8
0
100
AcDbCircle
10
-3.4859482145798064
20
1.5549362947268892
30
-5.2451481478353858e-16
40
0.011550000000000877
210
-6.0116742851369038e-14
220
7.2310443761338709e-15
230
1
100
AcDbArc
50
-6.8151504764509498
51
117.02778593939591
0
ARC
5
119
100
AcDbEntity
8
0
100
AcDbCircle
10
-3.1258396030232882
20
0.8490298551330796
30
-1.7483827159451283e-16
40
0.80400322485126607
210
-1.979995286666049e-16
220
3.8813051906246747e-16
230
1
100
AcDbArc
50
117.0277859394002
51
123.85539797556632
0
LINE
5
120
100
AcDbEntity
8
0
100
AcDbLine
10
-3.573748846988277
20
1.5167112872112496
30
-3.4967654318902565e-16
11
-3.4372133575110335
21
1.291513530515467
31
1.7483827159451283e-16
0
ARC
5
121
100
AcDbEntity
8
0
100
AcDbCircle
10
-3.4479022362326064
20
1.2850329540229384
30
-1.7483827159451288e-16
40
0.012499999999999999
210
2.8779540939400242e-17
220
-4.7468157056462521e-17
230
1
100
AcDbArc
50
-148.77192213677895
51
31.228077863222804
0
LINE
5
122
100
AcDbEntity
8
0
100
AcDbLine
10
-3.4585911149541793
20
1.2785523775304102
30
-1.7483827159451283e-16
11
-3.5943293639169003
21
1.5024351883750819
31
-1.8576566356916988e-16
0
ARC
5
123
100
AcDbEntity
8
0
100
AcDbCircle
10
-3.1258396030232882
20
0.8490298551330796
30
-1.7483827159451283e-16
40
0.80400322485127251
210
-5.3032914038538493e-17
220
-2.1300691216725238e-17
230
1
100
AcDbArc
50
125.64041530223871
51
132.63849563234191
0
ARC
5
124
100
AcDbEntity
8
0
100
AcDbCircle
10
-3.6626239470469479
20
1.431991844964559
30
1.7483827159451283e-16
40
0.011550000000000728
210
-3.1080010983575919e-14
220
3.3753713663026385e-14
230
1
100
AcDbArc
50
132.63849563234163
51
256.48143204818609
0
ARC
5
125
100
AcDbEntity
8
0
100
AcDbCircle
10
-3.6872389244699408
20
1.3296092639926695
30
1.7483827159451283e-16
40
0.093750000000000625
210
-0
220
0
230
1
100
AcDbArc
50
-32.902541471771357
51
76.481432048184388
0
LINE
5
126
100
AcDbEntity
8
0
100
AcDbLine
10
-3.6085268210238106
20
1.2786831678229669
30
1.7483827159451283e-16
11
-3.5365630655354963
21
1.2170794256189774
31
-1.8030196758184134e-16
0
ARC
5
127
100
AcDbEntity
8
0
100
AcDbCircle
10
-3.5446919104562404
20
1.2075835380746505
30
1.7483827159451283e-16
40
0.012499999999999747
210
-3.609932317846799e-17
220
-4.2170211963853627e-17
230
1
100
AcDbArc
50
-130.5647971325362
51
49.435202867458521
0
LINE
5
128
100
AcDbEntity
8
0
100
AcDbLine
10
-3.5528207553769833
20
1.1980876505303233
30
1.7414438220412209e-16
11
-3.6247845108652981
21
1.2596913927343125
31
1.8030196758184134e-16
0
ARC
5
129
100
AcDbEntity
8
0
100
AcDbCircle
10
-3.6872389244699408
20
1.3296092639926695
30
1.7483827159451283e-16
40
0.093749999999999264
210
4.1399696268696667e-17
220
3.6980441585779501e-17
230
1
100
AcDbArc
50
202.38897368674051
51
311.77294720669613
0
ARC
5
130
100
AcDbEntity
8
0
100
AcDbCircle
10
-3.7846013422102081
20
1.2895012895764804
30
-1.7483827159451283e-16
40
0.011550000000000598
210
-2.8385871576073418e-14
220
-1.1693421726556858e-14
230
1
100
AcDbArc
50
22.388973686734779
51
146.2319101025862
0
ARC
5
131
100
AcDbEntity
8
0
100
AcDbCircle
10
-3.1258396030232882
20
0.8490298551330796
30
-1.7483827159451283e-16
40
0.80400322485128461
210
-1.0961867640964743e-30
220
-1.6394386621288742e-30
230
1
100
AcDbArc
50
146.23191010258779
51
153.12798735074378
0
LINE
5
132
100
AcDbEntity
8
0
100
AcDbLine
10
-3.8430252930507183
20
1.2124385391118078
30
-3.0536827970906133e-16
11
-3.6074235156042906
21
1.0950943668858488
31
1.9669305554382694e-16
0
ARC
5
133
100
AcDbEntity
8
0
100
AcDbCircle
10
-3.6129963268173175
20
1.0839053644645436
30
-1.7483827159451278e-16
40
0.012499999999999841
210
-1.1175243152693105e-16
220
2.4651930343286814e-17
230
1
100
AcDbArc
50
-116.47612752480812
51
63.523872475191418
0
LINE
5
134
100
AcDbEntity
8
0
100
AcDbLine
10
-3.618569138030344
20
1.0727163620432389
30
-1.7518521628970822e-16
11
-3.8539775891181685
21
1.1899642458550546
31
1.5298348764519871e-16
0
ARC
5
135
100
AcDbEntity
8
0
100
AcDbCircle
10
-3.1258396030232882
20
0.8490298551330796
30
-1.7483827159451283e-16
40
0.80400322485128939
210
3.6926307630207621e-16
220
-1.728992091325507e-16
230
1
100
AcDbArc
50
154.9097036593424
51
161.82972267499906
0
ARC
5
136
100
AcDbEntity
8
0
100
AcDbCircle
10
-3.8787763158210473
20
1.0961501094598269
30
-1.7483827159451278e-16
40
0.011550000000000287
210
-7.0739195072210352e-15
220
2.3867961393671213e-15
230
1
100
AcDbArc
50
161.82972267499505
51
285.67265909084159
0
ARC
5
137
100
AcDbEntity
8
0
100
AcDbCircle
10
-3.8503304654270316
20
0.99476508297484068
30
-1.748382715945128e-16
40
0.093749999999999459
210
5.3447289057865164e-17
220
1.4995839535839624e-17
230
1
100
AcDbArc
50
-4.9897738530984403
51
105.67265909084446
0
LINE
5
138
100
AcDbEntity
8
0
100
AcDbLine
10
-3.7569357556355443
20
0.98661090104385041
30
-1.797076868414307e-16
11
-3.66445054670355
21
0.96584980887916239
31
-5.2997851077086704e-16
0
ARC
5
139
100
AcDbEntity
8
0
100
AcDbCircle
10
-3.6671884138035242
20
0.95365333054552548
30
-1.7483827159451283e-16
40
0.012499999999999942
210
0
220
0
230
1
100
AcDbArc
50
-102.6520295138679
51
77.347970486140284
0
LINE
5
140
100
AcDbEntity
8
0
100
AcDbLine
10
-3.6699262809035003
20
0.94145685221188879
30
-1.7483827159451283e-16
11
-3.762411489835495
21
0.96221794437657659
31
1.6937457560718431e-16
0
ARC
5
141
100
AcDbEntity
8
0
100
AcDbCircle
10
-3.8503304654270316
20
0.99476508297484068
30
-1.748382715945128e-16
40
0.093750000000000291
210
-9.6358887086557462e-18
220
-2.6029245600848692e-17
230
1
100
AcDbArc
50
229.80308604621439
51
339.6857148253693
0
ARC
5
142
100
AcDbEntity
8
0
100
AcDbCircle
10
-3.9182928278745828
20
0.9143337004767903
30
1.7483827159451268e-16
40
0.011549999999999595
210
1.9547190897313497e-14
220
2.3396287078771809e-14
230
1
100
AcDbArc
50
49.80308604621213
51
180
0
LINE
5
143
100
AcDbEntity
8
0
100
AcDbLine
10
-3.9298428278745829
20
0.91433370047678975
30
1.7227365640762855e-16
11
-3.9298428278745834
21
0.82608861774341846
31
-1.7483827159451283e-16
0
LINE
5
144
100
AcDbEntity
8
0
100
AcDbLine
10
-3.9298428278745834
20
0.82608861774341846
30
-1.7483827159451283e-16
11
-3.6728035721473966
21
0.79825894860748259
31
-1.7483827159451283e-16
0
ARC
5
145
100
AcDbEntity
8
0
100
AcDbCircle
10
-3.6741490851982528
20
0.7858315758107095
30
-5.2451481478353848e-16
40
0.012500000000000016
210
-7.469097844966193e-19
220
-6.8985777072863445e-18
230
1
100
AcDbArc
50
-96.179349873535244
51
83.820650126462695
0
LINE
5
146
100
AcDbEntity
8
0
100
AcDbLine
10
-3.6754945982491085
20
0.77340420301393631
30
-5.2460155095733724e-16
11
-3.9298428278745834
21
0.80094251445108489
31
1.7483827159451283e-16
0
LINE
5
147
100
AcDbEntity
8
0
100
AcDbLine
10
-3.9298428278745834
20
0.80094251445108489
30
1.7483827159451283e-16
11
-3.9298428278745843
21
0.70879935399751615
31
-1.7483827159451283e-16
0
ARC
5
148
100
AcDbEntity
8
0
100
AcDbCircle
10
-3.9182928278745841
20
0.70879935399751615
30
-1.7483827159451283e-16
40
0.011549999999999979
210
0
220
0
230
1
100
AcDbArc
50
180
51
300.50392193886682
0
ARC
5
149
100
AcDbEntity
8
0
100
AcDbCircle
10
-3.8648428278745834
20
0.61807346188286161
30
1.7483827159451283e-16
40
0.09375
210
0
220
-0
230
1
100
AcDbArc
50
7.6622556607660028
51
120.50392193886707
0
LINE
5
150
100
AcDbEntity
8
0
100
AcDbLine
10
-3.7719298982038425
20
0.63057346188286156
30
1.7483827159451283e-16
11
-3.6771997384999904
21
0.63057346188286134
31
1.6937457560718431e-16
0
ARC
5
151
100
AcDbEntity
8
0
100
AcDbCircle
10
-3.6771997384999904
20
0.61807346188286139
30
1.7483827159451283e-16
40
0.012499999999999976
210
0
220
0
230
1
100
AcDbArc
50
-90
51
90
0
LINE
5
152
100
AcDbEntity
8
0
100
AcDbLine
10
-3.6771997384999904
20
0.60557346188286143
30
1.7483827159451283e-16
11
-3.7719298982038425
21
0.60557346188286154
31
1.8030196758184134e-16
0
ARC
5
153
100
AcDbEntity
8
0
100
AcDbCircle
10
-3.8648428278745834
20
0.61807346188286161
30
1.7483827159451283e-16
40
0.093750000000000458
210
0
220
0
230
1
100
AcDbArc
50
239.49607806113301
51
352.33774433923389
0
ARC
5
154
100
AcDbEntity
8
0
100
AcDbCircle
10
-3.9182928278745841
20
0.52734756976820651
30
-1.7483827159451283e-16
40
0.011550000000000223
210
-1.5367522381695331e-14
220
-2.6084792846981892e-14
230
1
100
AcDbArc
50
59.496078061134035
51
180
0
LINE
5
155
100
AcDbEntity
8
0
100
AcDbLine
10
-3.9298428278745843
20
0.52734756976820651
30
-1.7483827159451283e-16
11
-3.9298428278745834
21
0.48005706863264558
31
-1.7483827159451283e-16
0
ARC
5
156
100
AcDbEntity
8
0
100
AcDbCircle
10
-3.8369028278745847
20
0.48005706863264491
30
-5.2451481478353848e-16
40
0.092939999999998649
210
3.7623901784918304e-15
220
-2.8311159710423573e-29
230
1
100
AcDbArc
50
180
51
270.00000000000023
0
LINE
5
157
100
AcDbEntity
8
0
100
AcDbLine
10
-3.8369028278745843
20
0.38711706863264556
30
-5.2451481478353848e-16
11
-3.6762466491253973
21
0.38711706863264544
31
-1.5298348764519871e-16
0
ARC
5
158
100
AcDbEntity
8
0
100
AcDbCircle
10
-3.6762466491253964
20
0.48005706863264491
30
-5.2451481478353848e-16
40
0.09293999999999944
210
3.0080607192324542e-29
220
3.9975395646475361e-15
230
1
100
AcDbArc
50
-90.000000000000568
51
0
0
LINE
5
159
100
AcDbEntity
8
0
100
AcDbLine
10
-3.5833066491253973
20
0.48005706863264552
30
-5.2451481478353848e-16
11
-3.5833066491253964
21
0.66510692678931449
31
1.7483827159451283e-16
0
SPLINE
5
160
100
AcDbEntity
8
0
100
AcDbSpline
70
0
71
3
72
10
73
6
74
0
42
0.000000001
43
0.0000000001
44
0.0000000001
40
0.71496780690929707
40
0.71496780690929707
40
0.71496780690929707
40
0.71496780690929707
40
0.79126840494947337
40
0.79126840494947337
40
0.82745183862418092
40
0.82745183862418092
40
0.82745183862418092
40
0.82745183862418092
10
-3.5833066491253964
20
0.66510692678931449
30
1.7483827159451283e-16
10
-3.586915276818627
20
0.67442387277349281
30
-1.7483827159451283e-16
10
-3.588926193451873
20
0.68429510908542335
30
-1.7483827159451283e-16
10
-3.5893925222873415
20
0.69904926416360424
30
-1.7483827159451283e-16
10
-3.5891602684067463
20
0.70378865888044173
30
1.7483827159451283e-16
10
-3.5885530963977565
20
0.70847626618528614
30
1.7483827159451283e-16
0
SPLINE
5
161
100
AcDbEntity
8
0
100
AcDbSpline
70
0
71
3
72
10
73
6
74
0
42
0.000000001
43
0.0000000001
44
0.0000000001
40
0.82745183862418092
40
0.82745183862418092
40
0.82745183862418092
40
0.82745183862418092
40
0.87914216799893252
40
0.87914216799893252
40
0.88178754639119716
40
0.88178754639119716
40
0.88178754639119716
40
0.88178754639119716
10
-3.5885530963977565
20
0.70847626618528614
30
1.7483827159451283e-16
10
-3.5876857126824904
20
0.71517281045870218
30
1.7483827159451283e-16
10
-3.5860531654233818
20
0.72176366303588468
30
-5.2451481478353848e-16
10
-3.5835554758082138
20
0.72844246652435785
30
-1.7483827159451283e-16
10
-3.5834319964142467
20
0.72876682043519958
30
-1.7483827159451283e-16
10
-3.5833066491253964
20
0.72909035006053224
30
1.7483827159451283e-16
0
LINE
5
162
100
AcDbEntity
8
0
100
AcDbLine
10
-3.5833066491253955
20
0.72909035006053236
30
1.748382715945129e-16
11
-3.5833066491253964
21
0.84902985513307716
31
1.7483827159451283e-16
0
ARC
5
163
100
AcDbEntity
8
0
100
AcDbCircle
10
-3.1258396030232882
20
0.8490298551330796
30
-1.7483827159451283e-16
40
0.45746704610210409
210
0
220
0
230
1
100
AcDbArc
50
161.41363583375045
51
180
0
SPLINE
5
164
100
AcDbEntity
8
0
100
AcDbSpline
70
0
71
3
72
10
73
6
74
0
42
0.000000001
43
0.0000000001
44
0.0000000001
40
1.3432973821538701
40
1.3432973821538701
40
1.3432973821538701
40
1.3432973821538701
40
1.3684628926465598
40
1.3684628926465598
40
1.3959906011861301
40
1.3959906011861301
40
1.3959906011861301
40
1.3959906011861301
10
-3.5594471316124312
20
0.9948400379743364
30
1.7483827159451283e-16
10
-3.5595113892246792
20
0.99813694765640237
30
1.7483827159451283e-16
10
-3.5593915312203808
20
1.0014373860476555
30
1.7483827159451283e-16
10
-3.5587544274305016
20
1.0083230994509544
30
1.7483827159451283e-16
10
-3.5582020649202684
20
1.0118938309002472
30
-1.7483827159451283e-16
10
-3.5574342276050954
20
1.0154182770996267
30
-1.7483827159451283e-16
0
SPLINE
5
165
100
AcDbEntity
8
0
100
AcDbSpline
70
0
71
3
72
13
73
9
74
0
42
0.000000001
43
0.0000000001
44
0.0000000001
40
1.3959906011861301
40
1.3959906011861301
40
1.3959906011861301
40
1.3959906011861301
40
1.418222628414564
40
1.418222628414564
40
1.418222628414564
40
1.5060880397633774
40
1.5060880397633774
40
1.5342499366805606
40
1.5342499366805606
40
1.5342499366805606
40
1.5342499366805606
10
-3.5574342276050954
20
1.0154182770996267
30
-1.7483827159451283e-16
10
-3.5568141040639958
20
1.0182647030473992
30
-1.7483827159451283e-16
10
-3.5560534362745089
20
1.0210809392690079
30
1.7483827159451283e-16
10
-3.5551543637218481
20
1.0238565461196425
30
-1.7483827159451283e-16
10
-3.5516010494486898
20
1.034826298682813
30
-1.7483827159451283e-16
10
-3.545939144065156
20
1.04499690615304
30
1.7483827159451283e-16
10
-3.5360986997003363
20
1.0566166100209584
30
1.7483827159451283e-16
10
-3.5335410318244294
20
1.0592787476894778
30
1.7483827159451283e-16
10
-3.5308310036186135
20
1.0617692819284412
30
-5.2451481478353848e-16
0
ARC
5
166
100
AcDbEntity
8
0
100
AcDbCircle
10
-3.1258396030232882
20
0.8490298551330796
30
-1.7483827159451283e-16
40
0.45746704610207822
210
-4.9143515532672586e-17
220
2.5814778560140828e-17
230
1
100
AcDbArc
50
115.35467654075285
51
152.28733749980614
0
SPLINE
5
167
100
AcDbEntity
8
0
100
AcDbSpline
70
0
71
3
72
15
73
11
74
0
42
0.000000001
43
0.0000000001
44
0.0000000001
40
1.3290524444326093
40
1.3290524444326093
40
1.3290524444326093
40
1.3290524444326093
40
1.3683194459442429
40
1.3683194459442429
40
1.418083857528295
40
1.418083857528295
40
1.418083857528295
40
1.5059931727743068
40
1.5059931727743068
40
1.5290361629138816
40
1.5290361629138816
40
1.5290361629138816
40
1.5290361629138816
10
-3.3217363344096076
20
1.2624310753798478
30
-1.7483827159451283e-16
10
-3.3181600381503888
20
1.2661339287446689
30
-1.7483827159451283e-16
10
-3.3142658953418671
20
1.269519875054943
30
1.7483827159451283e-16
10
-3.3048143716806546
20
1.2763888171357232
30
-1.7483827159451283e-16
10
-3.2991229941068974
20
1.2796322679669601
30
-1.7483827159451283e-16
10
-3.293127067915083
20
1.2822206516750756
30
-1.7483827159451283e-16
10
-3.2825352062008593
20
1.2867930565751122
30
-1.7483827159451283e-16
10
-3.2711514626202631
20
1.2892528811323398
30
1.7483827159451283e-16
10
-3.2565931485881325
20
1.2895168480091339
30
1.7483827159451283e-16
10
-3.2535743850345433
20
1.2894167614798293
30
0
10
-3.2505720053068559
20
1.2891638416530078
30
-1.7483827159451283e-16
0
ARC
5
168
100
AcDbEntity
8
0
100
AcDbCircle
10
-3.1258396030232882
20
0.8490298551330796
30
-1.7483827159451283e-16
40
0.45746704610206118
210
4.5840077100865996e-17
220
4.18395413474061e-17
230
1
100
AcDbArc
50
94.304264984462506
51
105.82254062826586
0
ARC
5
169
100
AcDbEntity
8
0
100
AcDbCircle
10
-3.1250137506115347
20
0.84999999999999465
30
-1.2374479012755783e-31
40
0.45656250000001991
210
5.3436768411525776e-19
220
-6.9182873449906205e-18
230
1
100
AcDbArc
50
69.12034871300483
51
94.416749621305016
0
SPLINE
5
170
100
AcDbEntity
8
0
100
AcDbSpline
70
0
71
3
72
12
73
8
74
0
42
0.000000001
43
0.0000000001
44
0.0000000001
40
0.18497240407027374
40
0.18497240407027374
40
0.18497240407027374
40
0.18497240407027374
40
0.26378853899078192
40
0.26378853899078192
40
0.35169756199653757
40
0.35169756199653757
40
0.38098484665889221
40
0.38098484665889221
40
0.38098484665889221
40
0.38098484665889221
10
-2.9622920484001831
20
1.2765805483726629
30
-1.7483827159451283e-16
10
-2.9519676834256576
20
1.2764564299812275
30
-1.7483827159451283e-16
10
-2.9417342513937235
20
1.2745286506471747
30
1.7483827159451283e-16
10
-2.9212647654702297
20
1.2668000815459814
30
-1.7483827159451283e-16
10
-2.9113709570549342
20
1.2606560046547672
30
-3.4967654318902565e-16
10
-2.9001225282593368
20
1.250167067298195
30
0
10
-2.8974911149077069
20
1.2473712984259309
30
-3.4967654318902565e-16
10
-2.8950534823641747
20
1.2444205767010275
30
1.7483827159451283e-16
0
ENDSEC
0
SECTION
2
OBJECTS
0
DICTIONARY
5
C
100
AcDbDictionary
3
ACAD_GROUP
350
D
3
ACAD_MLINESTYLE
350
17
0
DICTIONARY
5
D
100
AcDbDictionary
0
DICTIONARY
5
1A
330
C
100
AcDbDictionary
0
DICTIONARY
5
17
100
AcDbDictionary
0
ENDSEC
0
EOF
