0
SECTION
2
HEADER
9
$INSUNITS
70
1
9
$ACADVER
1
AC1014
9
$HANDSEED
5
FFFF
0
ENDSEC
0
SECTION
2
TABLES
0
TABLE
2
VPORT
5
8
100
AcDbSymbolTable
0
ENDTAB
0
TABLE
2
LTYPE
5
5
100
AcDbSymbolTable
0
LTYPE
5
14
100
AcDbSymbolTableRecord
100
AcDbLinetypeTableRecord
2
BYBLOCK
70
0
0
LTYPE
5
15
100
AcDbSymbolTableRecord
100
AcDbLinetypeTableRecord
2
BYLAYER
70
0
0
ENDTAB
0
TABLE
2
LAYER
5
2
100
AcDbSymbolTable
70
2
0
LAYER
5
50
100
AcDbSymbolTableRecord
100
AcDbLayerTableRecord
2
0
70
0
6
CONTINUOUS
0
ENDTAB
0
TABLE
2
STYLE
5
3
100
AcDbSymbolTable
70
1
0
STYLE
5
11
100
AcDbSymbolTableRecord
100
AcDbTextStyleTableRecord
2
STANDARD
70
0
0
ENDTAB
0
TABLE
2
VIEW
5
6
100
AcDbSymbolTable
70
0
0
ENDTAB
0
TABLE
2
UCS
5
7
100
AcDbSymbolTable
70
0
0
ENDTAB
0
TABLE
2
APPID
5
9
100
AcDbSymbolTable
70
2
0
APPID
5
12
100
AcDbSymbolTableRecord
100
AcDbRegAppTableRecord
2
ACAD
70
0
0
ENDTAB
0
TABLE
2
DIMSTYLE
5
A
100
AcDbSymbolTable
70
1
0
ENDTAB
0
TABLE
2
BLOCK_RECORD
5
1
100
AcDbSymbolTable
70
1
0
BLOCK_RECORD
5
1F
100
AcDbSymbolTableRecord
100
AcDbBlockTableRecord
2
*MODEL_SPACE
0
BLOCK_RECORD
5
1B
100
AcDbSymbolTableRecord
100
AcDbBlockTableRecord
2
*PAPER_SPACE
0
ENDTAB
0
ENDSEC
0
SECTION
2
BLOCKS
0
BLOCK
5
20
100
AcDbEntity
100
AcDbBlockBegin
2
*MODEL_SPACE
0
ENDBLK
5
21
100
AcDbEntity
100
AcDbBlockEnd
0
BLOCK
5
1C
100
AcDbEntity
100
AcDbBlockBegin
2
*PAPER_SPACE
0
ENDBLK
5
1D
100
AcDbEntity
100
AcDbBlockEnd
0
ENDSEC
0
SECTION
2
ENTITIES
0
ARC
5
100
100
AcDbEntity
8
0
100
AcDbCircle
10
-3.1250003607731074
20
0.84999999999999631
30
2.1854783949313934e-17
40
0.45656250000001825
210
1.6552624644070531e-16
220
1.9560193941693625e-17
230
1
100
AcDbArc
50
3.9224367793991806
51
94.353429719195006
0
ARC
5
101
100
AcDbEntity
8
0
100
AcDbCircle
10
-3.1258396030235072
20
0.84902985513307361
30
2.1854783949337785e-17
40
0.45746704610223043
210
5.5373452966153866e-17
220
3.9075078538845579e-18
230
1
100
AcDbArc
50
0
51
4.0364684517604905
0
LINE
5
102
100
AcDbEntity
8
0
100
AcDbLine
10
-2.6683725569212768
20
0.84902985513307749
30
-3.4767460115694264e-18
11
-2.6683725569212777
21
0.38711706863264511
31
2.1854783949314103e-17
0
LINE
5
103
100
AcDbEntity
8
0
100
AcDbLine
10
-2.6683725569212777
20
0.38711706863264511
30
2.1854783949314103e-17
11
-2.5409645669289955
21
0.38711706863264511
31
2.1854783949314103e-17
0
LINE
5
104
100
AcDbEntity
8
0
100
AcDbLine
10
-2.5409645669289955
20
0.38711706863264511
30
2.1854783949314103e-17
11
-2.5409645669289951
21
0.97222199519903751
31
2.1854783949314103e-17
0
ARC
5
105
100
AcDbEntity
8
0
100
AcDbCircle
10
-3.0595745669289958
20
0.97222199519903785
30
3.7153132713833967e-16
40
0.5186100000000009
210
6.7425723219572495e-16
220
8.6072420897103756e-18
230
1
100
AcDbArc
50
0
51
71.40669565797549
0
LINE
5
106
100
AcDbEntity
8
0
100
AcDbLine
10
-2.8942165205724817
20
1.4637634976229497
30
3.5713700806831844e-16
11
-3.280426161988407
21
1.5936871591523709
31
4.3709567898628207e-17
0
ARC
5
107
100
AcDbEntity
8
0
100
AcDbCircle
10
-3.2841088627373662
20
1.5827400035768977
30
3.7153132713833977e-16
40
0.011549999999999961
210
9.0498261897437429e-15
220
2.6901413387473607e-14
230
1
100
AcDbArc
50
71.406695657975177
51
202.50160725910339
0
ARC
5
108
100
AcDbEntity
8
0
100
AcDbCircle
10
-3.3813922470747535
20
1.5424407091430723
30
-3.2782175923971149e-16
40
0.093750000000000194
210
5.1285020515112878e-17
220
2.1244636541586615e-17
230
1
100
AcDbArc
50
-70.815386547693038
51
22.501607259103391
0
LINE
5
109
100
AcDbEntity
8
0
100
AcDbLine
10
-3.350584775843739
20
1.453897148020028
30
-3.2752064525965596e-16
11
-3.3311255541154949
21
1.3584426904226943
31
2.0488859952481971e-17
0
ARC
5
110
100
AcDbEntity
8
0
100
AcDbCircle
10
-3.3433736395310474
20
1.3559458116404259
30
-3.2782175923971154e-16
40
0.012500000000000278
210
2.7720923137723056e-18
220
-1.359810643592211e-17
230
1
100
AcDbArc
50
-168.47764220846136
51
11.522357791539642
0
LINE
5
111
100
AcDbEntity
8
0
100
AcDbLine
10
-3.3556217249465998
20
1.3534489328581578
30
-3.2782175923971154e-16
11
-3.3750809466748453
21
1.4489033904554915
31
2.3220707946146236e-17
0
ARC
5
112
100
AcDbEntity
8
0
100
AcDbCircle
10
-3.3813922470747535
20
1.5424407091430723
30
-3.2782175923971149e-16
40
0.093749999999999972
210
-5.4918088528662639e-17
220
-1.0660192868205201e-17
230
1
100
AcDbArc
50
173.18484952355098
51
273.8601021307735
0
ARC
5
113
100
AcDbEntity
8
0
100
AcDbCircle
10
-3.4859482145798055
20
1.5549362947268897
30
3.7153132713833977e-16
40
0.011550000000000223
210
6.0552438255190527e-14
220
-7.2287626709432866e-15
230
1
100
AcDbArc
50
-6.8151504764535451
51
117.02778593939591
0
ARC
5
114
100
AcDbEntity
8
0
100
AcDbCircle
10
-3.1258396030235072
20
0.84902985513307361
30
2.1854783949337785e-17
40
0.80400322485117182
210
2.472669090919884e-16
220
-3.6254982088276422e-16
230
1
100
AcDbArc
50
117.02778593938605
51
123.85539797555319
0
LINE
5
115
100
AcDbEntity
8
0
100
AcDbLine
10
-3.5737488469882774
20
1.5167112872112491
30
2.2415623460163019e-16
11
-3.4372133575110335
21
1.291513530515467
31
3.7153132713833977e-16
0
ARC
5
116
100
AcDbEntity
8
0
100
AcDbCircle
10
-3.4479022362326064
20
1.2850329540229384
30
-3.2782175923971149e-16
40
0.012499999999999999
210
-2.8779540939400242e-17
220
4.7468157056462521e-17
230
1
100
AcDbArc
50
-148.77192213677895
51
31.228077863222804
0
LINE
5
117
100
AcDbEntity
8
0
100
AcDbLine
10
-3.4585911149541793
20
1.2785523775304102
30
-3.2782175923971154e-16
11
-3.5943293639169003
21
1.5024351883750819
31
-3.2782175923971154e-16
0
ARC
5
118
100
AcDbEntity
8
0
100
AcDbCircle
10
-3.1258396030235072
20
0.84902985513307361
30
2.1854783949337785e-17
40
0.80400322485114961
210
-2.9853926871513905e-16
220
3.2110841754285866e-16
230
1
100
AcDbArc
50
125.64041530222578
51
132.63849563233012
0
ARC
5
119
100
AcDbEntity
8
0
100
AcDbCircle
10
-3.6626239470469479
20
1.431991844964559
30
7.2120787032736537e-16
40
0.011550000000000255
210
-3.1080010983575698e-14
220
3.3753713663029161e-14
230
1
100
AcDbArc
50
132.63849563233839
51
256.48143204818609
0
ARC
5
120
100
AcDbEntity
8
0
100
AcDbCircle
10
-3.6872389244699408
20
1.3296092639926695
30
3.7153132713833977e-16
40
0.093750000000000625
210
-3.2440781915518578e-18
220
-1.3493292819983286e-17
230
1
100
AcDbArc
50
-32.902541471771357
51
76.481432048184388
0
LINE
5
121
100
AcDbEntity
8
0
100
AcDbLine
10
-3.6085268210238106
20
1.2786831678229669
30
3.7109951462874411e-16
11
-3.5365630655354954
21
1.2170794256189774
31
-3.3328545522704005e-16
0
ARC
5
122
100
AcDbEntity
8
0
100
AcDbCircle
10
-3.5446919104562404
20
1.2075835380746505
30
3.7153132713833977e-16
40
0.012499999999999747
210
3.6099323178465968e-17
220
4.2170211963851279e-17
230
1
100
AcDbArc
50
-130.5647971325362
51
49.43520286745543
0
LINE
5
123
100
AcDbEntity
8
0
100
AcDbLine
10
-3.5528207553769833
20
1.1980876505303233
30
3.7222521652873045e-16
11
-3.6247845108652981
21
1.2596913927343125
31
3.7699502312566828e-16
0
ARC
5
124
100
AcDbEntity
8
0
100
AcDbCircle
10
-3.6872389244699408
20
1.3296092639926695
30
3.7153132713833977e-16
40
0.093749999999999195
210
-4.4192546829176e-18
220
-7.8380137854475255e-17
230
1
100
AcDbArc
50
202.38897368674037
51
311.77294720669613
0
ARC
5
125
100
AcDbEntity
8
0
100
AcDbCircle
10
-3.7846013422102081
20
1.2895012895764804
30
2.1854783949314097e-17
40
0.011550000000000666
210
-2.772058840704512e-14
220
-1.1469226135171374e-14
230
1
100
AcDbArc
50
22.388973686735795
51
146.2319101025862
0
ARC
5
126
100
AcDbEntity
8
0
100
AcDbCircle
10
-3.1258396030235072
20
0.84902985513307361
30
2.1854783949337785e-17
40
0.80400322485110576
210
3.1517831392075551e-17
220
4.570284613336874e-17
230
1
100
AcDbArc
50
146.23191010257878
51
153.12798735073633
0
LINE
5
127
100
AcDbEntity
8
0
100
AcDbLine
10
-3.8430252930507169
20
1.2124385391118078
30
2.4636013010038896e-16
11
-3.6074235156042906
21
1.0950943668858488
31
4.3709567898628207e-17
0
ARC
5
128
100
AcDbEntity
8
0
100
AcDbCircle
10
-3.6129963268173175
20
1.0839053644645436
30
-3.2782175923971154e-16
40
0.012499999999999841
210
3.7315025801695966e-17
220
-4.9592829503802267e-17
230
1
100
AcDbArc
50
-116.47612752480812
51
63.523872475191418
0
LINE
5
129
100
AcDbEntity
8
0
100
AcDbLine
10
-3.618569138030344
20
1.0727163620432389
30
-3.2816870393490688e-16
11
-3.8539775891181685
21
1.1899642458550546
31
3.7153132713833977e-16
0
ARC
5
130
100
AcDbEntity
8
0
100
AcDbCircle
10
-3.1258396030235072
20
0.84902985513307361
30
2.1854783949337785e-17
40
0.80400322485109332
210
3.9388061472225843e-16
220
-1.8442582307480785e-16
230
1
100
AcDbArc
50
154.90970365933538
51
161.8297226749938
0
ARC
5
131
100
AcDbEntity
8
0
100
AcDbCircle
10
-3.8787763158210473
20
1.0961501094598274
30
2.1854783949314109e-17
40
0.011550000000000178
210
7.0860119518628293e-15
220
-2.3499523543725178e-15
230
1
100
AcDbArc
50
161.82972267499716
51
285.67265909084614
0
ARC
5
132
100
AcDbEntity
8
0
100
AcDbCircle
10
-3.8503304654270325
20
0.99476508297484068
30
3.7153132713833982e-16
40
0.093750000000000153
210
7.4979197679205393e-18
220
-2.672364452893147e-17
230
1
100
AcDbArc
50
-4.9897738530983391
51
105.6726590908433
0
LINE
5
133
100
AcDbEntity
8
0
100
AcDbLine
10
-3.7569357556355443
20
0.98661090104385041
30
3.7061315163822699e-16
11
-3.66445054670355
21
0.96584980887916239
31
3.2782175923971155e-17
0
ARC
5
134
100
AcDbEntity
8
0
100
AcDbCircle
10
-3.6671884138035242
20
0.95365333054552548
30
-3.2782175923971159e-16
40
0.012499999999999942
210
-5.720288735413668e-17
220
-1.38223869431944e-18
230
1
100
AcDbArc
50
-102.6520295138679
51
77.347970486140284
0
LINE
5
135
100
AcDbEntity
8
0
100
AcDbLine
10
-3.6699262809035003
20
0.94145685221188879
30
-3.2799523158730931e-16
11
-3.762411489835495
21
0.96221794437657659
31
3.6606763115101125e-16
0
ARC
5
136
100
AcDbEntity
8
0
100
AcDbCircle
10
-3.8503304654270325
20
0.99476508297484068
30
3.7153132713833982e-16
40
0.093749999999999833
210
-6.1694379910354005e-17
220
-6.7574681835378849e-18
230
1
100
AcDbArc
50
229.80308604621479
51
339.68571482536942
0
ARC
5
137
100
AcDbEntity
8
0
100
AcDbCircle
10
-3.9182928278745828
20
0.9143337004767903
30
7.2120787032736537e-16
40
0.011549999999999595
210
1.9775642975160954e-14
220
2.3403870127490389e-14
230
1
100
AcDbArc
50
49.80308604621213
51
180
0
LINE
5
138
100
AcDbEntity
8
0
100
AcDbLine
10
-3.9298428278745829
20
0.91433370047678975
30
7.2120787032736537e-16
11
-3.9298428278745834
21
0.82608861774341846
31
2.1854783949314103e-17
0
LINE
5
139
100
AcDbEntity
8
0
100
AcDbLine
10
-3.9298428278745834
20
0.82608861774341846
30
2.1854783949314103e-17
11
-3.6728035721473966
21
0.79825894860748259
31
2.1854783949314103e-17
0
ARC
5
140
100
AcDbEntity
8
0
100
AcDbCircle
10
-3.6741490851982528
20
0.7858315758107095
30
-3.2782175923971154e-16
40
0.012500000000000016
210
-7.4690978449695326e-19
220
-6.8985777072894321e-18
230
1
100
AcDbArc
50
-96.179349873535244
51
83.820650126462695
0
LINE
5
141
100
AcDbEntity
8
0
100
AcDbLine
10
-3.6754945982491085
20
0.77340420301393631
30
-3.279084954135104e-16
11
-3.9298428278745834
21
0.80094251445108489
31
3.7153132713833977e-16
0
LINE
5
142
100
AcDbEntity
8
0
100
AcDbLine
10
-3.9298428278745834
20
0.80094251445108489
30
3.7153132713833977e-16
11
-3.9298428278745843
21
0.70879935399751615
31
2.1854783949314143e-17
0
ARC
5
143
100
AcDbEntity
8
0
100
AcDbCircle
10
-3.9182928278745841
20
0.70879935399751626
30
-3.2782175923971154e-16
40
0.011549999999999979
210
3.0275025384331283e-14
220
-7.6005410741254397e-17
230
1
100
AcDbArc
50
180
51
300.50392193886648
0
ARC
5
144
100
AcDbEntity
8
0
100
AcDbCircle
10
-3.8648428278745834
20
0.61807346188286161
30
3.7153132713833982e-16
40
0.09375
210
4.7828097984496011e-17
220
2.8177312756988067e-17
230
1
100
AcDbArc
50
7.6622556607660028
51
120.50392193886707
0
LINE
5
145
100
AcDbEntity
8
0
100
AcDbLine
10
-3.7719298982038425
20
0.63057346188286156
30
3.6673526202455869e-16
11
-3.6771997384999904
21
0.63057346188286134
31
-3.168943672650545e-16
0
ARC
5
146
100
AcDbEntity
8
0
100
AcDbCircle
10
-3.6771997384999904
20
0.61807346188286139
30
3.7153132713833977e-16
40
0.012499999999999976
210
0
220
0
230
1
100
AcDbArc
50
-90
51
90
0
LINE
5
147
100
AcDbEntity
8
0
100
AcDbLine
10
-3.6771997384999904
20
0.60557346188286143
30
3.7153132713833977e-16
11
-3.7719298982038425
21
0.60557346188286154
31
3.6060393516368269e-16
0
ARC
5
148
100
AcDbEntity
8
0
100
AcDbCircle
10
-3.8648428278745834
20
0.61807346188286161
30
3.7153132713833982e-16
40
0.093750000000000458
210
-1.8503717077090715e-18
220
-1.3753876507444861e-17
230
1
100
AcDbArc
50
239.49607806113301
51
352.33774433923389
0
ARC
5
149
100
AcDbEntity
8
0
100
AcDbCircle
10
-3.9182928278745837
20
0.52734756976820651
30
2.1854783949314119e-17
40
0.011549999999999868
210
-1.5232411383640763e-14
220
-2.6043904757228823e-14
230
1
100
AcDbArc
50
59.496078061135925
51
180
0
LINE
5
150
100
AcDbEntity
8
0
100
AcDbLine
10
-3.9298428278745834
20
0.52734756976820651
30
2.3137091542756157e-17
11
-3.9298428278745834
21
0.48005706863264558
31
2.1854783949314103e-17
0
ARC
5
151
100
AcDbEntity
8
0
100
AcDbCircle
10
-3.8369028278745847
20
0.48005706863264491
30
2.1854783949314103e-17
40
0.092939999999998649
210
1.7343280306372841e-45
220
2.3048221321538967e-31
230
1
100
AcDbArc
50
180
51
270.00000000000023
0
LINE
5
152
100
AcDbEntity
8
0
100
AcDbLine
10
-3.8369028278745843
20
0.38711706863264556
30
2.1854783949314122e-17
11
-3.6762466491253973
21
0.38711706863264544
31
-3.2782175923971154e-16
0
ARC
5
153
100
AcDbEntity
8
0
100
AcDbCircle
10
-3.676246649125396
20
0.48005706863264525
30
2.1854783949314063e-17
40
0.092939999999999787
210
1.1102230246245865e-16
220
-3.7623901784917855e-15
230
1
100
AcDbArc
50
-90.00000000000081
51
0
0
LINE
5
154
100
AcDbEntity
8
0
100
AcDbLine
10
-3.5833066491253955
20
0.48005706863264552
30
1.1536371158447922e-17
11
-3.5833066491253964
21
0.84902985513307716
31
3.7153132713833977e-16
0
ARC
5
155
100
AcDbEntity
8
0
100
AcDbCircle
10
-3.1258396030235072
20
0.84902985513307361
30
2.1854783949337785e-17
40
0.45746704610205119
210
-1.1092752940242138e-16
220
-1.278526628003292e-18
230
1
100
AcDbArc
50
94.239398046811345
51
180
0
ENDSEC
0
SECTION
2
OBJECTS
0
DICTIONARY
5
C
100
AcDbDictionary
3
ACAD_GROUP
350
D
3
ACAD_MLINESTYLE
350
17
0
DICTIONARY
5
D
100
AcDbDictionary
0
DICTIONARY
5
1A
330
C
100
AcDbDictionary
0
DICTIONARY
5
17
100
AcDbDictionary
0
ENDSEC
0
EOF
