0
SECTION
2
HEADER
9
$INSUNITS
70
1
9
$ACADVER
1
AC1014
9
$HANDSEED
5
FFFF
0
ENDSEC
0
SECTION
2
TABLES
0
TABLE
2
VPORT
5
8
100
AcDbSymbolTable
0
ENDTAB
0
TABLE
2
LTYPE
5
5
100
AcDbSymbolTable
0
LTYPE
5
14
100
AcDbSymbolTableRecord
100
AcDbLinetypeTableRecord
2
BYBLOCK
70
0
0
LTYPE
5
15
100
AcDbSymbolTableRecord
100
AcDbLinetypeTableRecord
2
BYLAYER
70
0
0
ENDTAB
0
TABLE
2
LAYER
5
2
100
AcDbSymbolTable
70
2
0
LAYER
5
50
100
AcDbSymbolTableRecord
100
AcDbLayerTableRecord
2
0
70
0
6
CONTINUOUS
0
ENDTAB
0
TABLE
2
STYLE
5
3
100
AcDbSymbolTable
70
1
0
STYLE
5
11
100
AcDbSymbolTableRecord
100
AcDbTextStyleTableRecord
2
STANDARD
70
0
0
ENDTAB
0
TABLE
2
VIEW
5
6
100
AcDbSymbolTable
70
0
0
ENDTAB
0
TABLE
2
UCS
5
7
100
AcDbSymbolTable
70
0
0
ENDTAB
0
TABLE
2
APPID
5
9
100
AcDbSymbolTable
70
2
0
APPID
5
12
100
AcDbSymbolTableRecord
100
AcDbRegAppTableRecord
2
ACAD
70
0
0
ENDTAB
0
TABLE
2
DIMSTYLE
5
A
100
AcDbSymbolTable
70
1
0
ENDTAB
0
TABLE
2
BLOCK_RECORD
5
1
100
AcDbSymbolTable
70
1
0
BLOCK_RECORD
5
1F
100
AcDbSymbolTableRecord
100
AcDbBlockTableRecord
2
*MODEL_SPACE
0
BLOCK_RECORD
5
1B
100
AcDbSymbolTableRecord
100
AcDbBlockTableRecord
2
*PAPER_SPACE
0
ENDTAB
0
ENDSEC
0
SECTION
2
BLOCKS
0
BLOCK
5
20
100
AcDbEntity
100
AcDbBlockBegin
2
*MODEL_SPACE
0
ENDBLK
5
21
100
AcDbEntity
100
AcDbBlockEnd
0
BLOCK
5
1C
100
AcDbEntity
100
AcDbBlockBegin
2
*PAPER_SPACE
0
ENDBLK
5
1D
100
AcDbEntity
100
AcDbBlockEnd
0
ENDSEC
0
SECTION
2
ENTITIES
0
SPLINE
5
100
100
AcDbEntity
8
0
100
AcDbSpline
70
0
71
3
72
12
73
8
74
0
42
0.000000001
43
0.0000000001
44
0.0000000001
40
0.6014051534750271
40
0.6014051534750271
40
0.6014051534750271
40
0.6014051534750271
40
0.61563687786035592
40
0.61563687786035592
40
0.70346211783714696
40
0.70346211783714696
40
0.7704412797796345
40
0.7704412797796345
40
0.7704412797796345
40
0.7704412797796345
10
-2.6683725569212768
20
0.54503382550927504
30
3.7153132713833977e-16
10
-2.6676907997081161
20
0.54330022265510025
30
1.9669305554382694e-16
10
-2.6670630715615014
20
0.54154330142138074
30
1.9669305554382694e-16
10
-2.6629587251340467
20
0.52879447816788205
30
2.1854783949314103e-17
10
-2.6616037295513313
20
0.51723897631524074
30
1.9669305554382694e-16
10
-2.6631845288421516
20
0.49698499310173255
30
1.9669305554382694e-16
10
-2.665168144039042
20
0.4883875023285642
30
1.9669305554382694e-16
10
-2.6683725569212768
20
0.48023464705440472
30
3.7153132713833977e-16
0
LINE
5
101
100
AcDbEntity
8
0
100
AcDbLine
10
-2.6683725569212768
20
0.48023464705440477
30
3.7153132713833982e-16
11
-2.6683725569212777
21
0.38711706863264511
31
3.7153132713833977e-16
0
LINE
5
102
100
AcDbEntity
8
0
100
AcDbLine
10
-2.6683725569212777
20
0.38711706863264511
30
3.7153132713833977e-16
11
-2.5409645669289955
21
0.38711706863264511
31
2.1854783949314103e-17
0
LINE
5
103
100
AcDbEntity
8
0
100
AcDbLine
10
-2.5409645669289955
20
0.38711706863264511
30
2.1854783949314103e-17
11
-2.5409645669289951
21
0.97222199519903751
31
2.1854783949314103e-17
0
ARC
5
104
100
AcDbEntity
8
0
100
AcDbCircle
10
-3.0595745669289958
20
0.97222199519903785
30
3.7153132713833967e-16
40
0.5186100000000009
210
6.7425723219572495e-16
220
8.6072420897103756e-18
230
1
100
AcDbArc
50
0
51
71.40669565797549
0
LINE
5
105
100
AcDbEntity
8
0
100
AcDbLine
10
-2.8942165205724817
20
1.4637634976229497
30
3.5713700806831844e-16
11
-3.280426161988407
21
1.5936871591523709
31
4.3709567898628207e-17
0
ARC
5
106
100
AcDbEntity
8
0
100
AcDbCircle
10
-3.2841088627373662
20
1.5827400035768977
30
3.7153132713833977e-16
40
0.011549999999999961
210
9.0498261897437429e-15
220
2.6901413387473607e-14
230
1
100
AcDbArc
50
71.406695657975177
51
202.50160725910339
0
ARC
5
107
100
AcDbEntity
8
0
100
AcDbCircle
10
-3.3813922470747535
20
1.5424407091430723
30
-3.2782175923971149e-16
40
0.093750000000000194
210
5.1285020515112878e-17
220
2.1244636541586615e-17
230
1
100
AcDbArc
50
-70.815386547693038
51
22.501607259103391
0
LINE
5
108
100
AcDbEntity
8
0
100
AcDbLine
10
-3.350584775843739
20
1.453897148020028
30
-3.2752064525965596e-16
11
-3.3311255541154949
21
1.3584426904226943
31
2.0488859952481971e-17
0
ARC
5
109
100
AcDbEntity
8
0
100
AcDbCircle
10
-3.3433736395310474
20
1.3559458116404259
30
-3.2782175923971154e-16
40
0.012500000000000278
210
2.7720923137723056e-18
220
-1.359810643592211e-17
230
1
100
AcDbArc
50
-168.47764220846136
51
11.522357791539642
0
LINE
5
110
100
AcDbEntity
8
0
100
AcDbLine
10
-3.3556217249465998
20
1.3534489328581578
30
-3.2782175923971154e-16
11
-3.3750809466748453
21
1.4489033904554915
31
2.3220707946146236e-17
0
ARC
5
111
100
AcDbEntity
8
0
100
AcDbCircle
10
-3.3813922470747535
20
1.5424407091430723
30
-3.2782175923971149e-16
40
0.093749999999999972
210
-5.4918088528662639e-17
220
-1.0660192868205201e-17
230
1
100
AcDbArc
50
173.18484952355098
51
273.8601021307735
0
ARC
5
112
100
AcDbEntity
8
0
100
AcDbCircle
10
-3.4859482145798055
20
1.5549362947268897
30
3.7153132713833977e-16
40
0.011550000000000223
210
6.0552438255190527e-14
220
-7.2287626709432866e-15
230
1
100
AcDbArc
50
-6.8151504764535451
51
117.02778593939591
0
ARC
5
113
100
AcDbEntity
8
0
100
AcDbCircle
10
-3.1258396030233366
20
0.84902985513307749
30
1.9669305554382694e-16
40
0.80400322485124598
210
1.4844833479089615e-16
220
-1.6883974089001227e-16
230
1
100
AcDbArc
50
117.02778593939699
51
123.85539797556341
0
LINE
5
114
100
AcDbEntity
8
0
100
AcDbLine
10
-3.5737488469882774
20
1.5167112872112491
30
2.2415623460163019e-16
11
-3.4372133575110335
21
1.291513530515467
31
3.7153132713833977e-16
0
ARC
5
115
100
AcDbEntity
8
0
100
AcDbCircle
10
-3.4479022362326064
20
1.2850329540229384
30
-3.2782175923971149e-16
40
0.012499999999999999
210
-2.8779540939400242e-17
220
4.7468157056462521e-17
230
1
100
AcDbArc
50
-148.77192213677895
51
31.228077863222804
0
LINE
5
116
100
AcDbEntity
8
0
100
AcDbLine
10
-3.4585911149541793
20
1.2785523775304102
30
-3.2782175923971154e-16
11
-3.5943293639169003
21
1.5024351883750819
31
-3.2782175923971154e-16
0
ARC
5
117
100
AcDbEntity
8
0
100
AcDbCircle
10
-3.1258396030233366
20
0.84902985513307749
30
1.9669305554382694e-16
40
0.80400322485124598
210
-4.2525222596759051e-16
220
4.9783569948310757e-16
230
1
100
AcDbArc
50
125.64041530223584
51
132.63849563233927
0
ARC
5
118
100
AcDbEntity
8
0
100
AcDbCircle
10
-3.6626239470469479
20
1.431991844964559
30
7.2120787032736537e-16
40
0.011550000000000255
210
-3.1080010983575698e-14
220
3.3753713663029161e-14
230
1
100
AcDbArc
50
132.63849563233839
51
256.48143204818609
0
ARC
5
119
100
AcDbEntity
8
0
100
AcDbCircle
10
-3.6872389244699408
20
1.3296092639926695
30
3.7153132713833977e-16
40
0.093750000000000625
210
-3.2440781915518578e-18
220
-1.3493292819983286e-17
230
1
100
AcDbArc
50
-32.902541471771357
51
76.481432048184388
0
LINE
5
120
100
AcDbEntity
8
0
100
AcDbLine
10
-3.6085268210238106
20
1.2786831678229669
30
3.7109951462874411e-16
11
-3.5365630655354954
21
1.2170794256189774
31
-3.3328545522704005e-16
0
ARC
5
121
100
AcDbEntity
8
0
100
AcDbCircle
10
-3.5446919104562404
20
1.2075835380746505
30
3.7153132713833977e-16
40
0.012499999999999747
210
-3.6099323178465968e-17
220
-4.2170211963851279e-17
230
1
100
AcDbArc
50
-130.5647971325362
51
49.43520286745543
0
LINE
5
122
100
AcDbEntity
8
0
100
AcDbLine
10
-3.5528207553769833
20
1.1980876505303233
30
3.7083743774794904e-16
11
-3.6247845108652981
21
1.2596913927343125
31
3.7699502312566828e-16
0
ARC
5
123
100
AcDbEntity
8
0
100
AcDbCircle
10
-3.6872389244699408
20
1.3296092639926695
30
3.7153132713833977e-16
40
0.093749999999999195
210
-4.4192546829176e-18
220
-7.8380137854475255e-17
230
1
100
AcDbArc
50
202.38897368674037
51
311.77294720669613
0
ARC
5
124
100
AcDbEntity
8
0
100
AcDbCircle
10
-3.7846013422102081
20
1.2895012895764804
30
2.1854783949314097e-17
40
0.011550000000000666
210
-2.772058840704512e-14
220
-1.1469226135171374e-14
230
1
100
AcDbArc
50
22.388973686735795
51
146.2319101025862
0
ARC
5
125
100
AcDbEntity
8
0
100
AcDbCircle
10
-3.1258396030233366
20
0.84902985513307749
30
1.9669305554382694e-16
40
0.80400322485124542
210
-1.4925511816117492e-16
220
1.6657404380881907e-16
230
1
100
AcDbArc
50
146.23191010258577
51
153.12798735074205
0
LINE
5
126
100
AcDbEntity
8
0
100
AcDbLine
10
-3.8430252930507169
20
1.2124385391118078
30
2.4636013010038896e-16
11
-3.6074235156042906
21
1.0950943668858488
31
4.3709567898628207e-17
0
ARC
5
127
100
AcDbEntity
8
0
100
AcDbCircle
10
-3.6129963268173175
20
1.0839053644645436
30
-3.2782175923971154e-16
40
0.012499999999999841
210
3.7315025801695966e-17
220
-4.9592829503802267e-17
230
1
100
AcDbArc
50
-116.47612752480812
51
63.523872475191418
0
LINE
5
128
100
AcDbEntity
8
0
100
AcDbLine
10
-3.618569138030344
20
1.0727163620432389
30
-3.2816870393490688e-16
11
-3.8539775891181685
21
1.1899642458550546
31
3.7153132713833977e-16
0
ARC
5
129
100
AcDbEntity
8
0
100
AcDbCircle
10
-3.1258396030233366
20
0.84902985513307749
30
1.9669305554382694e-16
40
0.8040032248512462
210
1.9694030736111603e-16
220
-9.2212911537369275e-17
230
1
100
AcDbArc
50
154.90970365934081
51
161.82972267499784
0
ARC
5
130
100
AcDbEntity
8
0
100
AcDbCircle
10
-3.8787763158210473
20
1.0961501094598274
30
2.1854783949314109e-17
40
0.011550000000000178
210
7.0860119518628293e-15
220
-2.3499523543725178e-15
230
1
100
AcDbArc
50
161.82972267499716
51
285.67265909084614
0
ARC
5
131
100
AcDbEntity
8
0
100
AcDbCircle
10
-3.8503304654270325
20
0.99476508297484068
30
3.7153132713833982e-16
40
0.093750000000000153
210
7.4979197679205393e-18
220
-2.672364452893147e-17
230
1
100
AcDbArc
50
-4.9897738530983391
51
105.6726590908433
0
LINE
5
132
100
AcDbEntity
8
0
100
AcDbLine
10
-3.7569357556355443
20
0.98661090104385041
30
3.7061315163822699e-16
11
-3.66445054670355
21
0.96584980887916239
31
3.2782175923971155e-17
0
ARC
5
133
100
AcDbEntity
8
0
100
AcDbCircle
10
-3.6671884138035242
20
0.95365333054552548
30
-3.2782175923971159e-16
40
0.012499999999999942
210
-5.720288735413668e-17
220
-1.38223869431944e-18
230
1
100
AcDbArc
50
-102.6520295138679
51
77.347970486140284
0
LINE
5
134
100
AcDbEntity
8
0
100
AcDbLine
10
-3.6699262809035003
20
0.94145685221188879
30
-3.2799523158730931e-16
11
-3.762411489835495
21
0.96221794437657659
31
3.6606763115101125e-16
0
ARC
5
135
100
AcDbEntity
8
0
100
AcDbCircle
10
-3.8503304654270325
20
0.99476508297484068
30
3.7153132713833982e-16
40
0.093749999999999833
210
-6.1694379910354005e-17
220
-6.7574681835378849e-18
230
1
100
AcDbArc
50
229.80308604621479
51
339.68571482536942
0
ARC
5
136
100
AcDbEntity
8
0
100
AcDbCircle
10
-3.9182928278745828
20
0.9143337004767903
30
7.2120787032736537e-16
40
0.011549999999999595
210
1.9775642975160954e-14
220
2.3403870127490389e-14
230
1
100
AcDbArc
50
49.80308604621213
51
180
0
LINE
5
137
100
AcDbEntity
8
0
100
AcDbLine
10
-3.9298428278745829
20
0.91433370047678975
30
7.2120787032736537e-16
11
-3.9298428278745834
21
0.82608861774341846
31
2.1854783949314103e-17
0
LINE
5
138
100
AcDbEntity
8
0
100
AcDbLine
10
-3.9298428278745834
20
0.82608861774341846
30
2.1854783949314103e-17
11
-3.6728035721473966
21
0.79825894860748259
31
2.1854783949314103e-17
0
ARC
5
139
100
AcDbEntity
8
0
100
AcDbCircle
10
-3.6741490851982528
20
0.7858315758107095
30
-3.2782175923971154e-16
40
0.012500000000000016
210
-7.4690978449695326e-19
220
-6.8985777072894321e-18
230
1
100
AcDbArc
50
-96.179349873535244
51
83.820650126462695
0
LINE
5
140
100
AcDbEntity
8
0
100
AcDbLine
10
-3.6754945982491085
20
0.77340420301393631
30
-3.279084954135104e-16
11
-3.9298428278745834
21
0.80094251445108489
31
3.7153132713833977e-16
0
LINE
5
141
100
AcDbEntity
8
0
100
AcDbLine
10
-3.9298428278745834
20
0.80094251445108489
30
3.7153132713833977e-16
11
-3.9298428278745843
21
0.70879935399751615
31
2.1854783949314143e-17
0
ARC
5
142
100
AcDbEntity
8
0
100
AcDbCircle
10
-3.9182928278745841
20
0.70879935399751626
30
-3.2782175923971154e-16
40
0.011549999999999979
210
3.0275025384331283e-14
220
-7.6005410741254397e-17
230
1
100
AcDbArc
50
180
51
300.50392193886648
0
ARC
5
143
100
AcDbEntity
8
0
100
AcDbCircle
10
-3.8648428278745834
20
0.61807346188286161
30
3.7153132713833982e-16
40
0.09375
210
4.7828097984496011e-17
220
2.8177312756988067e-17
230
1
100
AcDbArc
50
7.6622556607660028
51
120.50392193886707
0
LINE
5
144
100
AcDbEntity
8
0
100
AcDbLine
10
-3.7719298982038425
20
0.63057346188286156
30
3.6673526202455869e-16
11
-3.6771997384999904
21
0.63057346188286134
31
-3.168943672650545e-16
0
ARC
5
145
100
AcDbEntity
8
0
100
AcDbCircle
10
-3.6771997384999904
20
0.61807346188286139
30
3.7153132713833977e-16
40
0.012499999999999976
210
0
220
0
230
1
100
AcDbArc
50
-90
51
90
0
LINE
5
146
100
AcDbEntity
8
0
100
AcDbLine
10
-3.6771997384999904
20
0.60557346188286143
30
3.7153132713833977e-16
11
-3.7719298982038425
21
0.60557346188286154
31
3.6060393516368269e-16
0
ARC
5
147
100
AcDbEntity
8
0
100
AcDbCircle
10
-3.8648428278745834
20
0.61807346188286161
30
3.7153132713833982e-16
40
0.093750000000000458
210
-1.8503717077090715e-18
220
-1.3753876507444861e-17
230
1
100
AcDbArc
50
239.49607806113301
51
352.33774433923389
0
ARC
5
148
100
AcDbEntity
8
0
100
AcDbCircle
10
-3.9182928278745837
20
0.52734756976820651
30
2.1854783949314119e-17
40
0.011549999999999868
210
-1.5232411383640763e-14
220
-2.6043904757228823e-14
230
1
100
AcDbArc
50
59.496078061135925
51
180
0
LINE
5
149
100
AcDbEntity
8
0
100
AcDbLine
10
-3.9298428278745834
20
0.52734756976820651
30
2.3137091542756157e-17
11
-3.9298428278745834
21
0.48005706863264558
31
2.1854783949314103e-17
0
ARC
5
150
100
AcDbEntity
8
0
100
AcDbCircle
10
-3.8369028278745847
20
0.4800570686326448
30
2.18547839493141e-17
40
0.092939999999998649
210
2.6106826273655973e-32
220
-1.6745475915500935e-31
230
1
100
AcDbArc
50
180
51
270.00000000000023
0
LINE
5
151
100
AcDbEntity
8
0
100
AcDbLine
10
-3.8369028278745843
20
0.38711706863264544
30
2.1854783949314085e-17
11
-3.6762466491253973
21
0.38711706863264544
31
-3.2782175923971154e-16
0
ARC
5
152
100
AcDbEntity
8
0
100
AcDbCircle
10
-3.676246649125396
20
0.48005706863264525
30
2.1854783949314063e-17
40
0.092939999999999787
210
1.1102230246245865e-16
220
-3.7623901784917855e-15
230
1
100
AcDbArc
50
-90.00000000000081
51
0
0
LINE
5
153
100
AcDbEntity
8
0
100
AcDbLine
10
-3.5833066491253955
20
0.48005706863264552
30
1.1536371158447922e-17
11
-3.5833066491253964
21
0.51332733558584176
31
3.7153132713833977e-16
0
SPLINE
5
154
100
AcDbEntity
8
0
100
AcDbSpline
70
0
71
3
72
10
73
6
74
0
42
0.000000001
43
0.0000000001
44
0.0000000001
40
1.1152765371899587
40
1.1152765371899587
40
1.1152765371899587
40
1.1152765371899587
40
1.1430876744825291
40
1.1430876744825291
40
1.2180351720085056
40
1.2180351720085056
40
1.2180351720085056
40
1.2180351720085056
10
-3.5833066491253964
20
0.51332733558584176
30
3.7153132713833977e-16
10
-3.5846204637269383
20
0.51671652590024741
30
3.7153132713833977e-16
10
-3.5857271506313539
20
0.52019021030205947
30
-3.2782175923971154e-16
10
-3.5890180567218026
20
0.53326796818492372
30
-3.2782175923971154e-16
10
-3.5898102567945989
20
0.54312812266614563
30
3.7153132713833977e-16
10
-3.5889726796557504
20
0.55290446892178435
30
2.1854783949314103e-17
0
SPLINE
5
155
100
AcDbEntity
8
0
100
AcDbSpline
70
0
71
3
72
10
73
6
74
0
42
0.000000001
43
0.0000000001
44
0.0000000001
40
1.2180351720085056
40
1.2180351720085056
40
1.2180351720085056
40
1.2180351720085056
40
1.2309838908389203
40
1.2309838908389203
40
1.2821973159484026
40
1.2821973159484026
40
1.2821973159484026
40
1.2821973159484026
10
-3.5889726796557504
20
0.55290446892178435
30
2.1854783949314103e-17
10
-3.5888279710099953
20
0.55459353344070539
30
2.1854783949314103e-17
10
-3.5886346185655458
20
0.55628009669762635
30
7.2120787032736537e-16
10
-3.5874349367047391
20
0.56461441869981654
30
3.7153132713833977e-16
10
-3.5857253836248955
20
0.57112058730315129
30
2.1854783949314103e-17
10
-3.5833066491253964
20
0.57735819107906106
30
3.7153132713833977e-16
0
LINE
5
156
100
AcDbEntity
8
0
100
AcDbLine
10
-3.5833066491253955
20
0.57735819107906106
30
3.7153132713833967e-16
11
-3.5833066491253964
21
0.81674044677557267
31
3.7153132713833977e-16
0
SPLINE
5
157
100
AcDbEntity
8
0
100
AcDbSpline
70
0
71
3
72
10
73
6
74
0
42
0.000000001
43
0.0000000001
44
0.0000000001
40
1.1845419821157925
40
1.1845419821157925
40
1.1845419821157925
40
1.1845419821157925
40
1.2309508593271223
40
1.2309508593271223
40
1.307155122549738
40
1.307155122549738
40
1.307155122549738
40
1.307155122549738
10
-3.5833066491253964
20
0.81674044677557267
30
3.7153132713833977e-16
10
-3.5855044430567133
20
0.82238997113487644
30
2.1854783949314103e-17
10
-3.5871218763000781
20
0.82826347233972342
30
-3.2782175923971154e-16
10
-3.589771804674863
20
0.84413483322650462
30
2.1854783949314103e-17
10
-3.5897346294566734
20
0.85419587446829526
30
-3.2782175923971154e-16
10
-3.588025201672413
20
0.86402701153680794
30
3.7153132713833977e-16
0
SPLINE
5
158
100
AcDbEntity
8
0
100
AcDbSpline
70
0
71
3
72
10
73
6
74
0
42
0.000000001
43
0.0000000001
44
0.0000000001
40
1.307155122549738
40
1.307155122549738
40
1.307155122549738
40
1.307155122549738
40
1.3188376796969314
40
1.3188376796969314
40
1.3610111321725933
40
1.3610111321725933
40
1.3610111321725933
40
1.3610111321725933
10
-3.588025201672413
20
0.86402701153680794
30
3.7153132713833977e-16
10
-3.5877631364422786
20
0.86553418207776933
30
2.1854783949314103e-17
10
-3.5874617722476145
20
0.86703594985449939
30
2.1854783949314103e-17
10
-3.5858915195495218
20
0.87392702645542031
30
2.1854783949314103e-17
10
-3.584159136894991
20
0.87919394683441476
30
3.7153132713833977e-16
10
-3.5819478546171273
20
0.88426280984027184
30
3.7153132713833977e-16
0
ARC
5
159
100
AcDbEntity
8
0
100
AcDbCircle
10
-3.1258396030233366
20
0.84902985513307749
30
1.9669305554382694e-16
40
0.45746704610205963
210
-2.8628619896920108e-16
220
2.4687956034839747e-16
230
1
100
AcDbArc
50
138.38928943728826
51
175.58284977103091
0
SPLINE
5
160
100
AcDbEntity
8
0
100
AcDbSpline
70
0
71
3
72
15
73
11
74
0
42
0.000000001
43
0.0000000001
44
0.0000000001
40
1.2453289259428857
40
1.2453289259428857
40
1.2453289259428857
40
1.2453289259428857
40
1.3186238050854726
40
1.3186238050854726
40
1.3683801619926099
40
1.3683801619926099
40
1.4181386403644589
40
1.4181386403644589
40
1.4181386403644589
40
1.4415907578057769
40
1.4415907578057769
40
1.4415907578057769
40
1.4415907578057769
10
-3.4678758040001219
20
1.1528181621672886
30
2.1854783949314103e-17
10
-3.4643828949787592
20
1.1617532031310065
30
2.1854783949314103e-17
10
-3.459456312486608
20
1.1700738233627943
30
2.1854783949314103e-17
10
-3.4490859496071109
20
1.1824523328607459
30
2.1854783949314103e-17
10
-3.4443519416123967
20
1.1869785591640722
30
3.7153132713833977e-16
10
-3.4339750906903719
20
1.1949080117257358
30
2.1854783949314103e-17
10
-3.4283639917958695
20
1.1982869041894977
30
2.1854783949314103e-17
10
-3.4224327241937131
20
1.2010183426698708
30
2.1854783949314103e-17
10
-3.4196372049388404
20
1.202305721587424
30
2.1854783949314103e-17
10
-3.4167817299415644
20
1.2034441388263619
30
2.1854783949314103e-17
10
-3.4138783998814657
20
1.2044306848646145
30
2.1854783949314103e-17
0
ARC
5
161
100
AcDbEntity
8
0
100
AcDbCircle
10
-3.1258396030233366
20
0.84902985513307749
30
1.9669305554382694e-16
40
0.45746704610205963
210
-7.0737436724098255e-18
220
4.5996131988436063e-16
230
1
100
AcDbArc
50
92.286479560638227
51
129.02344581686643
0
SPLINE
5
162
100
AcDbEntity
8
0
100
AcDbSpline
70
0
71
3
72
15
73
11
74
0
42
0.000000001
43
0.0000000001
44
0.0000000001
40
1.4174961944298408
40
1.4174961944298408
40
1.4174961944298408
40
1.4174961944298408
40
1.4180758274606413
40
1.4180758274606413
40
1.4180758274606413
40
1.5059947096448663
40
1.5059947096448663
40
1.5939177439754553
40
1.5939177439754553
40
1.6191591185297294
40
1.6191591185297294
40
1.6191591185297294
40
1.6191591185297294
10
-3.1440907107364779
20
1.3061326831013447
30
2.1854783949314103e-17
10
-3.1440207361284696
20
1.3061624988376535
30
2.1854783949314103e-17
10
-3.1439507206956994
20
1.3061922255076452
30
-1.5298348764519871e-16
10
-3.1438806646029041
20
1.3062218630190185
30
2.1854783949314103e-17
10
-3.1332545390347022
20
1.3107172881107894
30
2.1854783949314103e-17
10
-3.1218518582850918
20
1.3130942268891106
30
2.1854783949314103e-17
10
-3.0987768172383765
20
1.3133437906451315
30
2.1854783949314103e-17
10
-3.0873248585864581
20
1.3112138190278482
30
2.1854783949314103e-17
10
-3.0735256403005846
20
1.3057244681204874
30
1.9669305554382694e-16
10
-3.0705248210013045
20
1.3043308306558148
30
1.9669305554382694e-16
10
-3.0676141491547049
20
1.3027763645313712
30
3.7153132713833977e-16
0
ARC
5
163
100
AcDbEntity
8
0
100
AcDbCircle
10
-3.1258396030233366
20
0.84902985513307749
30
1.9669305554382694e-16
40
0.45746704610205985
210
2.6556353755580306e-16
220
2.7485165918362137e-16
230
1
100
AcDbArc
50
45.984646215603853
51
82.687678141685581
0
SPLINE
5
164
100
AcDbEntity
8
0
100
AcDbSpline
70
0
71
3
72
12
73
8
74
0
42
0.000000001
43
0.0000000001
44
0.0000000001
40
0.19346156008731957
40
0.19346156008731957
40
0.19346156008731957
40
0.19346156008731957
40
0.26381867637221679
40
0.26381867637221679
40
0.35169138709218412
40
0.35169138709218412
40
0.39097809694140345
40
0.39097809694140345
40
0.39097809694140345
40
0.39097809694140345
10
-2.8079681182767033
20
1.1780189392290623
30
-1.5298348764519871e-16
10
-2.7995360008111447
20
1.1743262889616737
30
2.1854783949314103e-17
10
-2.7917174726652338
20
1.1693359777930308
30
1.9669305554382694e-16
10
-2.7761665772072552
20
1.155575694686906
30
3.7153132713833977e-16
10
-2.7691057266052024
20
1.146320391290343
30
1.9669305554382694e-16
10
-2.761742919155322
20
1.1313452333138769
30
2.1854783949314103e-17
10
-2.7598819491816777
20
1.1265397233836276
30
-1.5298348764519871e-16
10
-2.7584499807355343
20
1.1216118862807123
30
2.1854783949314103e-17
0
ARC
5
165
100
AcDbEntity
8
0
100
AcDbCircle
10
-3.1258396030233366
20
0.84902985513307749
30
1.9669305554382694e-16
40
0.45746704610205979
210
3.4911133075347859e-16
220
4.4580743153820722e-17
230
1
100
AcDbArc
50
0
51
36.573295914901436
0
LINE
5
166
100
AcDbEntity
8
0
100
AcDbLine
10
-2.6683725569212768
20
0.84902985513307772
30
3.6986126303273878e-17
11
-2.6683725569212768
21
0.84868026611843417
31
2.1854783949314103e-17
0
SPLINE
5
167
100
AcDbEntity
8
0
100
AcDbSpline
70
0
71
3
72
12
73
8
74
0
42
0.000000001
43
0.0000000001
44
0.0000000001
40
0.57114537073748683
40
0.57114537073748683
40
0.57114537073748683
40
0.57114537073748683
40
0.61562490494629363
40
0.61562490494629363
40
0.70346381150883897
40
0.70346381150883897
40
0.74090854151435748
40
0.74090854151435748
40
0.74090854151435748
40
0.74090854151435748
10
-2.6683725569212768
20
0.84868026611843417
30
3.7153132713833977e-16
10
-2.6662375300741012
20
0.84327718101165994
30
1.9669305554382694e-16
10
-2.6646346623644925
20
0.83766418901033046
30
2.1854783949314103e-17
10
-2.661541461549993
20
0.8205774345693575
30
3.7153132713833977e-16
10
-2.6617235549871512
20
0.8089422994829305
30
1.9669305554382694e-16
10
-2.665154653508452
20
0.79286282208600689
30
1.9669305554382694e-16
10
-2.6665758062539591
20
0.7881618887307883
30
1.9669305554382694e-16
10
-2.6683725569212768
20
0.78361232083697641
30
3.7153132713833977e-16
0
LINE
5
168
100
AcDbEntity
8
0
100
AcDbLine
10
-2.6683725569212773
20
0.78361232083697652
30
3.7153132713833977e-16
11
-2.6683725569212768
21
0.54503382550927504
31
3.7153132713833977e-16
0
ENDSEC
0
SECTION
2
OBJECTS
0
DICTIONARY
5
C
100
AcDbDictionary
3
ACAD_GROUP
350
D
3
ACAD_MLINESTYLE
350
17
0
DICTIONARY
5
D
100
AcDbDictionary
0
DICTIONARY
5
1A
330
C
100
AcDbDictionary
0
DICTIONARY
5
17
100
AcDbDictionary
0
ENDSEC
0
EOF
