0
SECTION
2
HEADER
9
$INSUNITS
70
1
9
$ACADVER
1
AC1014
9
$HANDSEED
5
FFFF
0
ENDSEC
0
SECTION
2
TABLES
0
TABLE
2
VPORT
5
8
100
AcDbSymbolTable
0
ENDTAB
0
TABLE
2
LTYPE
5
5
100
AcDbSymbolTable
0
LTYPE
5
14
100
AcDbSymbolTableRecord
100
AcDbLinetypeTableRecord
2
BYBLOCK
70
0
0
LTYPE
5
15
100
AcDbSymbolTableRecord
100
AcDbLinetypeTableRecord
2
BYLAYER
70
0
0
ENDTAB
0
TABLE
2
LAYER
5
2
100
AcDbSymbolTable
70
2
0
LAYER
5
50
100
AcDbSymbolTableRecord
100
AcDbLayerTableRecord
2
0
70
0
6
CONTINUOUS
0
ENDTAB
0
TABLE
2
STYLE
5
3
100
AcDbSymbolTable
70
1
0
STYLE
5
11
100
AcDbSymbolTableRecord
100
AcDbTextStyleTableRecord
2
STANDARD
70
0
0
ENDTAB
0
TABLE
2
VIEW
5
6
100
AcDbSymbolTable
70
0
0
ENDTAB
0
TABLE
2
UCS
5
7
100
AcDbSymbolTable
70
0
0
ENDTAB
0
TABLE
2
APPID
5
9
100
AcDbSymbolTable
70
2
0
APPID
5
12
100
AcDbSymbolTableRecord
100
AcDbRegAppTableRecord
2
ACAD
70
0
0
ENDTAB
0
TABLE
2
DIMSTYLE
5
A
100
AcDbSymbolTable
70
1
0
ENDTAB
0
TABLE
2
BLOCK_RECORD
5
1
100
AcDbSymbolTable
70
1
0
BLOCK_RECORD
5
1F
100
AcDbSymbolTableRecord
100
AcDbBlockTableRecord
2
*MODEL_SPACE
0
BLOCK_RECORD
5
1B
100
AcDbSymbolTableRecord
100
AcDbBlockTableRecord
2
*PAPER_SPACE
0
ENDTAB
0
ENDSEC
0
SECTION
2
BLOCKS
0
BLOCK
5
20
100
AcDbEntity
100
AcDbBlockBegin
2
*MODEL_SPACE
0
ENDBLK
5
21
100
AcDbEntity
100
AcDbBlockEnd
0
BLOCK
5
1C
100
AcDbEntity
100
AcDbBlockBegin
2
*PAPER_SPACE
0
ENDBLK
5
1D
100
AcDbEntity
100
AcDbBlockEnd
0
ENDSEC
0
SECTION
2
ENTITIES
0
SPLINE
5
100
100
AcDbEntity
8
0
100
AcDbSpline
70
0
71
3
72
12
73
8
74
0
42
0.000000001
43
0.0000000001
44
0.0000000001
40
0.41162121552155384
40
0.41162121552155384
40
0.41162121552155384
40
0.41162121552155384
40
0.4397537232565637
40
0.4397537232565637
40
0.52758626732964453
40
0.52758626732964453
40
0.581146711085614
40
0.581146711085614
40
0.581146711085614
40
0.581146711085614
10
-2.6683725569212768
20
0.62100185342949643
30
-5.2451481478353848e-16
10
-2.6670232566512779
20
0.61758179146250802
30
1.7483827159451283e-16
10
-2.6658856203403158
20
0.61407397227488647
30
0
10
-2.6621068225354572
20
0.59933256579581862
30
-1.7483827159451283e-16
10
-2.6614532661309505
20
0.58771554653091329
30
0
10
-2.6640131208353739
20
0.56933786299948275
30
-1.7483827159451283e-16
10
-2.6658057692895833
20
0.56253231157603723
30
0
10
-2.6683725569212768
20
0.55602265218238567
30
-5.2451481478353848e-16
0
LINE
5
101
100
AcDbEntity
8
0
100
AcDbLine
10
-2.6683725569212768
20
0.55602265218238567
30
-5.2451481478353858e-16
11
-2.6683725569212777
21
0.38711706863264511
31
-5.2451481478353848e-16
0
LINE
5
102
100
AcDbEntity
8
0
100
AcDbLine
10
-2.6683725569212777
20
0.38711706863264511
30
-5.2451481478353848e-16
11
-2.5409645669289955
21
0.38711706863264511
31
-1.6391087961985577e-16
0
LINE
5
103
100
AcDbEntity
8
0
100
AcDbLine
10
-2.5409645669289955
20
0.38711706863264511
30
-1.6391087961985577e-16
11
-2.5409645669289951
21
0.97222199519903751
31
-1.7483827159451283e-16
0
ARC
5
104
100
AcDbEntity
8
0
100
AcDbCircle
10
-3.0595745669289958
20
0.97222199519903763
30
-3.496765431890258e-16
40
0.5186100000000009
210
-3.3712861609786287e-16
220
-9.0924079721889863e-18
230
1
100
AcDbArc
50
0
51
71.406695657975504
0
LINE
5
105
100
AcDbEntity
8
0
100
AcDbLine
10
-2.8942165205724817
20
1.4637634976229497
30
-3.6407086225904698e-16
11
-3.280426161988407
21
1.5936871591523709
31
2.1854783949314103e-17
0
ARC
5
106
100
AcDbEntity
8
0
100
AcDbCircle
10
-3.2841088627373671
20
1.5827400035768977
30
-5.2451481478353848e-16
40
0.011550000000000185
210
-1.5083043649575192e-14
220
-4.4835688979120948e-14
230
1
100
AcDbArc
50
71.406695657971014
51
202.50160725910425
0
ARC
5
107
100
AcDbEntity
8
0
100
AcDbCircle
10
-3.3813922470747535
20
1.5424407091430723
30
1.7483827159451283e-16
40
0.093750000000000194
210
1.0622318270793478e-17
220
-2.5642510257555924e-17
230
1
100
AcDbArc
50
-70.815386547693038
51
22.501607259103508
0
LINE
5
108
100
AcDbEntity
8
0
100
AcDbLine
10
-3.350584775843739
20
1.453897148020028
30
1.7224054565564048e-16
11
-3.3311255541154949
21
1.3584426904226943
31
-1.7620419559134497e-16
0
ARC
5
109
100
AcDbEntity
8
0
100
AcDbCircle
10
-3.3433736395310474
20
1.3559458116404264
30
1.7483827159451283e-16
40
0.012500000000000349
210
-2.7720923137727085e-18
220
1.3598106435922182e-17
230
1
100
AcDbArc
50
-168.47764220845937
51
11.522357791537669
0
LINE
5
110
100
AcDbEntity
8
0
100
AcDbLine
10
-3.3556217249465998
20
1.3534489328581578
30
1.7483827159451283e-16
11
-3.3750809466748453
21
1.4489033904554915
31
-1.7347234759768068e-16
0
ARC
5
111
100
AcDbEntity
8
0
100
AcDbCircle
10
-3.3813922470747535
20
1.5424407091430723
30
1.7483827159451283e-16
40
0.093749999999999972
210
0
220
0
230
1
100
AcDbArc
50
173.18484952355098
51
273.8601021307735
0
ARC
5
112
100
AcDbEntity
8
0
100
AcDbCircle
10
-3.4859482145798064
20
1.5549362947268892
30
-5.2451481478353858e-16
40
0.011550000000000877
210
-6.0116742851369038e-14
220
7.2310443761338709e-15
230
1
100
AcDbArc
50
-6.8151504764509498
51
117.02778593939591
0
ARC
5
113
100
AcDbEntity
8
0
100
AcDbCircle
10
-3.1258396030233371
20
0.84902985513307749
30
-3.4967654318902565e-16
40
0.80400322485124565
210
-9.9180954365436299e-17
220
1.9442043906979083e-16
230
1
100
AcDbArc
50
117.02778593939705
51
123.85539797556338
0
LINE
5
114
100
AcDbEntity
8
0
100
AcDbLine
10
-3.573748846988277
20
1.5167112872112496
30
-3.4967654318902565e-16
11
-3.4372133575110335
21
1.291513530515467
31
1.7483827159451283e-16
0
ARC
5
115
100
AcDbEntity
8
0
100
AcDbCircle
10
-3.4479022362326064
20
1.2850329540229384
30
-1.7483827159451288e-16
40
0.012499999999999999
210
2.8779540939400242e-17
220
-4.7468157056462521e-17
230
1
100
AcDbArc
50
-148.77192213677895
51
31.228077863222804
0
LINE
5
116
100
AcDbEntity
8
0
100
AcDbLine
10
-3.4585911149541793
20
1.2785523775304102
30
-1.7483827159451283e-16
11
-3.5943293639169003
21
1.5024351883750819
31
-1.8576566356916988e-16
0
ARC
5
117
100
AcDbEntity
8
0
100
AcDbCircle
10
-3.1258396030233371
20
0.84902985513307749
30
-3.4967654318902565e-16
40
0.80400322485124576
210
7.3680043213902924e-17
220
-1.9802797315708988e-16
230
1
100
AcDbArc
50
125.64041530223579
51
132.63849563233927
0
ARC
5
118
100
AcDbEntity
8
0
100
AcDbCircle
10
-3.6626239470469479
20
1.431991844964559
30
1.7483827159451283e-16
40
0.011550000000000728
210
-3.1080010983575919e-14
220
3.3753713663026385e-14
230
1
100
AcDbArc
50
132.63849563234163
51
256.48143204818609
0
ARC
5
119
100
AcDbEntity
8
0
100
AcDbCircle
10
-3.6872389244699408
20
1.3296092639926695
30
1.7483827159451283e-16
40
0.093750000000000625
210
-0
220
0
230
1
100
AcDbArc
50
-32.902541471771357
51
76.481432048184388
0
LINE
5
120
100
AcDbEntity
8
0
100
AcDbLine
10
-3.6085268210238106
20
1.2786831678229669
30
1.7483827159451283e-16
11
-3.5365630655354963
21
1.2170794256189774
31
-1.8030196758184134e-16
0
ARC
5
121
100
AcDbEntity
8
0
100
AcDbCircle
10
-3.5446919104562404
20
1.2075835380746505
30
1.7483827159451283e-16
40
0.012499999999999747
210
0
220
0
230
1
100
AcDbArc
50
-130.5647971325362
51
49.435202867458521
0
LINE
5
122
100
AcDbEntity
8
0
100
AcDbLine
10
-3.5528207553769833
20
1.1980876505303233
30
1.7483827159451283e-16
11
-3.6247845108652981
21
1.2596913927343125
31
1.8030196758184134e-16
0
ARC
5
123
100
AcDbEntity
8
0
100
AcDbCircle
10
-3.6872389244699408
20
1.3296092639926695
30
1.7483827159451283e-16
40
0.093749999999999264
210
4.1399696268696667e-17
220
3.6980441585779501e-17
230
1
100
AcDbArc
50
202.38897368674051
51
311.77294720669613
0
ARC
5
124
100
AcDbEntity
8
0
100
AcDbCircle
10
-3.7846013422102081
20
1.2895012895764804
30
-1.7483827159451283e-16
40
0.011550000000000598
210
-2.8385871576073418e-14
220
-1.1693421726556858e-14
230
1
100
AcDbArc
50
22.388973686734779
51
146.2319101025862
0
ARC
5
125
100
AcDbEntity
8
0
100
AcDbCircle
10
-3.1258396030233371
20
0.84902985513307749
30
-3.4967654318902565e-16
40
0.80400322485124509
210
1.8077294955326557e-16
220
-1.2087119767546851e-16
230
1
100
AcDbArc
50
146.23191010258572
51
153.1279873507421
0
LINE
5
126
100
AcDbEntity
8
0
100
AcDbLine
10
-3.8430252930507183
20
1.2124385391118078
30
-3.0536827970906133e-16
11
-3.6074235156042906
21
1.0950943668858488
31
1.9669305554382694e-16
0
ARC
5
127
100
AcDbEntity
8
0
100
AcDbCircle
10
-3.6129963268173175
20
1.0839053644645436
30
-1.7483827159451278e-16
40
0.012499999999999841
210
-1.1175243152693105e-16
220
2.4651930343286814e-17
230
1
100
AcDbArc
50
-116.47612752480812
51
63.523872475191418
0
LINE
5
128
100
AcDbEntity
8
0
100
AcDbLine
10
-3.618569138030344
20
1.0727163620432389
30
-1.7518521628970822e-16
11
-3.8539775891181685
21
1.1899642458550546
31
1.5298348764519871e-16
0
ARC
5
129
100
AcDbEntity
8
0
100
AcDbCircle
10
-3.1258396030233371
20
0.84902985513307749
30
-3.4967654318902565e-16
40
0.80400322485124576
210
5.6620338366320892e-16
220
-2.6511212066993706e-16
230
1
100
AcDbArc
50
154.90970365934078
51
161.82972267499784
0
ARC
5
130
100
AcDbEntity
8
0
100
AcDbCircle
10
-3.8787763158210478
20
1.0961501094598274
30
-1.7483827159451283e-16
40
0.011549999999999514
210
-7.0739195072215306e-15
220
2.3867961393672077e-15
230
1
100
AcDbArc
50
161.82972267499648
51
285.67265909084404
0
ARC
5
131
100
AcDbEntity
8
0
100
AcDbCircle
10
-3.8503304654270316
20
0.99476508297484068
30
-1.748382715945128e-16
40
0.093749999999999459
210
5.3447289057865164e-17
220
1.4995839535839624e-17
230
1
100
AcDbArc
50
-4.9897738530984403
51
105.67265909084435
0
LINE
5
132
100
AcDbEntity
8
0
100
AcDbLine
10
-3.7569357556355443
20
0.98661090104385041
30
-1.797076868414307e-16
11
-3.66445054670355
21
0.96584980887916239
31
-5.2997851077086704e-16
0
ARC
5
133
100
AcDbEntity
8
0
100
AcDbCircle
10
-3.6671884138035242
20
0.95365333054552548
30
-1.7483827159451283e-16
40
0.012499999999999942
210
0
220
0
230
1
100
AcDbArc
50
-102.6520295138679
51
77.347970486140284
0
LINE
5
134
100
AcDbEntity
8
0
100
AcDbLine
10
-3.6699262809035003
20
0.94145685221188879
30
-1.7483827159451283e-16
11
-3.762411489835495
21
0.96221794437657659
31
1.6937457560718431e-16
0
ARC
5
135
100
AcDbEntity
8
0
100
AcDbCircle
10
-3.8503304654270316
20
0.99476508297484068
30
-1.748382715945128e-16
40
0.093750000000000291
210
-9.6358887086557462e-18
220
-2.6029245600848692e-17
230
1
100
AcDbArc
50
229.80308604621439
51
339.6857148253693
0
ARC
5
136
100
AcDbEntity
8
0
100
AcDbCircle
10
-3.9182928278745828
20
0.9143337004767903
30
1.7483827159451268e-16
40
0.011549999999999595
210
1.9547190897313497e-14
220
2.3396287078771809e-14
230
1
100
AcDbArc
50
49.80308604621213
51
180
0
LINE
5
137
100
AcDbEntity
8
0
100
AcDbLine
10
-3.9298428278745829
20
0.91433370047678975
30
1.7227365640762855e-16
11
-3.9298428278745834
21
0.82608861774341846
31
-1.7483827159451283e-16
0
LINE
5
138
100
AcDbEntity
8
0
100
AcDbLine
10
-3.9298428278745834
20
0.82608861774341846
30
-1.7483827159451283e-16
11
-3.6728035721473966
21
0.79825894860748259
31
-1.7483827159451283e-16
0
ARC
5
139
100
AcDbEntity
8
0
100
AcDbCircle
10
-3.6741490851982528
20
0.7858315758107095
30
-5.2451481478353848e-16
40
0.012500000000000016
210
-7.469097844966193e-19
220
-6.8985777072863445e-18
230
1
100
AcDbArc
50
-96.179349873535244
51
83.820650126462695
0
LINE
5
140
100
AcDbEntity
8
0
100
AcDbLine
10
-3.6754945982491085
20
0.77340420301393631
30
-5.2460155095733724e-16
11
-3.9298428278745834
21
0.80094251445108489
31
1.7483827159451283e-16
0
LINE
5
141
100
AcDbEntity
8
0
100
AcDbLine
10
-3.9298428278745834
20
0.80094251445108489
30
1.7483827159451283e-16
11
-3.9298428278745843
21
0.70879935399751615
31
-1.7483827159451283e-16
0
ARC
5
142
100
AcDbEntity
8
0
100
AcDbCircle
10
-3.9182928278745841
20
0.70879935399751615
30
-1.7483827159451283e-16
40
0.011549999999999979
210
0
220
0
230
1
100
AcDbArc
50
180
51
300.50392193886682
0
ARC
5
143
100
AcDbEntity
8
0
100
AcDbCircle
10
-3.8648428278745834
20
0.61807346188286161
30
1.7483827159451283e-16
40
0.09375
210
0
220
-0
230
1
100
AcDbArc
50
7.6622556607660028
51
120.50392193886707
0
LINE
5
144
100
AcDbEntity
8
0
100
AcDbLine
10
-3.7719298982038425
20
0.63057346188286156
30
1.7483827159451283e-16
11
-3.6771997384999904
21
0.63057346188286134
31
1.6937457560718431e-16
0
ARC
5
145
100
AcDbEntity
8
0
100
AcDbCircle
10
-3.6771997384999904
20
0.61807346188286139
30
1.7483827159451283e-16
40
0.012499999999999976
210
0
220
0
230
1
100
AcDbArc
50
-90
51
90
0
LINE
5
146
100
AcDbEntity
8
0
100
AcDbLine
10
-3.6771997384999904
20
0.60557346188286143
30
1.7483827159451283e-16
11
-3.7719298982038425
21
0.60557346188286154
31
1.8030196758184134e-16
0
ARC
5
147
100
AcDbEntity
8
0
100
AcDbCircle
10
-3.8648428278745834
20
0.61807346188286161
30
1.7483827159451283e-16
40
0.093750000000000458
210
0
220
0
230
1
100
AcDbArc
50
239.49607806113301
51
352.33774433923389
0
ARC
5
148
100
AcDbEntity
8
0
100
AcDbCircle
10
-3.9182928278745841
20
0.52734756976820651
30
-1.7483827159451283e-16
40
0.011550000000000223
210
-1.5367522381695331e-14
220
-2.6084792846981892e-14
230
1
100
AcDbArc
50
59.496078061134035
51
180
0
LINE
5
149
100
AcDbEntity
8
0
100
AcDbLine
10
-3.9298428278745843
20
0.52734756976820651
30
-1.7483827159451283e-16
11
-3.9298428278745834
21
0.48005706863264558
31
-1.7483827159451283e-16
0
ARC
5
150
100
AcDbEntity
8
0
100
AcDbCircle
10
-3.8369028278745847
20
0.48005706863264491
30
-5.2451481478353848e-16
40
0.092939999999998649
210
3.7623901784918304e-15
220
-2.8311159710423573e-29
230
1
100
AcDbArc
50
180
51
270.00000000000023
0
LINE
5
151
100
AcDbEntity
8
0
100
AcDbLine
10
-3.8369028278745843
20
0.38711706863264556
30
-5.2451481478353848e-16
11
-3.6762466491253973
21
0.38711706863264544
31
-1.5298348764519871e-16
0
ARC
5
152
100
AcDbEntity
8
0
100
AcDbCircle
10
-3.6762466491253973
20
0.48005706863264513
30
-5.2451481478353887e-16
40
0.092939999999999703
210
1.058456097021414e-16
220
3.997539564647529e-15
230
1
100
AcDbArc
50
270
51
342.43448733023848
0
SPLINE
5
153
100
AcDbEntity
8
0
100
AcDbSpline
70
0
71
3
72
10
73
6
74
0
42
0.000000001
43
0.0000000001
44
0.0000000001
40
1.3370402612088552
40
1.3370402612088552
40
1.3370402612088552
40
1.3370402612088552
40
1.3685583922185991
40
1.3685583922185991
40
1.3960900572267587
40
1.3960900572267587
40
1.3960900572267587
40
1.3960900572267587
10
-3.5876402092703183
20
0.45200813966542275
30
-1.7483827159451283e-16
10
-3.5884543043747321
20
0.45605751044898435
30
-1.7483827159451283e-16
10
-3.5889847717265293
20
0.46016174012420785
30
1.7483827159451283e-16
10
-3.589437571630222
20
0.46789782554705944
30
-5.2451481478353848e-16
10
-3.5894276194332653
20
0.4715115330786408
30
-1.7483827159451283e-16
10
-3.5891976210143191
20
0.47511182747301667
30
-1.7483827159451283e-16
0
SPLINE
5
154
100
AcDbEntity
8
0
100
AcDbSpline
70
0
71
3
72
11
73
7
74
0
42
0.000000001
43
0.0000000001
44
0.0000000001
40
1.3960900572267587
40
1.3960900572267587
40
1.3960900572267587
40
1.3960900572267587
40
1.4183228868924842
40
1.4183228868924842
40
1.4183228868924842
40
1.4656867466609498
40
1.4656867466609498
40
1.4656867466609498
40
1.4656867466609498
10
-3.5891976210143191
20
0.47511182747301667
30
-1.7483827159451283e-16
10
-3.5890118888520868
20
0.47801919729583348
30
1.7483827159451283e-16
10
-3.5886826616484853
20
0.48091782023660556
30
-1.7483827159451283e-16
10
-3.588210480521477
20
0.48379705352380553
30
-1.7483827159451283e-16
10
-3.5872045662487015
20
0.48993084772391449
30
1.7483827159451283e-16
10
-3.5855580402250848
20
0.49592703613211958
30
-1.7483827159451283e-16
10
-3.5833066491253964
20
0.50168949465699653
30
1.7483827159451283e-16
0
LINE
5
155
100
AcDbEntity
8
0
100
AcDbLine
10
-3.5833066491253964
20
0.50168949465699653
30
1.7483827159451305e-16
11
-3.5833066491253964
21
0.74097595248373105
31
1.7483827159451283e-16
0
SPLINE
5
156
100
AcDbEntity
8
0
100
AcDbSpline
70
0
71
3
72
12
73
8
74
0
42
0.000000001
43
0.0000000001
44
0.0000000001
40
0.96416691195786719
40
0.96416691195786719
40
0.96416691195786719
40
0.96416691195786719
40
0.96727470314413266
40
0.96727470314413266
40
1.0551857457300722
40
1.0551857457300722
40
1.0815218220980602
40
1.0815218220980602
40
1.0815218220980602
40
1.0815218220980602
10
-3.5833066491253964
20
0.74097595248373105
30
1.7483827159451283e-16
10
-3.5834538970780656
20
0.74135600408145663
30
-1.7483827159451283e-16
10
-3.5835985688204994
20
0.74173719044379227
30
1.7483827159451283e-16
10
-3.587759716833792
20
0.7529336258645728
30
1.7483827159451283e-16
10
-3.589628256632921
20
0.76442919236792395
30
1.7483827159451283e-16
10
-3.5891236631920758
20
0.77941358260516158
30
-5.2451481478353848e-16
10
-3.5888054803767719
20
0.78285102916045235
30
1.7483827159451283e-16
10
-3.5882894042304296
20
0.78625456788519821
30
-1.7483827159451283e-16
0
SPLINE
5
157
100
AcDbEntity
8
0
100
AcDbSpline
70
0
71
3
72
8
73
4
74
0
42
0.000000001
43
0.0000000001
44
0.0000000001
40
1.0815218220980602
40
1.0815218220980602
40
1.0815218220980602
40
1.0815218220980602
40
1.1310343033419545
40
1.1310343033419545
40
1.1310343033419545
40
1.1310343033419545
10
-3.5882894042304296
20
0.78625456788519821
30
-1.7483827159451283e-16
10
-3.5873191681877037
20
0.79265330568186887
30
-1.7483827159451283e-16
10
-3.5856494168575166
20
0.79893218804434507
30
-1.7483827159451283e-16
10
-3.5833066491253964
20
0.80497710253085786
30
1.7483827159451283e-16
0
LINE
5
158
100
AcDbEntity
8
0
100
AcDbLine
10
-3.5833066491253964
20
0.80497710253085786
30
1.7483827159451283e-16
11
-3.5833066491253964
21
0.84902985513307716
31
1.7483827159451283e-16
0
ARC
5
159
100
AcDbEntity
8
0
100
AcDbCircle
10
-3.1258396030233371
20
0.84902985513307749
30
-3.4967654318902565e-16
40
0.45746704610205841
210
3.3065457321021229e-16
220
-1.9166371657232178e-16
230
1
100
AcDbArc
50
149.90130157831865
51
180
0
SPLINE
5
160
100
AcDbEntity
8
0
100
AcDbSpline
70
0
71
3
72
8
73
4
74
0
42
0.000000001
43
0.0000000001
44
0.0000000001
40
1.3830027961391089
40
1.3830027961391089
40
1.3830027961391089
40
1.3830027961391089
40
1.3959438930567973
40
1.3959438930567973
40
1.3959438930567973
40
1.3959438930567973
10
-3.5216230795200234
20
1.0784454997642587
30
-1.7483827159451283e-16
10
-3.5213256140319085
20
1.0801153726056509
30
-1.7483827159451283e-16
10
-3.5209802735781426
20
1.0817761537981978
30
-1.7483827159451283e-16
10
-3.5205875194603511
20
1.0834257925898345
30
-1.7483827159451283e-16
0
SPLINE
5
161
100
AcDbEntity
8
0
100
AcDbSpline
70
0
71
3
72
13
73
9
74
0
42
0.000000001
43
0.0000000001
44
0.0000000001
40
1.3959438930567973
40
1.3959438930567973
40
1.3959438930567973
40
1.3959438930567973
40
1.4181758969564431
40
1.4181758969564431
40
1.4181758969564431
40
1.5060461381233543
40
1.5060461381233543
40
1.5769184898578088
40
1.5769184898578088
40
1.5769184898578088
40
1.5769184898578088
10
-3.5205875194603511
20
1.0834257925898345
30
-1.7483827159451283e-16
10
-3.5199127921838382
20
1.0862597699784553
30
-1.7483827159451283e-16
10
-3.5190981328378723
20
1.0890608628775871
30
1.7483827159451283e-16
10
-3.5181458831177208
20
1.0918186749542529
30
-1.7483827159451283e-16
10
-3.5143821912373814
20
1.1027187095783697
30
1.7483827159451283e-16
10
-3.5085255236601491
20
1.1127792119005753
30
-1.7483827159451283e-16
10
-3.494759328848525
20
1.1284150500203101
30
-5.2451481478353848e-16
10
-3.4875610341495493
20
1.1343737485623351
30
-1.7483827159451283e-16
10
-3.4795832528003308
20
1.1391014471785501
30
1.7483827159451283e-16
0
ARC
5
162
100
AcDbEntity
8
0
100
AcDbCircle
10
-3.1258396030233371
20
0.84902985513307749
30
-3.4967654318902565e-16
40
0.4574670461020594
210
1.6945691888566895e-16
220
-3.6338778339684593e-16
230
1
100
AcDbArc
50
103.82607047225341
51
140.64807312123398
0
SPLINE
5
163
100
AcDbEntity
8
0
100
AcDbSpline
70
0
71
3
72
13
73
9
74
0
42
0.000000001
43
0.0000000001
44
0.0000000001
40
1.3725929154378194
40
1.3725929154378194
40
1.3725929154378194
40
1.3725929154378194
40
1.418072909323117
40
1.418072909323117
40
1.418072909323117
40
1.5059864499641538
40
1.5059864499641538
40
1.5737692188837509
40
1.5737692188837509
40
1.5737692188837509
40
1.5737692188837509
10
-3.2351629340543737
20
1.2932420876994737
30
0
10
-3.2302508616084009
20
1.2966273933464234
30
-1.7483827159451283e-16
10
-3.2250081711084264
20
1.299508729980221
30
0
10
-3.2195144095373043
20
1.301841456596617
30
-3.4967654318902565e-16
10
-3.2088948823585395
20
1.3063506536891267
30
1.7483827159451283e-16
10
-3.1974960661146321
20
1.3087424959620575
30
-1.7483827159451283e-16
10
-3.1770649496537664
20
1.3089906073602613
30
-1.7483827159451283e-16
10
-3.1682194311691245
20
1.3077584883069109
30
-1.7483827159451283e-16
10
-3.159718685157741
20
1.3052406683138635
30
-1.7483827159451283e-16
0
ARC
5
164
100
AcDbEntity
8
0
100
AcDbCircle
10
-3.1258396030233371
20
0.84902985513307749
30
-3.4967654318902565e-16
40
0.45746704610206024
210
-3.7146910839220954e-16
220
-3.2804618950543058e-16
230
1
100
AcDbArc
50
57.583542129353496
51
94.247097600516142
0
SPLINE
5
165
100
AcDbEntity
8
0
100
AcDbSpline
70
0
71
3
72
12
73
8
74
0
42
0.000000001
43
0.0000000001
44
0.0000000001
40
0.23211185687422639
40
0.23211185687422639
40
0.23211185687422639
40
0.23211185687422639
40
0.2638210374733177
40
0.2638210374733177
40
0.35172876680150611
40
0.35172876680150611
40
0.43147790074406617
40
0.43147790074406617
40
0.43147790074406617
40
0.43147790074406617
10
-2.8806055633765792
20
1.2352116310726944
30
-1.7483827159451283e-16
10
-2.8765507527784933
20
1.2343599937606269
30
-1.7483827159451283e-16
10
-2.8725519009316489
20
1.2332231806909881
30
-1.7483827159451283e-16
10
-2.8577927655544708
20
1.2278766077340451
30
-3.4967654318902565e-16
10
-2.8478173055611919
20
1.2218664651109963
30
-5.2451481478353848e-16
10
-2.831525300163142
20
1.2070792983181391
30
-5.2451481478353848e-16
10
-2.8250897563973174
20
1.1987330536563423
30
-1.7483827159451283e-16
10
-2.8202604873596231
20
1.189467077450977
30
-1.7483827159451283e-16
0
ARC
5
166
100
AcDbEntity
8
0
100
AcDbCircle
10
-3.1258396030233371
20
0.84902985513307749
30
-3.4967654318902565e-16
40
0.45746704610206063
210
-4.9050669285540547e-16
220
-1.1913099737033532e-16
230
1
100
AcDbArc
50
11.101743860568826
51
48.088602150744371
0
SPLINE
5
167
100
AcDbEntity
8
0
100
AcDbSpline
70
0
71
3
72
12
73
8
74
0
42
0.000000001
43
0.0000000001
44
0.0000000001
40
0.52896618796352468
40
0.52896618796352468
40
0.52896618796352468
40
0.52896618796352468
40
0.61558713647348529
40
0.61558713647348529
40
0.70343705901851017
40
0.70343705901851017
40
0.71890353687432806
40
0.71890353687432806
40
0.71890353687432806
40
0.71890353687432806
10
-2.6769332274559248
20
0.93711597347344933
30
-1.7483827159451283e-16
10
-2.671132610327732
20
0.9273433262364591
30
-1.7483827159451283e-16
10
-2.667267586382092
20
0.91654341687909213
30
-1.7483827159451283e-16
10
-2.6638094696130663
20
0.89390981820628368
30
-1.7483827159451283e-16
10
-2.6643111784287656
20
0.88228253611598162
30
-1.7483827159451283e-16
10
-2.6675038823644321
20
0.86910517106801977
30
-1.7483827159451283e-16
10
-2.6680488139267324
20
0.86715225915447003
30
-1.7483827159451283e-16
10
-2.6686592203562065
20
0.86522232170493463
30
-1.7483827159451283e-16
0
ARC
5
168
100
AcDbEntity
8
0
100
AcDbCircle
10
-3.1258396030233371
20
0.84902985513307749
30
-3.4967654318902565e-16
40
0.45746704610206046
210
-3.8218768561420392e-16
220
0
230
1
100
AcDbArc
50
0
51
2.0284604956002634
0
LINE
5
169
100
AcDbEntity
8
0
100
AcDbLine
10
-2.6683725569212764
20
0.84902985513307749
30
-1.7483827159451283e-16
11
-2.6683725569212768
21
0.62100185342949643
31
-5.2451481478353848e-16
0
CIRCLE
5
170
100
AcDbEntity
8
0
100
AcDbCircle
10
-3.8648428278745826
20
0.61807346188286116
30
1.7483827159451283e-16
40
0.093749999999999903
210
0
220
0
230
1
0
CIRCLE
5
171
100
AcDbEntity
8
0
100
AcDbCircle
10
-3.8503304624395858
20
0.99476508020989773
30
-1.797591352119969e-16
40
0.093749995929404278
210
0
220
0
230
1
0
CIRCLE
5
172
100
AcDbEntity
8
0
100
AcDbCircle
10
-3.6872389244699417
20
1.3296092639926722
30
1.7916169212449629e-16
40
0.09375000000000179
210
0
220
0
230
1
0
CIRCLE
5
173
100
AcDbEntity
8
0
100
AcDbCircle
10
-3.3813922470747575
20
1.5424407091430696
30
1.7483827159451283e-16
40
0.093749999999995073
210
0
220
0
230
1
0
ENDSEC
0
SECTION
2
OBJECTS
0
DICTIONARY
5
C
100
AcDbDictionary
3
ACAD_GROUP
350
D
3
ACAD_MLINESTYLE
350
17
0
DICTIONARY
5
D
100
AcDbDictionary
0
DICTIONARY
5
1A
330
C
100
AcDbDictionary
0
DICTIONARY
5
17
100
AcDbDictionary
0
ENDSEC
0
EOF
