0
SECTION
2
HEADER
9
$INSUNITS
70
1
9
$ACADVER
1
AC1014
9
$HANDSEED
5
FFFF
0
ENDSEC
0
SECTION
2
TABLES
0
TABLE
2
VPORT
5
8
100
AcDbSymbolTable
0
ENDTAB
0
TABLE
2
LTYPE
5
5
100
AcDbSymbolTable
0
LTYPE
5
14
100
AcDbSymbolTableRecord
100
AcDbLinetypeTableRecord
2
BYBLOCK
70
0
0
LTYPE
5
15
100
AcDbSymbolTableRecord
100
AcDbLinetypeTableRecord
2
BYLAYER
70
0
0
ENDTAB
0
TABLE
2
LAYER
5
2
100
AcDbSymbolTable
70
2
0
LAYER
5
50
100
AcDbSymbolTableRecord
100
AcDbLayerTableRecord
2
0
70
0
6
CONTINUOUS
0
ENDTAB
0
TABLE
2
STYLE
5
3
100
AcDbSymbolTable
70
1
0
STYLE
5
11
100
AcDbSymbolTableRecord
100
AcDbTextStyleTableRecord
2
STANDARD
70
0
0
ENDTAB
0
TABLE
2
VIEW
5
6
100
AcDbSymbolTable
70
0
0
ENDTAB
0
TABLE
2
UCS
5
7
100
AcDbSymbolTable
70
0
0
ENDTAB
0
TABLE
2
APPID
5
9
100
AcDbSymbolTable
70
2
0
APPID
5
12
100
AcDbSymbolTableRecord
100
AcDbRegAppTableRecord
2
ACAD
70
0
0
ENDTAB
0
TABLE
2
DIMSTYLE
5
A
100
AcDbSymbolTable
70
1
0
ENDTAB
0
TABLE
2
BLOCK_RECORD
5
1
100
AcDbSymbolTable
70
1
0
BLOCK_RECORD
5
1F
100
AcDbSymbolTableRecord
100
AcDbBlockTableRecord
2
*MODEL_SPACE
0
BLOCK_RECORD
5
1B
100
AcDbSymbolTableRecord
100
AcDbBlockTableRecord
2
*PAPER_SPACE
0
ENDTAB
0
ENDSEC
0
SECTION
2
BLOCKS
0
BLOCK
5
20
100
AcDbEntity
100
AcDbBlockBegin
2
*MODEL_SPACE
0
ENDBLK
5
21
100
AcDbEntity
100
AcDbBlockEnd
0
BLOCK
5
1C
100
AcDbEntity
100
AcDbBlockBegin
2
*PAPER_SPACE
0
ENDBLK
5
1D
100
AcDbEntity
100
AcDbBlockEnd
0
ENDSEC
0
SECTION
2
ENTITIES
0
LINE
5
100
100
AcDbEntity
8
0
100
AcDbLine
10
-3.4585911149541793
20
1.2785523775304102
30
-1.7483827159451283e-16
11
-3.5943293639169003
21
1.5024351883750819
31
-1.8576566356916988e-16
0
ARC
5
101
100
AcDbEntity
8
0
100
AcDbCircle
10
-3.1258396030233371
20
0.84902985513307749
30
-3.4967654318902565e-16
40
0.80400322485124576
210
7.3680043213902924e-17
220
-1.9802797315708988e-16
230
1
100
AcDbArc
50
125.64041530223579
51
132.63849563233927
0
ARC
5
102
100
AcDbEntity
8
0
100
AcDbCircle
10
-3.6626239470469479
20
1.431991844964559
30
1.7483827159451283e-16
40
0.011550000000000728
210
-3.1080010983575919e-14
220
3.3753713663026385e-14
230
1
100
AcDbArc
50
132.63849563234163
51
256.48143204818609
0
ARC
5
103
100
AcDbEntity
8
0
100
AcDbCircle
10
-3.6872389244699408
20
1.3296092639926695
30
1.7483827159451283e-16
40
0.093750000000000625
210
-0
220
0
230
1
100
AcDbArc
50
-32.902541471771357
51
76.481432048184388
0
LINE
5
104
100
AcDbEntity
8
0
100
AcDbLine
10
-3.6085268210238106
20
1.2786831678229669
30
1.7483827159451283e-16
11
-3.5365630655354963
21
1.2170794256189774
31
-1.8030196758184134e-16
0
ARC
5
105
100
AcDbEntity
8
0
100
AcDbCircle
10
-3.5446919104562404
20
1.2075835380746505
30
1.7483827159451283e-16
40
0.012499999999999747
210
8.4340423927709189e-17
220
-7.2198646356928757e-17
230
1
100
AcDbArc
50
-130.5647971325362
51
49.435202867458521
0
LINE
5
106
100
AcDbEntity
8
0
100
AcDbLine
10
-3.5528207553769833
20
1.1980876505303233
30
1.7483827159451283e-16
11
-3.6247845108652981
21
1.2596913927343125
31
1.8030196758184134e-16
0
ARC
5
107
100
AcDbEntity
8
0
100
AcDbCircle
10
-3.6872389244699408
20
1.3296092639926695
30
1.7483827159451283e-16
40
0.093749999999999264
210
-4.1399696268696833e-17
220
-3.6980441585779661e-17
230
1
100
AcDbArc
50
202.38897368674051
51
311.77294720669613
0
ARC
5
108
100
AcDbEntity
8
0
100
AcDbCircle
10
-3.7846013422102081
20
1.2895012895764804
30
-1.7483827159451283e-16
40
0.011550000000000598
210
-2.7599877114646226e-14
220
-1.1369635131258048e-14
230
1
100
AcDbArc
50
22.388973686734779
51
146.2319101025862
0
ARC
5
109
100
AcDbEntity
8
0
100
AcDbCircle
10
-3.1258396030233371
20
0.84902985513307749
30
-3.4967654318902565e-16
40
0.80400322485124509
210
1.8077294955326557e-16
220
-1.2087119767546851e-16
230
1
100
AcDbArc
50
146.23191010258572
51
153.1279873507421
0
LINE
5
110
100
AcDbEntity
8
0
100
AcDbLine
10
-3.8430252930507183
20
1.2124385391118078
30
-3.0536827970906133e-16
11
-3.6074235156042906
21
1.0950943668858488
31
1.9669305554382694e-16
0
ARC
5
111
100
AcDbEntity
8
0
100
AcDbCircle
10
-3.6129963268173175
20
1.0839053644645436
30
-1.748382715945128e-16
40
0.012499999999999841
210
-1.2374126641181553e-17
220
-2.4844576221440057e-17
230
1
100
AcDbArc
50
-116.47612752480812
51
63.523872475191418
0
LINE
5
112
100
AcDbEntity
8
0
100
AcDbLine
10
-3.618569138030344
20
1.0727163620432389
30
-1.7518521628970817e-16
11
-3.8539775891181685
21
1.1899642458550546
31
1.5298348764519871e-16
0
ARC
5
113
100
AcDbEntity
8
0
100
AcDbCircle
10
-3.1258396030233371
20
0.84902985513307749
30
-3.4967654318902565e-16
40
0.80400322485124576
210
5.6620338366320892e-16
220
-2.6511212066993706e-16
230
1
100
AcDbArc
50
154.90970365934078
51
161.82972267499784
0
ARC
5
114
100
AcDbEntity
8
0
100
AcDbCircle
10
-3.8787763158210478
20
1.0961501094598274
30
-1.7483827159451283e-16
40
0.011549999999999514
210
-7.0739195072215306e-15
220
2.3867961393672077e-15
230
1
100
AcDbArc
50
161.82972267499648
51
285.67265909084404
0
ARC
5
115
100
AcDbEntity
8
0
100
AcDbCircle
10
-3.8503304654270316
20
0.99476508297484167
30
-1.7483827159451288e-16
40
0.093749999999998848
210
5.344728905786506e-17
220
1.4995839535839168e-17
230
1
100
AcDbArc
50
-4.9897738530990008
51
105.67265909084453
0
LINE
5
116
100
AcDbEntity
8
0
100
AcDbLine
10
-3.7569357556355447
20
0.98661090104385041
30
-1.797076868414307e-16
11
-3.66445054670355
21
0.96584980887916239
31
-5.2997851077086704e-16
0
ARC
5
117
100
AcDbEntity
8
0
100
AcDbCircle
10
-3.6671884138035242
20
0.95365333054552548
30
-1.7483827159451283e-16
40
0.012499999999999942
210
0
220
0
230
1
100
AcDbArc
50
-102.6520295138679
51
77.347970486140284
0
LINE
5
118
100
AcDbEntity
8
0
100
AcDbLine
10
-3.6699262809035003
20
0.94145685221188879
30
-1.7483827159451283e-16
11
-3.762411489835495
21
0.96221794437657659
31
1.6937457560718431e-16
0
ARC
5
119
100
AcDbEntity
8
0
100
AcDbCircle
10
-3.8503304654270316
20
0.99476508297484167
30
-1.7483827159451288e-16
40
0.093750000000001082
210
2.6726712959265115e-31
220
3.1630249384006921e-31
230
1
100
AcDbArc
50
229.80308604621479
51
339.68571482536862
0
ARC
5
120
100
AcDbEntity
8
0
100
AcDbCircle
10
-3.9182928278745828
20
0.9143337004767903
30
1.7483827159451268e-16
40
0.011549999999999595
210
1.941045321302055e-14
220
2.3234462201130893e-14
230
1
100
AcDbArc
50
49.80308604621213
51
180
0
LINE
5
121
100
AcDbEntity
8
0
100
AcDbLine
10
-3.9298428278745829
20
0.91433370047678975
30
1.7227365640762855e-16
11
-3.9298428278745834
21
0.82608861774341846
31
-1.7483827159451283e-16
0
LINE
5
122
100
AcDbEntity
8
0
100
AcDbLine
10
-3.9298428278745834
20
0.82608861774341846
30
-1.7483827159451283e-16
11
-3.6728035721473966
21
0.79825894860748259
31
-1.7483827159451283e-16
0
ARC
5
123
100
AcDbEntity
8
0
100
AcDbCircle
10
-3.6741490851982528
20
0.7858315758107095
30
-5.2451481478353848e-16
40
0.012500000000000016
210
-7.469097844966193e-19
220
-6.8985777072863445e-18
230
1
100
AcDbArc
50
-96.179349873535244
51
83.820650126462695
0
LINE
5
124
100
AcDbEntity
8
0
100
AcDbLine
10
-3.6754945982491085
20
0.77340420301393631
30
-5.2460155095733724e-16
11
-3.9298428278745834
21
0.80094251445108489
31
1.7483827159451283e-16
0
LINE
5
125
100
AcDbEntity
8
0
100
AcDbLine
10
-3.9298428278745834
20
0.80094251445108489
30
1.7483827159451283e-16
11
-3.9298428278745843
21
0.70879935399751615
31
-1.7483827159451283e-16
0
ARC
5
126
100
AcDbEntity
8
0
100
AcDbCircle
10
-3.9182928278745841
20
0.70879935399751615
30
-1.7483827159451283e-16
40
0.011549999999999979
210
0
220
2.8177312756986785e-17
230
1
100
AcDbArc
50
180
51
300.50392193886682
0
ARC
5
127
100
AcDbEntity
8
0
100
AcDbCircle
10
-3.8648428278745834
20
0.61807346188286161
30
1.7483827159451283e-16
40
0.09375
210
0
220
-0
230
1
100
AcDbArc
50
7.6622556607660028
51
120.50392193886707
0
LINE
5
128
100
AcDbEntity
8
0
100
AcDbLine
10
-3.7719298982038425
20
0.63057346188286156
30
1.7483827159451283e-16
11
-3.6771997384999904
21
0.63057346188286134
31
1.6937457560718431e-16
0
ARC
5
129
100
AcDbEntity
8
0
100
AcDbCircle
10
-3.6771997384999904
20
0.61807346188286139
30
1.7483827159451283e-16
40
0.012499999999999976
210
0
220
0
230
1
100
AcDbArc
50
-90
51
90
0
LINE
5
130
100
AcDbEntity
8
0
100
AcDbLine
10
-3.6771997384999904
20
0.60557346188286143
30
1.7483827159451283e-16
11
-3.7719298982038425
21
0.60557346188286154
31
1.8030196758184134e-16
0
ARC
5
131
100
AcDbEntity
8
0
100
AcDbCircle
10
-3.8648428278745834
20
0.61807346188286161
30
1.7483827159451283e-16
40
0.093750000000000458
210
-1.8503717077083219e-18
220
-1.3753876507444581e-17
230
1
100
AcDbArc
50
239.49607806113301
51
352.33774433923389
0
ARC
5
132
100
AcDbEntity
8
0
100
AcDbCircle
10
-3.9182928278745841
20
0.52734756976820651
30
-1.7483827159451283e-16
40
0.011550000000000223
210
-1.531482822804413e-14
220
-2.5995349926509826e-14
230
1
100
AcDbArc
50
59.496078061134035
51
180
0
LINE
5
133
100
AcDbEntity
8
0
100
AcDbLine
10
-3.9298428278745843
20
0.52734756976820651
30
-1.7483827159451283e-16
11
-3.9298428278745834
21
0.48005706863264558
31
-1.7483827159451283e-16
0
ARC
5
134
100
AcDbEntity
8
0
100
AcDbCircle
10
-3.8369028278745847
20
0.48005706863264491
30
-5.2451481478353848e-16
40
0.092939999999998649
210
3.7623901784918304e-15
220
-2.8311159710423573e-29
230
1
100
AcDbArc
50
180
51
270.00000000000023
0
LINE
5
135
100
AcDbEntity
8
0
100
AcDbLine
10
-3.8369028278745843
20
0.38711706863264556
30
-5.2451481478353848e-16
11
-3.6762466491253973
21
0.38711706863264544
31
-1.5298348764519871e-16
0
ARC
5
136
100
AcDbEntity
8
0
100
AcDbCircle
10
-3.6762466491253964
20
0.48005706863264491
30
-5.2451481478353848e-16
40
0.09293999999999944
210
3.0080607192324542e-29
220
3.9975395646475361e-15
230
1
100
AcDbArc
50
-90.000000000000568
51
0
0
LINE
5
137
100
AcDbEntity
8
0
100
AcDbLine
10
-3.5833066491253973
20
0.48005706863264552
30
-5.2451481478353848e-16
11
-3.5833066491253964
21
0.84902985513307716
31
1.7483827159451283e-16
0
ARC
5
138
100
AcDbEntity
8
0
100
AcDbCircle
10
-3.1258396030233371
20
0.84902985513307749
30
-3.4967654318902565e-16
40
0.45746704610206085
210
-3.8218768561420363e-16
220
-0
230
1
100
AcDbArc
50
0
51
180
0
LINE
5
139
100
AcDbEntity
8
0
100
AcDbLine
10
-2.6683725569212764
20
0.84902985513307749
30
-1.7483827159451283e-16
11
-2.6683725569212777
21
0.38711706863264511
31
-1.7483827159451283e-16
0
LINE
5
140
100
AcDbEntity
8
0
100
AcDbLine
10
-2.6683725569212777
20
0.38711706863264511
30
-1.7483827159451283e-16
11
-2.5409645669289955
21
0.38711706863264511
31
-1.6391087961985577e-16
0
LINE
5
141
100
AcDbEntity
8
0
100
AcDbLine
10
-2.5409645669289955
20
0.38711706863264511
30
-1.6391087961985577e-16
11
-2.5409645669289951
21
0.97222199519903751
31
-1.7483827159451283e-16
0
ARC
5
142
100
AcDbEntity
8
0
100
AcDbCircle
10
-3.0595745669289958
20
0.97222199519903763
30
-3.4967654318902595e-16
40
0.5186100000000009
210
-3.3712861609786317e-16
220
8.6072420897105866e-18
230
1
100
AcDbArc
50
0
51
71.406695657975504
0
LINE
5
143
100
AcDbEntity
8
0
100
AcDbLine
10
-2.8942165205724817
20
1.4637634976229497
30
-3.6407086225904703e-16
11
-3.280426161988407
21
1.5936871591523709
31
2.1854783949314103e-17
0
ARC
5
144
100
AcDbEntity
8
0
100
AcDbCircle
10
-3.2841088627373671
20
1.5827400035768977
30
-5.2451481478353848e-16
40
0.011550000000000185
210
-1.5100335388653318e-14
220
-4.4829871915499739e-14
230
1
100
AcDbArc
50
71.406695657971014
51
202.50160725910425
0
ARC
5
145
100
AcDbEntity
8
0
100
AcDbCircle
10
-3.3813922470747535
20
1.5424407091430723
30
1.7483827159451283e-16
40
0.093750000000000194
210
0
220
0
230
1
100
AcDbArc
50
-70.815386547693038
51
22.501607259103508
0
LINE
5
146
100
AcDbEntity
8
0
100
AcDbLine
10
-3.350584775843739
20
1.453897148020028
30
1.7483827159451283e-16
11
-3.3311255541154949
21
1.3584426904226943
31
-1.7620419559134497e-16
0
ARC
5
147
100
AcDbEntity
8
0
100
AcDbCircle
10
-3.3433736395310474
20
1.3559458116404264
30
1.7483827159451283e-16
40
0.012500000000000349
210
0
220
0
230
1
100
AcDbArc
50
-168.47764220845937
51
11.522357791537669
0
LINE
5
148
100
AcDbEntity
8
0
100
AcDbLine
10
-3.3556217249465998
20
1.3534489328581578
30
1.7483827159451283e-16
11
-3.3750809466748453
21
1.4489033904554915
31
-1.7347234759768068e-16
0
ARC
5
149
100
AcDbEntity
8
0
100
AcDbCircle
10
-3.3813922470747535
20
1.5424407091430723
30
1.7483827159451283e-16
40
0.093749999999999972
210
0
220
0
230
1
100
AcDbArc
50
173.18484952355098
51
273.8601021307735
0
ARC
5
150
100
AcDbEntity
8
0
100
AcDbCircle
10
-3.4859482145798064
20
1.5549362947268892
30
-5.2451481478353858e-16
40
0.011550000000000877
210
-6.0116742851369038e-14
220
7.2310443761338709e-15
230
1
100
AcDbArc
50
-6.8151504764509498
51
117.02778593939591
0
ARC
5
151
100
AcDbEntity
8
0
100
AcDbCircle
10
-3.1258396030233371
20
0.84902985513307749
30
-3.4967654318902565e-16
40
0.80400322485124565
210
-9.9180954365436299e-17
220
1.9442043906979083e-16
230
1
100
AcDbArc
50
117.02778593939705
51
123.85539797556338
0
LINE
5
152
100
AcDbEntity
8
0
100
AcDbLine
10
-3.573748846988277
20
1.5167112872112496
30
-3.4967654318902565e-16
11
-3.4372133575110335
21
1.291513530515467
31
1.7483827159451283e-16
0
ARC
5
153
100
AcDbEntity
8
0
100
AcDbCircle
10
-3.4479022362326064
20
1.2850329540229384
30
-1.7483827159451288e-16
40
0.012499999999999999
210
2.8779540939400242e-17
220
-4.7468157056462521e-17
230
1
100
AcDbArc
50
-148.77192213677895
51
31.228077863222804
0
ENDSEC
0
SECTION
2
OBJECTS
0
DICTIONARY
5
C
100
AcDbDictionary
3
ACAD_GROUP
350
D
3
ACAD_MLINESTYLE
350
17
0
DICTIONARY
5
D
100
AcDbDictionary
0
DICTIONARY
5
1A
330
C
100
AcDbDictionary
0
DICTIONARY
5
17
100
AcDbDictionary
0
ENDSEC
0
EOF
