0
SECTION
2
HEADER
9
$INSUNITS
70
4
9
$ACADVER
1
AC1014
9
$HANDSEED
5
FFFF
0
ENDSEC
0
SECTION
2
TABLES
0
TABLE
2
VPORT
5
8
100
AcDbSymbolTable
0
ENDTAB
0
TABLE
2
LTYPE
5
5
100
AcDbSymbolTable
0
LTYPE
5
14
100
AcDbSymbolTableRecord
100
AcDbLinetypeTableRecord
2
BYBLOCK
70
0
0
LTYPE
5
15
100
AcDbSymbolTableRecord
100
AcDbLinetypeTableRecord
2
BYLAYER
70
0
0
ENDTAB
0
TABLE
2
LAYER
5
2
100
AcDbSymbolTable
70
2
0
LAYER
5
50
100
AcDbSymbolTableRecord
100
AcDbLayerTableRecord
2
0
70
0
6
CONTINUOUS
0
ENDTAB
0
TABLE
2
STYLE
5
3
100
AcDbSymbolTable
70
1
0
STYLE
5
11
100
AcDbSymbolTableRecord
100
AcDbTextStyleTableRecord
2
STANDARD
70
0
0
ENDTAB
0
TABLE
2
VIEW
5
6
100
AcDbSymbolTable
70
0
0
ENDTAB
0
TABLE
2
UCS
5
7
100
AcDbSymbolTable
70
0
0
ENDTAB
0
TABLE
2
APPID
5
9
100
AcDbSymbolTable
70
2
0
APPID
5
12
100
AcDbSymbolTableRecord
100
AcDbRegAppTableRecord
2
ACAD
70
0
0
ENDTAB
0
TABLE
2
DIMSTYLE
5
A
100
AcDbSymbolTable
70
1
0
ENDTAB
0
TABLE
2
BLOCK_RECORD
5
1
100
AcDbSymbolTable
70
1
0
BLOCK_RECORD
5
1F
100
AcDbSymbolTableRecord
100
AcDbBlockTableRecord
2
*MODEL_SPACE
0
BLOCK_RECORD
5
1B
100
AcDbSymbolTableRecord
100
AcDbBlockTableRecord
2
*PAPER_SPACE
0
ENDTAB
0
ENDSEC
0
SECTION
2
BLOCKS
0
BLOCK
5
20
100
AcDbEntity
100
AcDbBlockBegin
2
*MODEL_SPACE
0
ENDBLK
5
21
100
AcDbEntity
100
AcDbBlockEnd
0
BLOCK
5
1C
100
AcDbEntity
100
AcDbBlockBegin
2
*PAPER_SPACE
0
ENDBLK
5
1D
100
AcDbEntity
100
AcDbBlockEnd
0
ENDSEC
0
SECTION
2
ENTITIES
0
LWPOLYLINE
5
100
100
AcDbEntity
8
0
100
AcDbPolyline
90
4
70
1
43
0.0
10
30.409255564208966
20
229.95409000000001
10
30.409255564208966
20
232.45409000000009
10
20.409255564208966
20
232.45409000000009
10
20.409255564208966
20
229.95409000000001
0
LWPOLYLINE
5
101
100
AcDbEntity
8
0
100
AcDbPolyline
90
4
70
1
43
0.0
10
59.03416056420896
20
232.45409000000009
10
49.03416056420896
20
232.45409000000009
10
49.03416056420896
20
229.95409000000001
10
59.03416056420896
20
229.95409000000001
0
LWPOLYLINE
5
102
100
AcDbEntity
8
0
100
AcDbPolyline
90
4
70
1
43
0.0
10
134.90887556420896
20
229.95408999999995
10
144.90887556420896
20
229.95408999999995
10
144.90887556420896
20
232.45409000000001
10
134.90887556420896
20
232.45409000000001
0
LWPOLYLINE
5
103
100
AcDbEntity
8
0
100
AcDbPolyline
90
4
70
1
43
0.0
10
106.28397056420896
20
229.95408999999998
10
116.28397056420896
20
229.95408999999998
10
116.28397056420896
20
232.45409000000001
10
106.28397056420896
20
232.45409000000001
0
LWPOLYLINE
5
104
100
AcDbEntity
8
0
100
AcDbPolyline
90
4
70
1
43
0.0
10
77.659065564208959
20
229.95409000000001
10
87.659065564208959
20
229.95409000000001
10
87.659065564208959
20
232.45409000000006
10
77.659065564208959
20
232.45409000000006
0
LWPOLYLINE
5
105
100
AcDbEntity
8
0
100
AcDbPolyline
90
4
70
1
43
0.0
10
30.409255564208966
20
-25.04590999999996
10
30.409255564208966
20
-22.545909999999907
10
20.409255564208966
20
-22.545909999999907
10
20.409255564208966
20
-25.04590999999996
0
LWPOLYLINE
5
106
100
AcDbEntity
8
0
100
AcDbPolyline
90
4
70
1
43
0.0
10
59.03416056420896
20
-22.545909999999925
10
49.03416056420896
20
-22.545909999999925
10
49.03416056420896
20
-25.045909999999978
10
59.03416056420896
20
-25.045909999999978
0
LWPOLYLINE
5
107
100
AcDbEntity
8
0
100
AcDbPolyline
90
4
70
1
43
0.0
10
134.90887556420896
20
-25.045910000000031
10
144.90887556420896
20
-25.045910000000031
10
144.90887556420896
20
-22.545909999999978
10
134.90887556420896
20
-22.545909999999978
0
LWPOLYLINE
5
108
100
AcDbEntity
8
0
100
AcDbPolyline
90
4
70
1
43
0.0
10
106.28397056420896
20
-25.045910000000013
10
116.28397056420896
20
-25.045910000000013
10
116.28397056420896
20
-22.54590999999996
10
106.28397056420896
20
-22.54590999999996
0
LWPOLYLINE
5
109
100
AcDbEntity
8
0
100
AcDbPolyline
90
4
70
1
43
0.0
10
77.659065564208959
20
-25.045909999999996
10
87.659065564208959
20
-25.045909999999996
10
87.659065564208959
20
-22.545909999999942
10
77.659065564208959
20
-22.545909999999942
0
LWPOLYLINE
5
110
100
AcDbEntity
8
0
100
AcDbPolyline
90
4
70
1
43
0.0
10
17.909251114258975
20
-27.545909999999978
10
17.909251114258975
20
234.95409000000018
10
147.40887556420898
20
234.95409000000018
10
147.40887556420898
20
-27.545909999999978
0
ENDSEC
0
SECTION
2
OBJECTS
0
DICTIONARY
5
C
100
AcDbDictionary
3
ACAD_GROUP
350
D
3
ACAD_MLINESTYLE
350
17
0
DICTIONARY
5
D
100
AcDbDictionary
0
DICTIONARY
5
1A
330
C
100
AcDbDictionary
0
DICTIONARY
5
17
100
AcDbDictionary
0
ENDSEC
0
EOF
