0
SECTION
2
HEADER
9
$INSUNITS
70
4
9
$ACADVER
1
AC1014
9
$HANDSEED
5
FFFF
0
ENDSEC
0
SECTION
2
TABLES
0
TABLE
2
VPORT
5
8
100
AcDbSymbolTable
0
ENDTAB
0
TABLE
2
LTYPE
5
5
100
AcDbSymbolTable
0
LTYPE
5
14
100
AcDbSymbolTableRecord
100
AcDbLinetypeTableRecord
2
BYBLOCK
70
0
0
LTYPE
5
15
100
AcDbSymbolTableRecord
100
AcDbLinetypeTableRecord
2
BYLAYER
70
0
0
ENDTAB
0
TABLE
2
LAYER
5
2
100
AcDbSymbolTable
70
2
0
LAYER
5
50
100
AcDbSymbolTableRecord
100
AcDbLayerTableRecord
2
0
70
0
6
CONTINUOUS
0
ENDTAB
0
TABLE
2
STYLE
5
3
100
AcDbSymbolTable
70
1
0
STYLE
5
11
100
AcDbSymbolTableRecord
100
AcDbTextStyleTableRecord
2
STANDARD
70
0
0
ENDTAB
0
TABLE
2
VIEW
5
6
100
AcDbSymbolTable
70
0
0
ENDTAB
0
TABLE
2
UCS
5
7
100
AcDbSymbolTable
70
0
0
ENDTAB
0
TABLE
2
APPID
5
9
100
AcDbSymbolTable
70
2
0
APPID
5
12
100
AcDbSymbolTableRecord
100
AcDbRegAppTableRecord
2
ACAD
70
0
0
ENDTAB
0
TABLE
2
DIMSTYLE
5
A
100
AcDbSymbolTable
70
1
0
ENDTAB
0
TABLE
2
BLOCK_RECORD
5
1
100
AcDbSymbolTable
70
1
0
BLOCK_RECORD
5
1F
100
AcDbSymbolTableRecord
100
AcDbBlockTableRecord
2
*MODEL_SPACE
0
BLOCK_RECORD
5
1B
100
AcDbSymbolTableRecord
100
AcDbBlockTableRecord
2
*PAPER_SPACE
0
ENDTAB
0
ENDSEC
0
SECTION
2
BLOCKS
0
BLOCK
5
20
100
AcDbEntity
100
AcDbBlockBegin
2
*MODEL_SPACE
0
ENDBLK
5
21
100
AcDbEntity
100
AcDbBlockEnd
0
BLOCK
5
1C
100
AcDbEntity
100
AcDbBlockBegin
2
*PAPER_SPACE
0
ENDBLK
5
1D
100
AcDbEntity
100
AcDbBlockEnd
0
ENDSEC
0
SECTION
2
ENTITIES
0
ARC
5
100
100
AcDbEntity
8
0
100
AcDbCircle
10
-549.62073852933838
20
65.099907826763101
30
0
40
1.5649999998880375
210
0
220
0
230
1
100
AcDbArc
50
223.76920939274828
51
226.20489706837523
0
ARC
5
101
100
AcDbEntity
8
0
100
AcDbCircle
10
-551.83398275429454
20
62.887663601808235
30
0
40
1.5649999998880437
210
0
220
-0
230
1
100
AcDbArc
50
43.769209392748671
51
46.204897068375594
0
ARC
5
102
100
AcDbEntity
8
0
100
AcDbCircle
10
-551.83398275448292
20
41.556235030189427
30
0
40
1.5650000001557114
210
0
220
-0
230
1
100
AcDbArc
50
43.76920939303016
51
46.204897068194491
0
ARC
5
103
100
AcDbEntity
8
0
100
AcDbCircle
10
-549.62073852915
20
43.768479255524809
30
0
40
1.5650000001556785
210
0
220
0
230
1
100
AcDbArc
50
223.76920939303108
51
226.20489706819538
0
CIRCLE
5
104
100
AcDbEntity
8
0
100
AcDbCircle
10
-449.89788397866647
20
10.659999999999844
30
0
40
1.4223999999999992
210
0
220
-0
230
1
0
CIRCLE
5
105
100
AcDbEntity
8
0
100
AcDbCircle
10
-449.89741594920747
20
64.000000000000043
30
0
40
1.4223999999999992
210
0
220
-0
230
1
0
CIRCLE
5
106
100
AcDbEntity
8
0
100
AcDbCircle
10
-546.41601106039036
20
10.659999999999716
30
0
40
1.4223999999999926
210
0
220
-0
230
1
0
CIRCLE
5
107
100
AcDbEntity
8
0
100
AcDbCircle
10
-546.41804479227778
20
63.999999999999737
30
0
40
1.4223999999999926
210
0
220
-0
230
1
0
ARC
5
108
100
AcDbEntity
8
0
100
AcDbCircle
10
-551.83398275428942
20
20.224806458956849
30
0
40
1.5649999998803279
210
0
220
-0
230
1
100
AcDbArc
50
43.769209392724569
51
46.204897068365867
0
ARC
5
109
100
AcDbEntity
8
0
100
AcDbCircle
10
-549.62073852937795
20
22.437050683865731
30
0
40
1.5649999998317032
210
0
220
0
230
1
100
AcDbArc
50
223.76920939268578
51
226.20489706840294
0
LWPOLYLINE
5
110
100
AcDbEntity
8
0
100
AcDbPolyline
90
4
70
1
43
0.0
10
-558.06534094498898
20
39.218999999999774
10
-564.665340944989
20
39.218999999999738
10
-564.66534094498888
20
27.818999999999697
10
-558.06534094498898
20
27.818999999999733
0
LWPOLYLINE
5
111
100
AcDbEntity
8
0
100
AcDbPolyline
90
2
70
1
43
0.0
10
-465.49723719183612
20
70.673199999999923
42
-13.587924034617448
10
-462.41597073097245
20
70.673199999999923
0
LWPOLYLINE
5
112
100
AcDbEntity
8
0
100
AcDbPolyline
90
2
70
1
43
0.0
10
-487.0220675231389
20
70.673199999999937
42
-14.498828282404297
10
-484.13265376049372
20
70.673199999999937
0
LWPOLYLINE
5
113
100
AcDbEntity
8
0
100
AcDbPolyline
90
44
70
1
43
0.0
10
-445.58736064181642
20
6.3500000000000201
10
-445.58736064181642
20
-21.476000000000038
10
-456.81023064181215
20
-21.476000000000038
10
-456.81023064181215
20
-3.0897999999995163
42
0.99999999999999989
10
-468.1132306418142
20
-3.0897999999995163
10
-468.1132306418142
20
-21.476000000000038
10
-474.66736064181634
20
-21.476000000000038
10
-474.66736064181634
20
-13.579197261745616
42
0.99999999999999989
10
-478.46736064181636
20
-13.579197261745616
10
-478.46736064181636
20
-21.476000000000038
10
-486.10373564181629
20
-21.476000000000038
10
-486.10373564181629
20
-9.0897999999996912
42
0.99999999999999989
10
-493.0237356418163
20
-9.0897999999996912
10
-493.0237356418163
20
-21.476000000000038
10
-507.43736064181627
20
-21.476000000000038
10
-507.43736064181633
20
-9.0987251770066457
42
0.99999999999999989
10
-514.35736064181629
20
-9.0987251770066422
10
-514.35736064181629
20
-21.476000000000038
10
-525.46736064181619
20
-21.476000000000038
10
-525.46736064181619
20
-13.582481377499791
42
0.99999999999999989
10
-529.26736064181614
20
-13.582481377499814
10
-529.26736064181614
20
-21.476000000000038
10
-534.35736064181629
20
-21.476000000000038
10
-534.35736064181629
20
-13.582481377499809
42
0.99999999999999989
10
-538.15736064181624
20
-13.582481377500098
10
-538.15736064181624
20
-21.476000000000038
10
-550.72736064181652
20
-21.476000000000038
10
-550.72736064181652
20
6.3489999999999647
10
-578.55336064181654
20
6.3489999999999469
10
-578.55336064181654
20
68.308999999999983
10
-550.72736064181652
20
68.308999999999941
10
-550.72736064181652
20
96.136999999999972
10
-532.8882053591268
20
96.137
10
-532.8882053591268
20
96.135000000000005
10
-532.89236055805657
20
83.097646599949201
42
0.40711920136053514
10
-529.86373913694376
20
79.99259659312871
10
-514.78695534855672
20
79.992595492276109
42
0.41426345115616398
10
-511.68243012584492
20
83.097649547460179
10
-511.68465075111203
20
96.134999999999991
10
-511.68465075111203
20
96.136999999999972
10
-445.58736064181653
20
96.136999999999972
10
-445.58736064181642
20
68.309999999999931
10
-417.76136064181651
20
68.310000000000031
10
-417.7613606418164
20
6.3500000000000112
0
ENDSEC
0
SECTION
2
OBJECTS
0
DICTIONARY
5
C
100
AcDbDictionary
3
ACAD_GROUP
350
D
3
ACAD_MLINESTYLE
350
17
0
DICTIONARY
5
D
100
AcDbDictionary
0
DICTIONARY
5
1A
330
C
100
AcDbDictionary
0
DICTIONARY
5
17
100
AcDbDictionary
0
ENDSEC
0
EOF
